  0
SECTION
  2
HEADER
  9
$ACADVER
  1
AC1009
  9
$INSBASE
 10
0.0
 20
0.0
 30
0.0
  9
$EXTMIN
 10
0.0
 20
-2.960436562073669
 30
0.0
  9
$EXTMAX
 10
164.34254062812329
 20
93.433962953680833
 30
0.0
  9
$LIMMIN
 10
0.0
 20
0.0
  9
$LIMMAX
 10
187.5
 20
135.0
  9
$ORTHOMODE
 70
     0
  9
$REGENMODE
 70
     1
  9
$FILLMODE
 70
     1
  9
$QTEXTMODE
 70
     0
  9
$MIRRTEXT
 70
     0
  9
$DRAGMODE
 70
     2
  9
$LTSCALE
 40
5.0
  9
$OSMODE
 70
  3071
  9
$ATTMODE
 70
     1
  9
$TEXTSIZE
 40
2.5
  9
$TRACEWID
 40
0.05
  9
$TEXTSTYLE
  7
STANDARD
  9
$CLAYER
  8
0
  9
$CELTYPE
  6
BYLAYER
  9
$CECOLOR
 62
   256
  9
$DIMSCALE
 40
0.5
  9
$DIMASZ
 40
3.0
  9
$DIMEXO
 40
2.0
  9
$DIMDLI
 40
10.0
  9
$DIMRND
 40
0.0
  9
$DIMDLE
 40
0.0
  9
$DIMEXE
 40
2.0
  9
$DIMTP
 40
0.0
  9
$DIMTM
 40
0.0
  9
$DIMTXT
 40
3.0
  9
$DIMCEN
 40
0.09
  9
$DIMTSZ
 40
0.0
  9
$DIMTOL
 70
     0
  9
$DIMLIM
 70
     0
  9
$DIMTIH
 70
     0
  9
$DIMTOH
 70
     0
  9
$DIMSE1
 70
     0
  9
$DIMSE2
 70
     0
  9
$DIMTAD
 70
     1
  9
$DIMZIN
 70
     0
  9
$DIMBLK
  1

  9
$DIMASO
 70
     0
  9
$DIMSHO
 70
     0
  9
$DIMPOST
  1

  9
$DIMAPOST
  1

  9
$DIMALT
 70
     0
  9
$DIMALTD
 70
     2
  9
$DIMALTF
 40
25.399999999999999
  9
$DIMLFAC
 40
1.0
  9
$DIMTOFL
 70
     1
  9
$DIMTVP
 40
1.6000000000000001
  9
$DIMTIX
 70
     1
  9
$DIMSOXD
 70
     0
  9
$DIMSAH
 70
     0
  9
$DIMBLK1
  1

  9
$DIMBLK2
  1

  9
$DIMSTYLE
  2
STANDARD
  9
$DIMCLRD
 70
     0
  9
$DIMCLRE
 70
     0
  9
$DIMCLRT
 70
     0
  9
$DIMTFAC
 40
1.0
  9
$DIMGAP
 40
0.09
  9
$LUNITS
 70
     2
  9
$LUPREC
 70
     4
  9
$SKETCHINC
 40
0.1
  9
$FILLETRAD
 40
0.0
  9
$AUNITS
 70
     0
  9
$AUPREC
 70
     0
  9
$MENU
  1
E:\r13\win\SUPPORT\ACAD
  9
$ELEVATION
 40
0.0
  9
$PELEVATION
 40
0.0
  9
$THICKNESS
 40
0.0
  9
$LIMCHECK
 70
     0
  9
$BLIPMODE
 70
     0
  9
$CHAMFERA
 40
3.2000000000000002
  9
$CHAMFERB
 40
3.2000000000000002
  9
$SKPOLY
 70
     0
  9
$TDCREATE
 40
2449840.5944097228
  9
$TDUPDATE
 40
2456597.5789867709
  9
$TDINDWG
 40
0.2837279051
  9
$TDUSRTIMER
 40
0.2837279051
  9
$USRTIMER
 70
     1
  9
$ANGBASE
 50
0.0
  9
$ANGDIR
 70
     0
  9
$PDMODE
 70
     0
  9
$PDSIZE
 40
0.0
  9
$PLINEWID
 40
0.0
  9
$COORDS
 70
     1
  9
$SPLFRAME
 70
     0
  9
$SPLINETYPE
 70
     6
  9
$SPLINESEGS
 70
     8
  9
$ATTDIA
 70
     0
  9
$ATTREQ
 70
     1
  9
$HANDLING
 70
     1
  9
$HANDSEED
  5
3B40
  9
$SURFTAB1
 70
     6
  9
$SURFTAB2
 70
     6
  9
$SURFTYPE
 70
     6
  9
$SURFU
 70
     6
  9
$SURFV
 70
     6
  9
$UCSNAME
  2

  9
$UCSORG
 10
0.0
 20
0.0
 30
0.0
  9
$UCSXDIR
 10
1.0
 20
0.0
 30
0.0
  9
$UCSYDIR
 10
0.0
 20
1.0
 30
0.0
  9
$PUCSNAME
  2

  9
$PUCSORG
 10
0.0
 20
0.0
 30
0.0
  9
$PUCSXDIR
 10
1.0
 20
0.0
 30
0.0
  9
$PUCSYDIR
 10
0.0
 20
1.0
 30
0.0
  9
$USERI1
 70
     0
  9
$USERI2
 70
     1
  9
$USERI3
 70
     1
  9
$USERI4
 70
     0
  9
$USERI5
 70
     0
  9
$USERR1
 40
0.0
  9
$USERR2
 40
0.0
  9
$USERR3
 40
0.0
  9
$USERR4
 40
0.0
  9
$USERR5
 40
0.0
  9
$WORLDVIEW
 70
     1
  9
$SHADEDGE
 70
     3
  9
$SHADEDIF
 70
    70
  9
$TILEMODE
 70
     1
  9
$MAXACTVP
 70
    16
  9
$PLIMCHECK
 70
     0
  9
$PEXTMIN
 10
1.0000000000000000E+020
 20
1.0000000000000000E+020
 30
1.0000000000000000E+020
  9
$PEXTMAX
 10
-1.0000000000000000E+020
 20
-1.0000000000000000E+020
 30
-1.0000000000000000E+020
  9
$PLIMMIN
 10
0.0
 20
0.0
  9
$PLIMMAX
 10
12.0
 20
9.0
  9
$UNITMODE
 70
     0
  9
$VISRETAIN
 70
     0
  9
$PLINEGEN
 70
     0
  9
$PSLTSCALE
 70
     0
  0
ENDSEC
  0
SECTION
  2
TABLES
  0
TABLE
  2
VPORT
 70
     1
  0
VPORT
  2
*ACTIVE
 70
     0
 10
0.0
 20
0.0
 11
1.0
 21
1.0
 12
93.74713919532617
 22
80.848703909439024
 13
0.0
 23
0.0
 14
5.0
 24
5.0
 15
5.0
 25
5.0
 16
0.0
 26
0.0
 36
1.0
 17
0.0
 27
0.0
 37
0.0
 40
169.22413112104309
 41
1.9089595375722539
 42
50.0
 43
0.0
 44
0.0
 50
0.0
 51
0.0
 71
     0
 72
   100
 73
     1
 74
     0
 75
     0
 76
     0
 77
     0
 78
     0
  0
ENDTAB
  0
TABLE
  2
LTYPE
 70
     4
  0
LTYPE
  2
CONTINUOUS
 70
     0
  3
Solid Line
 72
    65
 73
     0
 40
0.0
  0
LTYPE
  2
CENTER
 70
     0
  3
____ _ ____ _ ____ _ ____ _ ____ _ ____ _ ____
 72
    65
 73
     4
 40
2.0
 49
1.25
 49
-0.25
 49
0.25
 49
-0.25
  0
LTYPE
  2
HIDDEN
 70
     0
  3
_ _ _ _ _ _ _ _ _ _ _ _ _ _ _ _ _ _ _ _ _ _ _
 72
    65
 73
     2
 40
0.375
 49
0.25
 49
-0.125
  0
LTYPE
  2
PHANTOM2
 70
     0
  3
___ _ _ ___ _ _ ___ _ _ ___ _ _
 72
    65
 73
     6
 40
1.25
 49
0.625
 49
-0.125
 49
0.125
 49
-0.125
 49
0.125
 49
-0.125
  0
ENDTAB
  0
TABLE
  2
LAYER
 70
     4
  0
LAYER
  2
0
 70
     0
 62
     7
  6
CONTINUOUS
  0
LAYER
  2
1
 70
     0
 62
     1
  6
CENTER
  0
LAYER
  2
2
 70
     0
 62
     2
  6
HIDDEN
  0
LAYER
  2
3
 70
     0
 62
     3
  6
CONTINUOUS
  0
ENDTAB
  0
TABLE
  2
STYLE
 70
     2
  0
STYLE
  2
STANDARD
 70
     0
 40
0.0
 41
1.0
 50
0.0
 71
     0
 42
2.5
  3
TXT
  4
BIGFONT
  0
STYLE
  2
STANDARD1
 70
     0
 40
0.0
 41
1.0
 50
0.0
 71
     0
 42
3.0
  3
txt
  4

  0
ENDTAB
  0
TABLE
  2
VIEW
 70
     1
  0
VIEW
  2
ALL
 70
     0
 40
135.0
 10
110.49579799999999
 20
67.5
 41
0.0
 11
0.0
 21
0.0
 31
1.0
 12
0.0
 22
0.0
 32
0.0
 42
0.0
 43
0.0
 44
0.0
 50
0.0
 71
     0
  0
ENDTAB
  0
TABLE
  2
UCS
 70
     0
  0
ENDTAB
  0
TABLE
  2
APPID
 70
     4
  0
APPID
  2
ACAD
 70
     0
  0
APPID
  2
DCO15
 70
     0
  0
APPID
  2
ACAD_MLEADERVER
 70
     0
  0
APPID
  2
ACAD_NAV_VCDISPLAY
 70
     0
  0
ENDTAB
  0
TABLE
  2
DIMSTYLE
 70
     1
  0
DIMSTYLE
  2
STANDARD
 70
     0
  3

  4

  5

  6

  7

 40
1.0
 41
0.18
 42
0.0625
 43
0.38
 44
0.18
 45
0.0
 46
0.0
 47
0.0
 48
0.0
140
0.18
141
0.09
142
0.0
143
25.399999999999999
144
1.0
145
0.0
146
1.0
147
0.09
 71
     0
 72
     0
 73
     1
 74
     1
 75
     0
 76
     0
 77
     0
 78
     0
170
     0
171
     2
172
     0
173
     0
174
     0
175
     0
176
     0
177
     0
178
     0
  0
ENDTAB
  0
ENDSEC
  0
SECTION
  2
BLOCKS
  0
BLOCK
  8
0
  2
$MODEL_SPACE
 70
     0
 10
0.0
 20
0.0
 30
0.0
  3
$MODEL_SPACE
  1

  0
ENDBLK
  5
15D
  8
0
  0
BLOCK
 67
     1
  8
0
  2
$PAPER_SPACE
 70
     0
 10
0.0
 20
0.0
 30
0.0
  3
$PAPER_SPACE
  1

  0
ENDBLK
  5
15B
 67
     1
  8
0
  0
BLOCK
  8
0
  2
STDGX5
 70
     0
 10
0.0
 20
0.0
 30
0.0
  3
STDGX5
  1

  0
ENDBLK
  5
41
  8
0
  0
ENDSEC
  0
SECTION
  2
ENTITIES
  0
INSERT
  5
CA
  8
0
  2
STDGX5
 10
0.0
 20
0.0
 30
0.0
  0
INSERT
  5
69A
  8
0
  2
STDGX5
 10
194.3272563481562
 20
13.52129245667936
 30
0.0
  0
LINE
  5
39A3
  8
3
 10
80.142540628123228
 20
60.533962953680643
 30
0.0
 11
47.542540628123291
 21
60.533962953680657
 31
0.0
  0
LINE
  5
39A4
  8
3
 10
80.142540628123228
 20
60.733962953680638
 30
0.0
 11
47.542540628123291
 21
60.73396295368066
 31
0.0
  0
LINE
  5
39A5
  8
3
 10
80.142540628123228
 20
61.033962953680643
 30
0.0
 11
47.542540628123291
 21
61.033962953680657
 31
0.0
  0
LINE
  5
39A6
  8
3
 10
80.142540628123228
 20
61.433962953680648
 30
0.0
 11
47.542540628123291
 21
61.433962953680663
 31
0.0
  0
LINE
  5
39A7
  8
3
 10
80.142540628123228
 20
61.933962953680648
 30
0.0
 11
47.542540628123291
 21
61.933962953680663
 31
0.0
  0
LINE
  5
39A8
  8
3
 10
80.142540628123228
 20
62.533962953680643
 30
0.0
 11
47.542540628123291
 21
62.533962953680657
 31
0.0
  0
LINE
  5
39A9
  8
3
 10
80.142540628123228
 20
63.233962953680638
 30
0.0
 11
47.542540628123291
 21
63.23396295368066
 31
0.0
  0
LINE
  5
39AA
  8
3
 10
80.142540628123228
 20
64.033962953680643
 30
0.0
 11
47.542540628123291
 21
64.033962953680657
 31
0.0
  0
LINE
  5
39AB
  8
3
 10
80.142540628123228
 20
64.83396295368064
 30
0.0
 11
47.542540628123291
 21
64.833962953680654
 31
0.0
  0
LINE
  5
39AC
  8
3
 10
80.142540628123228
 20
65.633962953680637
 30
0.0
 11
47.542540628123291
 21
65.633962953680651
 31
0.0
  0
LINE
  5
39AD
  8
3
 10
80.142540628123228
 20
69.633962953680694
 30
0.0
 11
47.542540628123291
 21
69.633962953680694
 31
0.0
  0
LINE
  5
39AE
  8
3
 10
80.142540628123228
 20
68.833962953680697
 30
0.0
 11
47.542540628123291
 21
68.833962953680711
 31
0.0
  0
LINE
  5
39AF
  8
3
 10
80.142540628123228
 20
68.0339629536807
 30
0.0
 11
47.542540628123291
 21
68.033962953680714
 31
0.0
  0
LINE
  5
39B0
  8
3
 10
80.142540628123228
 20
67.233962953680702
 30
0.0
 11
47.542540628123291
 21
67.233962953680717
 31
0.0
  0
LINE
  5
39B1
  8
3
 10
80.142540628123228
 20
66.433962953680705
 30
0.0
 11
47.542540628123291
 21
66.433962953680719
 31
0.0
  0
LINE
  5
39B2
  8
3
 10
80.142540628123228
 20
70.433962953680762
 30
0.0
 11
47.542540628123291
 21
70.433962953680776
 31
0.0
  0
LINE
  5
39B3
  8
3
 10
80.142540628123228
 20
71.233962953680759
 30
0.0
 11
47.542540628123291
 21
71.233962953680773
 31
0.0
  0
LINE
  5
39B4
  8
3
 10
80.142540628123228
 20
72.033962953680756
 30
0.0
 11
47.542540628123291
 21
72.033962953680771
 31
0.0
  0
LINE
  5
39B5
  8
3
 10
80.142540628123228
 20
72.833962953680754
 30
0.0
 11
47.542540628123291
 21
72.833962953680768
 31
0.0
  0
LINE
  5
39B6
  8
3
 10
80.142540628123228
 20
73.633962953680751
 30
0.0
 11
47.542540628123291
 21
73.633962953680765
 31
0.0
  0
LINE
  5
39B7
  8
1
 10
86.34254062812326
 20
74.433962953680734
 30
0.0
 11
41.342540628123281
 21
74.433962953680734
 31
0.0
  0
CIRCLE
  5
39B8
  8
3
 10
145.34254062812329
 20
74.433962953680833
 30
0.0
 40
5.0000000000000142
  0
CIRCLE
  5
39B9
  8
0
 10
145.34254062812329
 20
74.433962953680833
 30
0.0
 40
4.188000000000101
  0
LINE
  5
39BA
  8
2
 10
79.842540628123245
 20
78.621962953680935
 30
0.0
 11
79.842540628123302
 21
70.245962953680532
 31
0.0
  0
LINE
  5
39BB
  8
2
 10
81.342540628123317
 20
80.121962953680992
 30
0.0
 11
79.842540628123245
 21
78.621962953680935
 31
0.0
  0
LINE
  5
39C0
  8
2
 10
80.654540628123158
 20
79.433962953680833
 30
0.0
 11
47.030540628123369
 21
79.433962953680833
 31
0.0
  0
LINE
  5
39C1
  8
2
 10
79.842540628123203
 20
78.621962953680935
 30
0.0
 11
47.842540628123253
 21
78.621962953680935
 31
0.0
  0
CIRCLE
  5
39C2
  8
0
 10
145.34254062812329
 20
74.433962953680833
 30
0.0
 40
12.80000000000001
  0
LINE
  5
39C3
  8
0
 10
80.142540628123214
 20
88.43396295368089
 30
0.0
 11
80.142540628123257
 21
60.433962953680833
 31
0.0
  0
LINE
  5
39C4
  8
0
 10
47.542540628123263
 20
88.433962953680819
 30
0.0
 11
47.542540628123291
 21
60.433962953680847
 31
0.0
  0
LINE
  5
39C5
  8
0
 10
46.342540628123281
 20
61.63396295368085
 30
0.0
 11
47.542540628123291
 21
60.433962953680847
 31
0.0
  0
LINE
  5
39C6
  8
0
 10
47.542540628123263
 20
88.433962953680833
 30
0.0
 11
46.34254062812326
 21
87.23396295368083
 31
0.0
  0
LINE
  5
39C7
  8
0
 10
80.142540628123271
 20
88.433962953680847
 30
0.0
 11
81.342540628123274
 21
87.233962953680845
 31
0.0
  0
LINE
  5
39C8
  8
0
 10
81.342540628123245
 20
61.633962953680843
 30
0.0
 11
80.142540628123257
 21
60.433962953680833
 31
0.0
  0
LINE
  5
39C9
  8
0
 10
46.34254062812326
 20
87.23396295368083
 30
0.0
 11
46.342540628123281
 21
61.63396295368085
 31
0.0
  0
LINE
  5
39CA
  8
0
 10
81.342540628123274
 20
87.233962953680845
 30
0.0
 11
81.342540628123245
 21
61.633962953680843
 31
0.0
  0
LINE
  5
39CB
  8
0
 10
80.142540628123257
 20
60.433962953680833
 30
0.0
 11
47.542540628123291
 21
60.433962953680847
 31
0.0
  0
LINE
  5
39CC
  8
0
 10
80.142540628123271
 20
88.433962953680847
 30
0.0
 11
47.542540628123263
 21
88.433962953680833
 31
0.0
  0
CIRCLE
  5
39CD
  8
0
 10
145.34254062812329
 20
74.433962953680833
 30
0.0
 40
14.0
  0
LINE
  5
39CE
  8
1
 10
145.34254062812329
 20
93.433962953680833
 30
0.0
 11
145.34254062812329
 21
55.433962953680833
 31
0.0
  0
LINE
  5
39CF
  8
1
 10
164.34254062812329
 20
74.433962953680833
 30
0.0
 11
126.3425406281232
 21
74.433962953680833
 31
0.0
  0
LINE
  5
39D1
  8
2
 10
79.842540628123174
 20
70.245962953680589
 30
0.0
 11
47.842540628123452
 21
70.245962953680745
 31
0.0
  0
LINE
  5
39D2
  8
2
 10
80.654540628123144
 20
69.433962953680677
 30
0.0
 11
47.030540628123561
 21
69.433962953680847
 31
0.0
  0
LINE
  5
39D4
  8
2
 10
81.342540628123288
 20
68.745962953680518
 30
0.0
 11
79.842540628123245
 21
70.245962953680589
 31
0.0
  0
LINE
  5
39D6
  8
3
 10
80.142540628123257
 20
75.233962953680773
 30
0.0
 11
47.542540628123298
 21
75.233962953680916
 31
0.0
  0
LINE
  5
39D8
  8
3
 10
80.142540628123257
 20
76.033962953680771
 30
0.0
 11
47.542540628123298
 21
76.033962953680913
 31
0.0
  0
LINE
  5
39D9
  8
3
 10
80.142540628123257
 20
76.833962953680754
 30
0.0
 11
47.542540628123312
 21
76.833962953680896
 31
0.0
  0
LINE
  5
39DA
  8
3
 10
80.142540628123257
 20
77.633962953680765
 30
0.0
 11
47.542540628123312
 21
77.633962953680907
 31
0.0
  0
LINE
  5
39DB
  8
3
 10
80.142540628123257
 20
78.433962953680762
 30
0.0
 11
47.542540628123312
 21
78.433962953680904
 31
0.0
  0
LINE
  5
39DC
  8
3
 10
80.142540628123271
 20
82.433962953680819
 30
0.0
 11
47.542540628123326
 21
82.433962953680961
 31
0.0
  0
LINE
  5
39DD
  8
3
 10
80.142540628123271
 20
81.633962953680822
 30
0.0
 11
47.542540628123326
 21
81.633962953680964
 31
0.0
  0
LINE
  5
39DE
  8
3
 10
80.142540628123271
 20
80.833962953680825
 30
0.0
 11
47.542540628123319
 21
80.833962953680967
 31
0.0
  0
LINE
  5
39DF
  8
3
 10
80.142540628123257
 20
80.033962953680813
 30
0.0
 11
47.542540628123319
 21
80.033962953680955
 31
0.0
  0
LINE
  5
39E0
  8
3
 10
80.142540628123257
 20
79.23396295368083
 30
0.0
 11
47.542540628123312
 21
79.233962953680972
 31
0.0
  0
LINE
  5
39E1
  8
3
 10
80.142540628123271
 20
83.233962953680887
 30
0.0
 11
47.542540628123341
 21
83.233962953681029
 31
0.0
  0
LINE
  5
39E2
  8
3
 10
80.142540628123285
 20
84.033962953680884
 30
0.0
 11
47.542540628123348
 21
84.033962953681026
 31
0.0
  0
LINE
  5
39E3
  8
3
 10
80.142540628123285
 20
84.833962953680881
 30
0.0
 11
47.542540628123348
 21
84.833962953681024
 31
0.0
  0
LINE
  5
39E4
  8
3
 10
80.142540628123285
 20
85.633962953680879
 30
0.0
 11
47.542540628123348
 21
85.633962953681021
 31
0.0
  0
LINE
  5
39E5
  8
3
 10
80.142540628123299
 20
86.333962953680853
 30
0.0
 11
47.542540628123348
 21
86.333962953680995
 31
0.0
  0
LINE
  5
39E6
  8
3
 10
80.142540628123299
 20
86.933962953680876
 30
0.0
 11
47.542540628123362
 21
86.933962953681004
 31
0.0
  0
LINE
  5
39E7
  8
3
 10
80.142540628123299
 20
87.433962953680862
 30
0.0
 11
47.542540628123362
 21
87.433962953681004
 31
0.0
  0
LINE
  5
39E8
  8
3
 10
80.142540628123299
 20
87.833962953680867
 30
0.0
 11
47.542540628123362
 21
87.833962953681009
 31
0.0
  0
LINE
  5
39E9
  8
3
 10
80.142540628123299
 20
88.133962953680879
 30
0.0
 11
47.542540628123362
 21
88.133962953681021
 31
0.0
  0
LINE
  5
39EA
  8
3
 10
80.142540628123299
 20
88.333962953680867
 30
0.0
 11
47.542540628123362
 21
88.333962953681024
 31
0.0
  0
LINE
  5
39EC
  8
3
 10
80.142540628123271
 20
74.433962953680776
 30
0.0
 11
47.542540628123326
 21
74.433962953680918
 31
0.0
  0
LINE
  5
39F4
  8
2
 10
46.342540628123231
 20
68.745962953680518
 30
0.0
 11
47.842540628123288
 21
70.245962953680589
 31
0.0
  0
LINE
  5
39F5
  8
2
 10
46.34254062812321
 20
80.121962953680992
 30
0.0
 11
47.842540628123267
 21
78.621962953680935
 31
0.0
  0
LINE
  5
39F6
  8
2
 10
47.842540628123267
 20
78.621962953680935
 30
0.0
 11
47.842540628123231
 21
70.245962953680532
 31
0.0
  0
TEXT
  5
3AAF
  8
0
 62
     3
 10
0.0
 20
0.0
 30
0.0
 40
10.0
  1
LKN10T-SUS
  7
STANDARD1
  0
ENDSEC
  0
EOF
