  0
SECTION
  2
HEADER
  9
$ACADVER
  1
AC1009
  9
$INSBASE
 10
0.0
 20
0.0
 30
0.0
  9
$EXTMIN
 10
0.0
 20
-2.960436562073669
 30
0.0
  9
$EXTMAX
 10
68.321964529331524
 20
30.179245211663979
 30
0.0
  9
$LIMMIN
 10
0.0
 20
0.0
  9
$LIMMAX
 10
187.5
 20
135.0
  9
$ORTHOMODE
 70
     1
  9
$REGENMODE
 70
     1
  9
$FILLMODE
 70
     1
  9
$QTEXTMODE
 70
     0
  9
$MIRRTEXT
 70
     0
  9
$DRAGMODE
 70
     2
  9
$LTSCALE
 40
2.5
  9
$OSMODE
 70
  3071
  9
$ATTMODE
 70
     1
  9
$TEXTSIZE
 40
2.5
  9
$TRACEWID
 40
0.05
  9
$TEXTSTYLE
  7
STANDARD
  9
$CLAYER
  8
0
  9
$CELTYPE
  6
BYLAYER
  9
$CECOLOR
 62
   256
  9
$DIMSCALE
 40
0.5
  9
$DIMASZ
 40
3.0
  9
$DIMEXO
 40
2.0
  9
$DIMDLI
 40
10.0
  9
$DIMRND
 40
0.0
  9
$DIMDLE
 40
0.0
  9
$DIMEXE
 40
2.0
  9
$DIMTP
 40
0.0
  9
$DIMTM
 40
0.0
  9
$DIMTXT
 40
3.0
  9
$DIMCEN
 40
0.09
  9
$DIMTSZ
 40
0.0
  9
$DIMTOL
 70
     0
  9
$DIMLIM
 70
     0
  9
$DIMTIH
 70
     0
  9
$DIMTOH
 70
     0
  9
$DIMSE1
 70
     0
  9
$DIMSE2
 70
     0
  9
$DIMTAD
 70
     1
  9
$DIMZIN
 70
     0
  9
$DIMBLK
  1

  9
$DIMASO
 70
     0
  9
$DIMSHO
 70
     0
  9
$DIMPOST
  1

  9
$DIMAPOST
  1

  9
$DIMALT
 70
     0
  9
$DIMALTD
 70
     2
  9
$DIMALTF
 40
25.399999999999999
  9
$DIMLFAC
 40
1.0
  9
$DIMTOFL
 70
     1
  9
$DIMTVP
 40
1.6000000000000001
  9
$DIMTIX
 70
     1
  9
$DIMSOXD
 70
     0
  9
$DIMSAH
 70
     0
  9
$DIMBLK1
  1

  9
$DIMBLK2
  1

  9
$DIMSTYLE
  2
STANDARD
  9
$DIMCLRD
 70
     0
  9
$DIMCLRE
 70
     0
  9
$DIMCLRT
 70
     0
  9
$DIMTFAC
 40
1.0
  9
$DIMGAP
 40
0.09
  9
$LUNITS
 70
     2
  9
$LUPREC
 70
     4
  9
$SKETCHINC
 40
0.1
  9
$FILLETRAD
 40
0.0
  9
$AUNITS
 70
     0
  9
$AUPREC
 70
     0
  9
$MENU
  1
E:\r13\win\SUPPORT\ACAD
  9
$ELEVATION
 40
0.0
  9
$PELEVATION
 40
0.0
  9
$THICKNESS
 40
0.0
  9
$LIMCHECK
 70
     0
  9
$BLIPMODE
 70
     0
  9
$CHAMFERA
 40
3.2000000000000002
  9
$CHAMFERB
 40
3.2000000000000002
  9
$SKPOLY
 70
     0
  9
$TDCREATE
 40
2449840.5944097228
  9
$TDUPDATE
 40
2456597.5789948842
  9
$TDINDWG
 40
0.2755754051
  9
$TDUSRTIMER
 40
0.2755754051
  9
$USRTIMER
 70
     1
  9
$ANGBASE
 50
0.0
  9
$ANGDIR
 70
     0
  9
$PDMODE
 70
     0
  9
$PDSIZE
 40
0.0
  9
$PLINEWID
 40
0.0
  9
$COORDS
 70
     1
  9
$SPLFRAME
 70
     0
  9
$SPLINETYPE
 70
     6
  9
$SPLINESEGS
 70
     8
  9
$ATTDIA
 70
     0
  9
$ATTREQ
 70
     1
  9
$HANDLING
 70
     1
  9
$HANDSEED
  5
39DD
  9
$SURFTAB1
 70
     6
  9
$SURFTAB2
 70
     6
  9
$SURFTYPE
 70
     6
  9
$SURFU
 70
     6
  9
$SURFV
 70
     6
  9
$UCSNAME
  2

  9
$UCSORG
 10
0.0
 20
0.0
 30
0.0
  9
$UCSXDIR
 10
1.0
 20
0.0
 30
0.0
  9
$UCSYDIR
 10
0.0
 20
1.0
 30
0.0
  9
$PUCSNAME
  2

  9
$PUCSORG
 10
0.0
 20
0.0
 30
0.0
  9
$PUCSXDIR
 10
1.0
 20
0.0
 30
0.0
  9
$PUCSYDIR
 10
0.0
 20
1.0
 30
0.0
  9
$USERI1
 70
     0
  9
$USERI2
 70
     1
  9
$USERI3
 70
     1
  9
$USERI4
 70
     0
  9
$USERI5
 70
     0
  9
$USERR1
 40
0.0
  9
$USERR2
 40
0.0
  9
$USERR3
 40
0.0
  9
$USERR4
 40
0.0
  9
$USERR5
 40
0.0
  9
$WORLDVIEW
 70
     1
  9
$SHADEDGE
 70
     3
  9
$SHADEDIF
 70
    70
  9
$TILEMODE
 70
     1
  9
$MAXACTVP
 70
    16
  9
$PLIMCHECK
 70
     0
  9
$PEXTMIN
 10
1.0000000000000000E+020
 20
1.0000000000000000E+020
 30
1.0000000000000000E+020
  9
$PEXTMAX
 10
-1.0000000000000000E+020
 20
-1.0000000000000000E+020
 30
-1.0000000000000000E+020
  9
$PLIMMIN
 10
0.0
 20
0.0
  9
$PLIMMAX
 10
12.0
 20
9.0
  9
$UNITMODE
 70
     0
  9
$VISRETAIN
 70
     0
  9
$PLINEGEN
 70
     0
  9
$PSLTSCALE
 70
     0
  0
ENDSEC
  0
SECTION
  2
TABLES
  0
TABLE
  2
VPORT
 70
     1
  0
VPORT
  2
*ACTIVE
 70
     0
 10
0.0
 20
0.0
 11
1.0
 21
1.0
 12
93.74713919532617
 22
80.848703909439024
 13
0.0
 23
0.0
 14
5.0
 24
5.0
 15
5.0
 25
5.0
 16
0.0
 26
0.0
 36
1.0
 17
0.0
 27
0.0
 37
0.0
 40
169.22413112104309
 41
1.9089595375722539
 42
50.0
 43
0.0
 44
0.0
 50
0.0
 51
0.0
 71
     0
 72
   100
 73
     1
 74
     0
 75
     0
 76
     0
 77
     0
 78
     0
  0
ENDTAB
  0
TABLE
  2
LTYPE
 70
     4
  0
LTYPE
  2
CONTINUOUS
 70
     0
  3
Solid Line
 72
    65
 73
     0
 40
0.0
  0
LTYPE
  2
CENTER
 70
     0
  3
____ _ ____ _ ____ _ ____ _ ____ _ ____ _ ____
 72
    65
 73
     4
 40
2.0
 49
1.25
 49
-0.25
 49
0.25
 49
-0.25
  0
LTYPE
  2
HIDDEN
 70
     0
  3
_ _ _ _ _ _ _ _ _ _ _ _ _ _ _ _ _ _ _ _ _ _ _
 72
    65
 73
     2
 40
0.375
 49
0.25
 49
-0.125
  0
LTYPE
  2
PHANTOM2
 70
     0
  3
___ _ _ ___ _ _ ___ _ _ ___ _ _
 72
    65
 73
     6
 40
1.25
 49
0.625
 49
-0.125
 49
0.125
 49
-0.125
 49
0.125
 49
-0.125
  0
ENDTAB
  0
TABLE
  2
LAYER
 70
     4
  0
LAYER
  2
0
 70
     0
 62
     7
  6
CONTINUOUS
  0
LAYER
  2
1
 70
     0
 62
     1
  6
CENTER
  0
LAYER
  2
2
 70
     0
 62
     2
  6
HIDDEN
  0
LAYER
  2
3
 70
     0
 62
     3
  6
CONTINUOUS
  0
ENDTAB
  0
TABLE
  2
STYLE
 70
     2
  0
STYLE
  2
STANDARD
 70
     0
 40
0.0
 41
1.0
 50
0.0
 71
     0
 42
2.5
  3
TXT
  4
BIGFONT
  0
STYLE
  2
STANDARD1
 70
     0
 40
0.0
 41
1.0
 50
0.0
 71
     0
 42
3.0
  3
txt
  4

  0
ENDTAB
  0
TABLE
  2
VIEW
 70
     1
  0
VIEW
  2
ALL
 70
     0
 40
135.0
 10
110.49579799999999
 20
67.5
 41
0.0
 11
0.0
 21
0.0
 31
1.0
 12
0.0
 22
0.0
 32
0.0
 42
0.0
 43
0.0
 44
0.0
 50
0.0
 71
     0
  0
ENDTAB
  0
TABLE
  2
UCS
 70
     0
  0
ENDTAB
  0
TABLE
  2
APPID
 70
     4
  0
APPID
  2
ACAD
 70
     0
  0
APPID
  2
DCO15
 70
     0
  0
APPID
  2
ACAD_MLEADERVER
 70
     0
  0
APPID
  2
ACAD_NAV_VCDISPLAY
 70
     0
  0
ENDTAB
  0
TABLE
  2
DIMSTYLE
 70
     1
  0
DIMSTYLE
  2
STANDARD
 70
     0
  3

  4

  5

  6

  7

 40
1.0
 41
0.18
 42
0.0625
 43
0.38
 44
0.18
 45
0.0
 46
0.0
 47
0.0
 48
0.0
140
0.18
141
0.09
142
0.0
143
25.399999999999999
144
1.0
145
0.0
146
1.0
147
0.09
 71
     0
 72
     0
 73
     1
 74
     1
 75
     0
 76
     0
 77
     0
 78
     0
170
     0
171
     2
172
     0
173
     0
174
     0
175
     0
176
     0
177
     0
178
     0
  0
ENDTAB
  0
ENDSEC
  0
SECTION
  2
BLOCKS
  0
BLOCK
  8
0
  2
$MODEL_SPACE
 70
     0
 10
0.0
 20
0.0
 30
0.0
  3
$MODEL_SPACE
  1

  0
ENDBLK
  5
15D
  8
0
  0
BLOCK
 67
     1
  8
0
  2
$PAPER_SPACE
 70
     0
 10
0.0
 20
0.0
 30
0.0
  3
$PAPER_SPACE
  1

  0
ENDBLK
  5
15B
 67
     1
  8
0
  0
BLOCK
  8
0
  2
STDGX5
 70
     0
 10
0.0
 20
0.0
 30
0.0
  3
STDGX5
  1

  0
ENDBLK
  5
41
  8
0
  0
ENDSEC
  0
SECTION
  2
ENTITIES
  0
INSERT
  5
CA
  8
0
  2
STDGX5
 10
0.0
 20
0.0
 30
0.0
  0
INSERT
  5
69A
  8
0
  2
STDGX5
 10
194.3272563481562
 20
13.52129245667936
 30
0.0
  0
LINE
  5
3859
  8
3
 10
26.692068273154032
 20
19.779245211664009
 30
0.0
 11
37.492068273154047
 21
19.779245211664001
 31
0.0
  0
LINE
  5
385A
  8
3
 10
26.692068273154032
 20
19.929245211664011
 30
0.0
 11
37.492068273154047
 21
19.929245211664
 31
0.0
  0
LINE
  5
385B
  8
3
 10
26.692068273154032
 20
20.229245211664011
 30
0.0
 11
37.492068273154047
 21
20.229245211664001
 31
0.0
  0
LINE
  5
385C
  8
3
 10
26.692068273154032
 20
20.679245211664011
 30
0.0
 11
37.492068273154047
 21
20.679245211664
 31
0.0
  0
LINE
  5
385D
  8
3
 10
26.692068273154032
 20
21.279245211664001
 30
0.0
 11
37.492068273154047
 21
21.279245211664001
 31
0.0
  0
LINE
  5
385E
  8
3
 10
26.692068273154032
 20
21.879245211663999
 30
0.0
 11
37.492068273154047
 21
21.879245211663989
 31
0.0
  0
LINE
  5
385F
  8
3
 10
26.692068273154032
 20
22.479245211664001
 30
0.0
 11
37.492068273154047
 21
22.47924521166399
 31
0.0
  0
LINE
  5
3860
  8
3
 10
26.692068273154032
 20
23.079245211663991
 30
0.0
 11
37.492068273154047
 21
23.079245211663981
 31
0.0
  0
CIRCLE
  5
3861
  8
3
 10
52.092068273154041
 20
23.679245211663972
 30
0.0
 40
1.499999999999992
  0
CIRCLE
  5
3862
  8
0
 10
52.092068273154041
 20
23.679245211663972
 30
0.0
 40
1.229499999999994
  0
LINE
  5
3863
  8
2
 10
37.592068273153991
 20
24.908745211663991
 30
0.0
 11
38.092068273154041
 21
25.408745211664019
 31
0.0
  0
LINE
  5
3864
  8
2
 10
37.592068273154041
 20
24.908745211663991
 30
0.0
 11
37.592068273154041
 21
22.44974521166397
 31
0.0
  0
LINE
  5
3865
  8
2
 10
32.092068273154041
 20
25.179245211663918
 30
0.0
 11
31.623548529706628
 21
24.908745211663959
 31
0.0
  0
LINE
  5
3866
  8
2
 10
29.592068273154041
 20
24.908745211663991
 30
0.0
 11
28.85331014205963
 21
23.679245211663979
 31
0.0
  0
LINE
  5
3867
  8
2
 10
29.592068273154041
 20
24.908745211663991
 30
0.0
 11
29.592068273154041
 21
22.44974521166397
 31
0.0
  0
LINE
  5
3868
  8
2
 10
32.092068273154041
 20
25.179245211663979
 30
0.0
 11
32.092068273154041
 21
22.44974521166397
 31
0.0
  0
LINE
  5
3869
  8
2
 10
37.862568273153961
 20
25.179245211663979
 30
0.0
 11
32.092068273154041
 21
25.179245211663979
 31
0.0
  0
LINE
  5
386A
  8
2
 10
37.592068273153991
 20
24.908745211663991
 30
0.0
 11
29.592068273154052
 21
24.908745211663991
 31
0.0
  0
CIRCLE
  5
386B
  8
0
 10
52.092068273154041
 20
23.679245211663972
 30
0.0
 40
3.4000000000000119
  0
LINE
  5
386C
  8
0
 10
37.492068273154061
 20
27.679245211663979
 30
0.0
 11
37.492068273154047
 21
19.679245211663979
 31
0.0
  0
LINE
  5
386D
  8
0
 10
26.692068273154021
 20
27.679245211663961
 30
0.0
 11
26.692068273154039
 21
19.679245211663979
 31
0.0
  0
LINE
  5
386E
  8
0
 10
26.092068273154041
 20
20.27924521166398
 30
0.0
 11
26.692068273154039
 21
19.679245211663979
 31
0.0
  0
LINE
  5
386F
  8
0
 10
26.692068273154039
 20
27.679245211663979
 30
0.0
 11
26.092068273154041
 21
27.07924521166397
 31
0.0
  0
LINE
  5
3870
  8
0
 10
37.492068273154047
 20
27.679245211664
 30
0.0
 11
38.092068273154041
 21
27.079245211663999
 31
0.0
  0
LINE
  5
3871
  8
0
 10
38.092068273154041
 20
20.27924521166398
 30
0.0
 11
37.492068273154047
 21
19.679245211663979
 31
0.0
  0
LINE
  5
3872
  8
0
 10
26.092068273154041
 20
27.07924521166397
 30
0.0
 11
26.092068273154041
 21
20.27924521166398
 31
0.0
  0
LINE
  5
3873
  8
0
 10
38.092068273154041
 20
27.079245211663999
 30
0.0
 11
38.092068273154041
 21
20.27924521166398
 31
0.0
  0
LINE
  5
3874
  8
0
 10
37.492068273154047
 20
19.679245211663979
 30
0.0
 11
26.692068273154039
 21
19.679245211663979
 31
0.0
  0
LINE
  5
3875
  8
0
 10
37.492068273154047
 20
27.679245211664
 30
0.0
 11
26.692068273154039
 21
27.679245211663979
 31
0.0
  0
CIRCLE
  5
3876
  8
0
 10
52.092068273154041
 20
23.679245211663972
 30
0.0
 40
4.0
  0
LINE
  5
3877
  8
1
 10
52.092068273154041
 20
30.179245211663979
 30
0.0
 11
52.092068273154041
 21
17.179245211663972
 31
0.0
  0
LINE
  5
3878
  8
1
 10
58.592068273154041
 20
23.679245211663972
 30
0.0
 11
45.592068273154041
 21
23.679245211663972
 31
0.0
  0
LINE
  5
3879
  8
1
 10
23.592068273154041
 20
23.679245211663979
 30
0.0
 11
40.592068273154041
 21
23.679245211663972
 31
0.0
  0
LINE
  5
387A
  8
3
 10
26.692068273154032
 20
24.27924521166398
 30
0.0
 11
37.492068273154047
 21
24.27924521166398
 31
0.0
  0
LINE
  5
387B
  8
3
 10
26.692068273154032
 20
24.879245211663971
 30
0.0
 11
37.492068273154047
 21
24.879245211663971
 31
0.0
  0
LINE
  5
387C
  8
3
 10
26.692068273154032
 20
25.479245211663962
 30
0.0
 11
37.492068273154047
 21
25.479245211663962
 31
0.0
  0
LINE
  5
387D
  8
3
 10
26.692068273154032
 20
26.079245211663959
 30
0.0
 11
37.492068273154047
 21
26.079245211663959
 31
0.0
  0
LINE
  5
387E
  8
3
 10
26.692068273154032
 20
26.67924521166395
 30
0.0
 11
37.492068273154047
 21
26.67924521166395
 31
0.0
  0
LINE
  5
387F
  8
3
 10
26.692068273154032
 20
27.12924521166395
 30
0.0
 11
37.492068273154047
 21
27.12924521166395
 31
0.0
  0
LINE
  5
3880
  8
3
 10
26.692068273154032
 20
27.42924521166395
 30
0.0
 11
37.492068273154047
 21
27.42924521166395
 31
0.0
  0
LINE
  5
3881
  8
3
 10
26.692068273154032
 20
27.579245211663949
 30
0.0
 11
37.492068273154047
 21
27.579245211663949
 31
0.0
  0
LINE
  5
3882
  8
2
 10
29.592068273154041
 20
22.449745211663981
 30
0.0
 11
28.85331014205963
 21
23.679245211663979
 31
0.0
  0
LINE
  5
3883
  8
2
 10
37.592068273153991
 20
22.44974521166397
 30
0.0
 11
29.592068273154052
 21
22.44974521166397
 31
0.0
  0
LINE
  5
3884
  8
2
 10
37.862568273153961
 20
22.179245211663972
 30
0.0
 11
32.092068273154041
 21
22.179245211663979
 31
0.0
  0
LINE
  5
3885
  8
2
 10
32.092068273154041
 20
22.179245211664028
 30
0.0
 11
31.623548529706628
 21
22.449745211663991
 31
0.0
  0
LINE
  5
3886
  8
2
 10
37.592068273153991
 20
22.44974521166397
 30
0.0
 11
38.092068273154041
 21
21.949745211663931
 31
0.0
  0
LINE
  5
3887
  8
3
 10
26.692068273154032
 20
23.679245211663972
 30
0.0
 11
37.492068273154047
 21
23.679245211663972
 31
0.0
  0
LINE
  5
3890
  8
1
 10
12.092068273154039
 20
30.179245211663979
 30
0.0
 11
12.092068273154039
 21
17.179245211663972
 31
0.0
  0
CIRCLE
  5
3891
  8
0
 10
12.092068273154039
 20
23.679245211663972
 30
0.0
 40
4.0
  0
CIRCLE
  5
3892
  8
0
 10
12.092068273154039
 20
23.679245211663972
 30
0.0
 40
3.4000000000000119
  0
LINE
  5
3893
  8
1
 10
5.5920682731540401
 20
23.679245211663972
 30
0.0
 11
18.592068273154041
 21
23.679245211663972
 31
0.0
  0
TEXT
  5
394C
  8
0
 62
     3
 10
0.0
 20
0.0
 30
0.0
 40
10.0
  1
LKN3-SUS
  7
STANDARD1
  0
ENDSEC
  0
EOF
