  0
SECTION
  2
HEADER
  9
$ACADVER
  1
AC1009
  9
$INSBASE
 10
0.0
 20
0.0
 30
0.0
  9
$EXTMIN
 10
0.0
 20
-2.960436562073669
 30
0.0
  9
$EXTMAX
 10
109.133301737446
 20
60.386792246146747
 30
0.0
  9
$LIMMIN
 10
0.0
 20
0.0
  9
$LIMMAX
 10
187.5
 20
135.0
  9
$ORTHOMODE
 70
     0
  9
$REGENMODE
 70
     1
  9
$FILLMODE
 70
     1
  9
$QTEXTMODE
 70
     0
  9
$MIRRTEXT
 70
     0
  9
$DRAGMODE
 70
     2
  9
$LTSCALE
 40
5.0
  9
$OSMODE
 70
  3071
  9
$ATTMODE
 70
     1
  9
$TEXTSIZE
 40
2.5
  9
$TRACEWID
 40
0.05
  9
$TEXTSTYLE
  7
STANDARD
  9
$CLAYER
  8
0
  9
$CELTYPE
  6
BYLAYER
  9
$CECOLOR
 62
   256
  9
$DIMSCALE
 40
0.5
  9
$DIMASZ
 40
3.0
  9
$DIMEXO
 40
2.0
  9
$DIMDLI
 40
10.0
  9
$DIMRND
 40
0.0
  9
$DIMDLE
 40
0.0
  9
$DIMEXE
 40
2.0
  9
$DIMTP
 40
0.0
  9
$DIMTM
 40
0.0
  9
$DIMTXT
 40
3.0
  9
$DIMCEN
 40
0.09
  9
$DIMTSZ
 40
0.0
  9
$DIMTOL
 70
     0
  9
$DIMLIM
 70
     0
  9
$DIMTIH
 70
     0
  9
$DIMTOH
 70
     0
  9
$DIMSE1
 70
     0
  9
$DIMSE2
 70
     0
  9
$DIMTAD
 70
     1
  9
$DIMZIN
 70
     0
  9
$DIMBLK
  1

  9
$DIMASO
 70
     0
  9
$DIMSHO
 70
     0
  9
$DIMPOST
  1

  9
$DIMAPOST
  1

  9
$DIMALT
 70
     0
  9
$DIMALTD
 70
     2
  9
$DIMALTF
 40
25.399999999999999
  9
$DIMLFAC
 40
1.0
  9
$DIMTOFL
 70
     1
  9
$DIMTVP
 40
1.6000000000000001
  9
$DIMTIX
 70
     1
  9
$DIMSOXD
 70
     0
  9
$DIMSAH
 70
     0
  9
$DIMBLK1
  1

  9
$DIMBLK2
  1

  9
$DIMSTYLE
  2
STANDARD
  9
$DIMCLRD
 70
     0
  9
$DIMCLRE
 70
     0
  9
$DIMCLRT
 70
     0
  9
$DIMTFAC
 40
1.0
  9
$DIMGAP
 40
0.09
  9
$LUNITS
 70
     2
  9
$LUPREC
 70
     4
  9
$SKETCHINC
 40
0.1
  9
$FILLETRAD
 40
0.0
  9
$AUNITS
 70
     0
  9
$AUPREC
 70
     0
  9
$MENU
  1
E:\r13\win\SUPPORT\ACAD
  9
$ELEVATION
 40
0.0
  9
$PELEVATION
 40
0.0
  9
$THICKNESS
 40
0.0
  9
$LIMCHECK
 70
     0
  9
$BLIPMODE
 70
     0
  9
$CHAMFERA
 40
3.2000000000000002
  9
$CHAMFERB
 40
3.2000000000000002
  9
$SKPOLY
 70
     0
  9
$TDCREATE
 40
2449840.5944097228
  9
$TDUPDATE
 40
2456597.5790261808
  9
$TDINDWG
 40
0.2791514815
  9
$TDUSRTIMER
 40
0.2791514815
  9
$USRTIMER
 70
     1
  9
$ANGBASE
 50
0.0
  9
$ANGDIR
 70
     0
  9
$PDMODE
 70
     0
  9
$PDSIZE
 40
0.0
  9
$PLINEWID
 40
0.0
  9
$COORDS
 70
     1
  9
$SPLFRAME
 70
     0
  9
$SPLINETYPE
 70
     6
  9
$SPLINESEGS
 70
     8
  9
$ATTDIA
 70
     0
  9
$ATTREQ
 70
     1
  9
$HANDLING
 70
     1
  9
$HANDSEED
  5
3A55
  9
$SURFTAB1
 70
     6
  9
$SURFTAB2
 70
     6
  9
$SURFTYPE
 70
     6
  9
$SURFU
 70
     6
  9
$SURFV
 70
     6
  9
$UCSNAME
  2

  9
$UCSORG
 10
0.0
 20
0.0
 30
0.0
  9
$UCSXDIR
 10
1.0
 20
0.0
 30
0.0
  9
$UCSYDIR
 10
0.0
 20
1.0
 30
0.0
  9
$PUCSNAME
  2

  9
$PUCSORG
 10
0.0
 20
0.0
 30
0.0
  9
$PUCSXDIR
 10
1.0
 20
0.0
 30
0.0
  9
$PUCSYDIR
 10
0.0
 20
1.0
 30
0.0
  9
$USERI1
 70
     0
  9
$USERI2
 70
     1
  9
$USERI3
 70
     1
  9
$USERI4
 70
     0
  9
$USERI5
 70
     0
  9
$USERR1
 40
0.0
  9
$USERR2
 40
0.0
  9
$USERR3
 40
0.0
  9
$USERR4
 40
0.0
  9
$USERR5
 40
0.0
  9
$WORLDVIEW
 70
     1
  9
$SHADEDGE
 70
     3
  9
$SHADEDIF
 70
    70
  9
$TILEMODE
 70
     1
  9
$MAXACTVP
 70
    16
  9
$PLIMCHECK
 70
     0
  9
$PEXTMIN
 10
1.0000000000000000E+020
 20
1.0000000000000000E+020
 30
1.0000000000000000E+020
  9
$PEXTMAX
 10
-1.0000000000000000E+020
 20
-1.0000000000000000E+020
 30
-1.0000000000000000E+020
  9
$PLIMMIN
 10
0.0
 20
0.0
  9
$PLIMMAX
 10
12.0
 20
9.0
  9
$UNITMODE
 70
     0
  9
$VISRETAIN
 70
     0
  9
$PLINEGEN
 70
     0
  9
$PSLTSCALE
 70
     0
  0
ENDSEC
  0
SECTION
  2
TABLES
  0
TABLE
  2
VPORT
 70
     1
  0
VPORT
  2
*ACTIVE
 70
     0
 10
0.0
 20
0.0
 11
1.0
 21
1.0
 12
93.74713919532617
 22
80.848703909439024
 13
0.0
 23
0.0
 14
5.0
 24
5.0
 15
5.0
 25
5.0
 16
0.0
 26
0.0
 36
1.0
 17
0.0
 27
0.0
 37
0.0
 40
169.22413112104309
 41
1.9089595375722539
 42
50.0
 43
0.0
 44
0.0
 50
0.0
 51
0.0
 71
     0
 72
   100
 73
     1
 74
     0
 75
     0
 76
     0
 77
     0
 78
     0
  0
ENDTAB
  0
TABLE
  2
LTYPE
 70
     4
  0
LTYPE
  2
CONTINUOUS
 70
     0
  3
Solid Line
 72
    65
 73
     0
 40
0.0
  0
LTYPE
  2
CENTER
 70
     0
  3
____ _ ____ _ ____ _ ____ _ ____ _ ____ _ ____
 72
    65
 73
     4
 40
2.0
 49
1.25
 49
-0.25
 49
0.25
 49
-0.25
  0
LTYPE
  2
HIDDEN
 70
     0
  3
_ _ _ _ _ _ _ _ _ _ _ _ _ _ _ _ _ _ _ _ _ _ _
 72
    65
 73
     2
 40
0.375
 49
0.25
 49
-0.125
  0
LTYPE
  2
PHANTOM2
 70
     0
  3
___ _ _ ___ _ _ ___ _ _ ___ _ _
 72
    65
 73
     6
 40
1.25
 49
0.625
 49
-0.125
 49
0.125
 49
-0.125
 49
0.125
 49
-0.125
  0
ENDTAB
  0
TABLE
  2
LAYER
 70
     4
  0
LAYER
  2
0
 70
     0
 62
     7
  6
CONTINUOUS
  0
LAYER
  2
1
 70
     0
 62
     1
  6
CENTER
  0
LAYER
  2
2
 70
     0
 62
     2
  6
HIDDEN
  0
LAYER
  2
3
 70
     0
 62
     3
  6
CONTINUOUS
  0
ENDTAB
  0
TABLE
  2
STYLE
 70
     2
  0
STYLE
  2
STANDARD
 70
     0
 40
0.0
 41
1.0
 50
0.0
 71
     0
 42
2.5
  3
TXT
  4
BIGFONT
  0
STYLE
  2
STANDARD1
 70
     0
 40
0.0
 41
1.0
 50
0.0
 71
     0
 42
3.0
  3
txt
  4

  0
ENDTAB
  0
TABLE
  2
VIEW
 70
     1
  0
VIEW
  2
ALL
 70
     0
 40
135.0
 10
110.49579799999999
 20
67.5
 41
0.0
 11
0.0
 21
0.0
 31
1.0
 12
0.0
 22
0.0
 32
0.0
 42
0.0
 43
0.0
 44
0.0
 50
0.0
 71
     0
  0
ENDTAB
  0
TABLE
  2
UCS
 70
     0
  0
ENDTAB
  0
TABLE
  2
APPID
 70
     4
  0
APPID
  2
ACAD
 70
     0
  0
APPID
  2
DCO15
 70
     0
  0
APPID
  2
ACAD_MLEADERVER
 70
     0
  0
APPID
  2
ACAD_NAV_VCDISPLAY
 70
     0
  0
ENDTAB
  0
TABLE
  2
DIMSTYLE
 70
     1
  0
DIMSTYLE
  2
STANDARD
 70
     0
  3

  4

  5

  6

  7

 40
1.0
 41
0.18
 42
0.0625
 43
0.38
 44
0.18
 45
0.0
 46
0.0
 47
0.0
 48
0.0
140
0.18
141
0.09
142
0.0
143
25.399999999999999
144
1.0
145
0.0
146
1.0
147
0.09
 71
     0
 72
     0
 73
     1
 74
     1
 75
     0
 76
     0
 77
     0
 78
     0
170
     0
171
     2
172
     0
173
     0
174
     0
175
     0
176
     0
177
     0
178
     0
  0
ENDTAB
  0
ENDSEC
  0
SECTION
  2
BLOCKS
  0
BLOCK
  8
0
  2
$MODEL_SPACE
 70
     0
 10
0.0
 20
0.0
 30
0.0
  3
$MODEL_SPACE
  1

  0
ENDBLK
  5
15D
  8
0
  0
BLOCK
 67
     1
  8
0
  2
$PAPER_SPACE
 70
     0
 10
0.0
 20
0.0
 30
0.0
  3
$PAPER_SPACE
  1

  0
ENDBLK
  5
15B
 67
     1
  8
0
  0
BLOCK
  8
0
  2
STDGX5
 70
     0
 10
0.0
 20
0.0
 30
0.0
  3
STDGX5
  1

  0
ENDBLK
  5
41
  8
0
  0
ENDSEC
  0
SECTION
  2
ENTITIES
  0
INSERT
  5
CA
  8
0
  2
STDGX5
 10
0.0
 20
0.0
 30
0.0
  0
INSERT
  5
69A
  8
0
  2
STDGX5
 10
194.3272563481562
 20
13.52129245667936
 30
0.0
  0
LINE
  5
38C3
  8
3
 10
51.633301737446033
 20
41.966792246146831
 30
0.0
 11
69.633301737446047
 21
41.966792246146817
 31
0.0
  0
LINE
  5
38C4
  8
3
 10
51.633301737446033
 20
42.086792246146828
 30
0.0
 11
69.633301737446047
 21
42.086792246146807
 31
0.0
  0
LINE
  5
38C5
  8
3
 10
51.633301737446033
 20
42.386792246146832
 30
0.0
 11
69.633301737446047
 21
42.386792246146797
 31
0.0
  0
LINE
  5
38C6
  8
3
 10
51.633301737446033
 20
42.786792246146831
 30
0.0
 11
69.633301737446047
 21
42.786792246146803
 31
0.0
  0
LINE
  5
38C7
  8
3
 10
51.633301737446033
 20
45.686792246146808
 30
0.0
 11
69.633301737446047
 21
45.686792246146787
 31
0.0
  0
LINE
  5
38C8
  8
3
 10
51.633301737446033
 20
45.086792246146807
 30
0.0
 11
69.633301737446047
 21
45.086792246146793
 31
0.0
  0
LINE
  5
38C9
  8
3
 10
51.633301737446033
 20
44.486792246146813
 30
0.0
 11
69.633301737446047
 21
44.486792246146798
 31
0.0
  0
LINE
  5
38CA
  8
3
 10
51.633301737446033
 20
43.886792246146832
 30
0.0
 11
69.633301737446047
 21
43.886792246146797
 31
0.0
  0
LINE
  5
38CB
  8
3
 10
51.633301737446033
 20
43.286792246146831
 30
0.0
 11
69.633301737446047
 21
43.286792246146803
 31
0.0
  0
LINE
  5
38CC
  8
3
 10
51.633301737446033
 20
46.286792246146803
 30
0.0
 11
69.633301737446047
 21
46.286792246146767
 31
0.0
  0
LINE
  5
38CD
  8
3
 10
51.633301737446033
 20
46.886792246146797
 30
0.0
 11
69.633301737446047
 21
46.886792246146769
 31
0.0
  0
LINE
  5
38CE
  8
3
 10
51.633301737446033
 20
47.486792246146777
 30
0.0
 11
69.633301737446047
 21
47.48679224614677
 31
0.0
  0
LINE
  5
38CF
  8
3
 10
51.633301737446033
 20
48.086792246146778
 30
0.0
 11
69.633301737446047
 21
48.086792246146757
 31
0.0
  0
LINE
  5
38D0
  8
3
 10
51.633301737446033
 20
48.68679224614678
 30
0.0
 11
69.633301737446047
 21
48.686792246146759
 31
0.0
  0
LINE
  5
38D1
  8
3
 10
51.633301737446033
 20
49.286792246146767
 30
0.0
 11
69.633301737446047
 21
49.28679224614676
 31
0.0
  0
CIRCLE
  5
38D2
  8
3
 10
98.633301737446047
 20
49.88679224614674
 30
0.0
 40
2.5000000000000071
  0
CIRCLE
  5
38D3
  8
0
 10
98.633301737446047
 20
49.88679224614674
 30
0.0
 40
2.06700000000022
  0
LINE
  5
38D4
  8
2
 10
69.833301737446007
 20
51.953792246146939
 30
0.0
 11
70.633301737446047
 21
52.753792246146951
 31
0.0
  0
LINE
  5
38D5
  8
2
 10
69.833301737446106
 20
47.81979224614647
 30
0.0
 11
69.833301737446007
 21
51.953792246146939
 31
0.0
  0
LINE
  5
38D6
  8
2
 10
60.633301737446033
 20
52.386792246146761
 30
0.0
 11
59.883323737769103
 21
51.953792246146968
 31
0.0
  0
LINE
  5
38D7
  8
2
 10
56.633301737446018
 20
47.819792246146541
 30
0.0
 11
56.633301737446018
 21
51.953792246146968
 31
0.0
  0
LINE
  5
38D8
  8
2
 10
60.633301737446033
 20
47.38679224614674
 30
0.0
 11
60.633301737446033
 21
52.386792246146761
 31
0.0
  0
LINE
  5
38D9
  8
2
 10
56.633301737446018
 20
51.953792246146968
 30
0.0
 11
55.391322837915872
 21
49.886792246146761
 31
0.0
  0
LINE
  5
38DA
  8
2
 10
70.266301737445886
 20
52.386792246146769
 30
0.0
 11
60.633301737446018
 21
52.386792246146769
 31
0.0
  0
LINE
  5
38DB
  8
2
 10
69.833301737446064
 20
51.953792246146968
 30
0.0
 11
56.633301737446033
 21
51.953792246146968
 31
0.0
  0
CIRCLE
  5
38DC
  8
0
 10
98.633301737446047
 20
49.88679224614674
 30
0.0
 40
7.0
  0
LINE
  5
38DD
  8
0
 10
69.633301737446033
 20
41.886792246146747
 30
0.0
 11
69.633301737446061
 21
57.886792246146761
 31
0.0
  0
LINE
  5
38DE
  8
0
 10
51.633301737446033
 20
57.88679224614674
 30
0.0
 11
51.633301737446033
 21
41.886792246146747
 31
0.0
  0
LINE
  5
38DF
  8
0
 10
51.633301737446033
 20
57.886792246146747
 30
0.0
 11
50.633301737446033
 21
56.886792246146747
 31
0.0
  0
LINE
  5
38E0
  8
0
 10
51.633301737446033
 20
41.886792246146747
 30
0.0
 11
50.633301737446033
 21
42.886792246146747
 31
0.0
  0
LINE
  5
38E1
  8
0
 10
70.633301737446033
 20
42.886792246146747
 30
0.0
 11
69.633301737446033
 21
41.886792246146747
 31
0.0
  0
LINE
  5
38E2
  8
0
 10
69.633301737446047
 20
57.886792246146747
 30
0.0
 11
70.633301737446047
 21
56.886792246146747
 31
0.0
  0
LINE
  5
38E3
  8
0
 10
50.633301737446033
 20
56.886792246146747
 30
0.0
 11
50.633301737446033
 21
42.886792246146747
 31
0.0
  0
LINE
  5
38E4
  8
0
 10
70.633301737446047
 20
56.886792246146747
 30
0.0
 11
70.633301737446033
 21
42.886792246146747
 31
0.0
  0
LINE
  5
38E5
  8
0
 10
69.633301737446033
 20
41.886792246146747
 30
0.0
 11
51.633301737446033
 21
41.886792246146747
 31
0.0
  0
LINE
  5
38E6
  8
0
 10
69.633301737446047
 20
57.886792246146747
 30
0.0
 11
51.633301737446033
 21
57.886792246146747
 31
0.0
  0
CIRCLE
  5
38E7
  8
0
 10
98.633301737446047
 20
49.88679224614674
 30
0.0
 40
8.0
  0
LINE
  5
38E8
  8
1
 10
98.633301737446047
 20
60.386792246146747
 30
0.0
 11
98.633301737446047
 21
39.386792246146747
 31
0.0
  0
LINE
  5
38E9
  8
1
 10
109.133301737446
 20
49.88679224614674
 30
0.0
 11
88.133301737446047
 21
49.88679224614674
 31
0.0
  0
LINE
  5
38EA
  8
1
 10
48.133301737446033
 20
49.886792246146769
 30
0.0
 11
73.133301737446033
 21
49.88679224614674
 31
0.0
  0
LINE
  5
38EC
  8
2
 10
69.833301737446035
 20
47.819792246146513
 30
0.0
 11
56.633301737446033
 21
47.819792246146541
 31
0.0
  0
LINE
  5
38ED
  8
2
 10
70.266301737445872
 20
47.386792246146719
 30
0.0
 11
60.633301737446011
 21
47.386792246146733
 31
0.0
  0
LINE
  5
38EE
  8
2
 10
60.633301737446033
 20
47.38679224614674
 30
0.0
 11
59.883323737769089
 21
47.819792246146541
 31
0.0
  0
LINE
  5
38EF
  8
2
 10
69.833301737445993
 20
47.819792246146541
 30
0.0
 11
70.633301737446033
 21
47.019792246146523
 31
0.0
  0
LINE
  5
38F0
  8
2
 10
56.633301737446018
 20
47.819792246146541
 30
0.0
 11
55.391322837915872
 21
49.886792246146747
 31
0.0
  0
LINE
  5
38F2
  8
3
 10
51.633301737446033
 20
50.486792246146749
 30
0.0
 11
69.633301737446047
 21
50.486792246146727
 31
0.0
  0
LINE
  5
38F3
  8
3
 10
51.633301737446033
 20
51.086792246146743
 30
0.0
 11
69.633301737446047
 21
51.086792246146729
 31
0.0
  0
LINE
  5
38F4
  8
3
 10
51.633301737446033
 20
51.686792246146737
 30
0.0
 11
69.633301737446047
 21
51.686792246146723
 31
0.0
  0
LINE
  5
38F5
  8
3
 10
51.633301737446033
 20
52.286792246146732
 30
0.0
 11
69.633301737446047
 21
52.286792246146717
 31
0.0
  0
LINE
  5
38F6
  8
3
 10
51.633301737446033
 20
52.886792246146719
 30
0.0
 11
69.633301737446061
 21
52.886792246146712
 31
0.0
  0
LINE
  5
38F7
  8
3
 10
51.633301737446033
 20
53.48679224614672
 30
0.0
 11
69.633301737446061
 21
53.486792246146699
 31
0.0
  0
LINE
  5
38F8
  8
3
 10
51.63330173744604
 20
56.486792246146692
 30
0.0
 11
69.633301737446061
 21
56.48679224614667
 31
0.0
  0
LINE
  5
38F9
  8
3
 10
51.63330173744604
 20
55.88679224614669
 30
0.0
 11
69.633301737446061
 21
55.88679224614669
 31
0.0
  0
LINE
  5
38FA
  8
3
 10
51.63330173744604
 20
55.286792246146703
 30
0.0
 11
69.633301737446061
 21
55.286792246146689
 31
0.0
  0
LINE
  5
38FB
  8
3
 10
51.63330173744604
 20
54.686792246146709
 30
0.0
 11
69.633301737446061
 21
54.686792246146688
 31
0.0
  0
LINE
  5
38FC
  8
3
 10
51.63330173744604
 20
54.086792246146707
 30
0.0
 11
69.633301737446061
 21
54.0867922461467
 31
0.0
  0
LINE
  5
38FD
  8
3
 10
51.63330173744604
 20
56.986792246146692
 30
0.0
 11
69.633301737446061
 21
56.986792246146678
 31
0.0
  0
LINE
  5
38FE
  8
3
 10
51.63330173744604
 20
57.386792246146683
 30
0.0
 11
69.633301737446061
 21
57.386792246146683
 31
0.0
  0
LINE
  5
38FF
  8
3
 10
51.63330173744604
 20
57.68679224614668
 30
0.0
 11
69.633301737446061
 21
57.68679224614668
 31
0.0
  0
LINE
  5
3900
  8
3
 10
51.63330173744604
 20
57.806792246146692
 30
0.0
 11
69.633301737446061
 21
57.806792246146671
 31
0.0
  0
LINE
  5
3901
  8
3
 10
51.633301737446033
 20
49.88679224614674
 30
0.0
 11
69.633301737446047
 21
49.886792246146733
 31
0.0
  0
LINE
  5
3908
  8
1
 10
22.633301737446029
 20
60.386792246146747
 30
0.0
 11
22.633301737446029
 21
39.386792246146747
 31
0.0
  0
CIRCLE
  5
3909
  8
0
 10
22.633301737446029
 20
49.88679224614674
 30
0.0
 40
8.0
  0
CIRCLE
  5
390A
  8
0
 10
22.633301737446029
 20
49.88679224614674
 30
0.0
 40
7.0
  0
LINE
  5
390B
  8
1
 10
12.133301737446031
 20
49.88679224614674
 30
0.0
 11
33.133301737446033
 21
49.88679224614674
 31
0.0
  0
TEXT
  5
39C4
  8
0
 62
     3
 10
0.0
 20
0.0
 30
0.0
 40
10.0
  1
LKN5-SUS
  7
STANDARD1
  0
ENDSEC
  0
EOF
