  0
SECTION
  2
HEADER
  9
$ACADVER
  1
AC1009
  9
$INSBASE
 10
0.0
 20
0.0
 30
0.0
  9
$EXTMIN
 10
0.0
 20
-2.960436562073669
 30
0.0
  9
$EXTMAX
 10
93.123284597707709
 20
53.047169897890981
 30
0.0
  9
$LIMMIN
 10
0.0
 20
0.0
  9
$LIMMAX
 10
187.5
 20
135.0
  9
$ORTHOMODE
 70
     0
  9
$REGENMODE
 70
     1
  9
$FILLMODE
 70
     1
  9
$QTEXTMODE
 70
     0
  9
$MIRRTEXT
 70
     0
  9
$DRAGMODE
 70
     2
  9
$LTSCALE
 40
2.5
  9
$OSMODE
 70
  3071
  9
$ATTMODE
 70
     1
  9
$TEXTSIZE
 40
2.5
  9
$TRACEWID
 40
0.05
  9
$TEXTSTYLE
  7
STANDARD
  9
$CLAYER
  8
0
  9
$CELTYPE
  6
BYLAYER
  9
$CECOLOR
 62
   256
  9
$DIMSCALE
 40
0.5
  9
$DIMASZ
 40
3.0
  9
$DIMEXO
 40
2.0
  9
$DIMDLI
 40
10.0
  9
$DIMRND
 40
0.0
  9
$DIMDLE
 40
0.0
  9
$DIMEXE
 40
2.0
  9
$DIMTP
 40
0.0
  9
$DIMTM
 40
0.0
  9
$DIMTXT
 40
3.0
  9
$DIMCEN
 40
0.09
  9
$DIMTSZ
 40
0.0
  9
$DIMTOL
 70
     0
  9
$DIMLIM
 70
     0
  9
$DIMTIH
 70
     0
  9
$DIMTOH
 70
     0
  9
$DIMSE1
 70
     0
  9
$DIMSE2
 70
     0
  9
$DIMTAD
 70
     1
  9
$DIMZIN
 70
     0
  9
$DIMBLK
  1

  9
$DIMASO
 70
     0
  9
$DIMSHO
 70
     0
  9
$DIMPOST
  1

  9
$DIMAPOST
  1

  9
$DIMALT
 70
     0
  9
$DIMALTD
 70
     2
  9
$DIMALTF
 40
25.399999999999999
  9
$DIMLFAC
 40
1.0
  9
$DIMTOFL
 70
     1
  9
$DIMTVP
 40
1.6000000000000001
  9
$DIMTIX
 70
     1
  9
$DIMSOXD
 70
     0
  9
$DIMSAH
 70
     0
  9
$DIMBLK1
  1

  9
$DIMBLK2
  1

  9
$DIMSTYLE
  2
STANDARD
  9
$DIMCLRD
 70
     0
  9
$DIMCLRE
 70
     0
  9
$DIMCLRT
 70
     0
  9
$DIMTFAC
 40
1.0
  9
$DIMGAP
 40
0.09
  9
$LUNITS
 70
     2
  9
$LUPREC
 70
     4
  9
$SKETCHINC
 40
0.1
  9
$FILLETRAD
 40
0.0
  9
$AUNITS
 70
     0
  9
$AUPREC
 70
     0
  9
$MENU
  1
E:\r13\win\SUPPORT\ACAD
  9
$ELEVATION
 40
0.0
  9
$PELEVATION
 40
0.0
  9
$THICKNESS
 40
0.0
  9
$LIMCHECK
 70
     0
  9
$BLIPMODE
 70
     0
  9
$CHAMFERA
 40
3.2000000000000002
  9
$CHAMFERB
 40
3.2000000000000002
  9
$SKPOLY
 70
     0
  9
$TDCREATE
 40
2449840.5944097228
  9
$TDUPDATE
 40
2456597.579048275
  9
$TDINDWG
 40
0.2818583333
  9
$TDUSRTIMER
 40
0.2818583333
  9
$USRTIMER
 70
     1
  9
$ANGBASE
 50
0.0
  9
$ANGDIR
 70
     0
  9
$PDMODE
 70
     0
  9
$PDSIZE
 40
0.0
  9
$PLINEWID
 40
0.0
  9
$COORDS
 70
     1
  9
$SPLFRAME
 70
     0
  9
$SPLINETYPE
 70
     6
  9
$SPLINESEGS
 70
     8
  9
$ATTDIA
 70
     0
  9
$ATTREQ
 70
     1
  9
$HANDLING
 70
     1
  9
$HANDSEED
  5
3AAA
  9
$SURFTAB1
 70
     6
  9
$SURFTAB2
 70
     6
  9
$SURFTYPE
 70
     6
  9
$SURFU
 70
     6
  9
$SURFV
 70
     6
  9
$UCSNAME
  2

  9
$UCSORG
 10
0.0
 20
0.0
 30
0.0
  9
$UCSXDIR
 10
1.0
 20
0.0
 30
0.0
  9
$UCSYDIR
 10
0.0
 20
1.0
 30
0.0
  9
$PUCSNAME
  2

  9
$PUCSORG
 10
0.0
 20
0.0
 30
0.0
  9
$PUCSXDIR
 10
1.0
 20
0.0
 30
0.0
  9
$PUCSYDIR
 10
0.0
 20
1.0
 30
0.0
  9
$USERI1
 70
     0
  9
$USERI2
 70
     1
  9
$USERI3
 70
     1
  9
$USERI4
 70
     0
  9
$USERI5
 70
     0
  9
$USERR1
 40
0.0
  9
$USERR2
 40
0.0
  9
$USERR3
 40
0.0
  9
$USERR4
 40
0.0
  9
$USERR5
 40
0.0
  9
$WORLDVIEW
 70
     1
  9
$SHADEDGE
 70
     3
  9
$SHADEDIF
 70
    70
  9
$TILEMODE
 70
     1
  9
$MAXACTVP
 70
    16
  9
$PLIMCHECK
 70
     0
  9
$PEXTMIN
 10
1.0000000000000000E+020
 20
1.0000000000000000E+020
 30
1.0000000000000000E+020
  9
$PEXTMAX
 10
-1.0000000000000000E+020
 20
-1.0000000000000000E+020
 30
-1.0000000000000000E+020
  9
$PLIMMIN
 10
0.0
 20
0.0
  9
$PLIMMAX
 10
12.0
 20
9.0
  9
$UNITMODE
 70
     0
  9
$VISRETAIN
 70
     0
  9
$PLINEGEN
 70
     0
  9
$PSLTSCALE
 70
     0
  0
ENDSEC
  0
SECTION
  2
TABLES
  0
TABLE
  2
VPORT
 70
     1
  0
VPORT
  2
*ACTIVE
 70
     0
 10
0.0
 20
0.0
 11
1.0
 21
1.0
 12
93.74713919532617
 22
80.848703909439024
 13
0.0
 23
0.0
 14
5.0
 24
5.0
 15
5.0
 25
5.0
 16
0.0
 26
0.0
 36
1.0
 17
0.0
 27
0.0
 37
0.0
 40
169.22413112104309
 41
1.9089595375722539
 42
50.0
 43
0.0
 44
0.0
 50
0.0
 51
0.0
 71
     0
 72
   100
 73
     1
 74
     0
 75
     0
 76
     0
 77
     0
 78
     0
  0
ENDTAB
  0
TABLE
  2
LTYPE
 70
     4
  0
LTYPE
  2
CONTINUOUS
 70
     0
  3
Solid Line
 72
    65
 73
     0
 40
0.0
  0
LTYPE
  2
CENTER
 70
     0
  3
____ _ ____ _ ____ _ ____ _ ____ _ ____ _ ____
 72
    65
 73
     4
 40
2.0
 49
1.25
 49
-0.25
 49
0.25
 49
-0.25
  0
LTYPE
  2
HIDDEN
 70
     0
  3
_ _ _ _ _ _ _ _ _ _ _ _ _ _ _ _ _ _ _ _ _ _ _
 72
    65
 73
     2
 40
0.375
 49
0.25
 49
-0.125
  0
LTYPE
  2
PHANTOM2
 70
     0
  3
___ _ _ ___ _ _ ___ _ _ ___ _ _
 72
    65
 73
     6
 40
1.25
 49
0.625
 49
-0.125
 49
0.125
 49
-0.125
 49
0.125
 49
-0.125
  0
ENDTAB
  0
TABLE
  2
LAYER
 70
     4
  0
LAYER
  2
0
 70
     0
 62
     7
  6
CONTINUOUS
  0
LAYER
  2
1
 70
     0
 62
     1
  6
CENTER
  0
LAYER
  2
2
 70
     0
 62
     2
  6
HIDDEN
  0
LAYER
  2
3
 70
     0
 62
     3
  6
CONTINUOUS
  0
ENDTAB
  0
TABLE
  2
STYLE
 70
     2
  0
STYLE
  2
STANDARD
 70
     0
 40
0.0
 41
1.0
 50
0.0
 71
     0
 42
2.5
  3
TXT
  4
BIGFONT
  0
STYLE
  2
STANDARD1
 70
     0
 40
0.0
 41
1.0
 50
0.0
 71
     0
 42
3.0
  3
txt
  4

  0
ENDTAB
  0
TABLE
  2
VIEW
 70
     1
  0
VIEW
  2
ALL
 70
     0
 40
135.0
 10
110.49579799999999
 20
67.5
 41
0.0
 11
0.0
 21
0.0
 31
1.0
 12
0.0
 22
0.0
 32
0.0
 42
0.0
 43
0.0
 44
0.0
 50
0.0
 71
     0
  0
ENDTAB
  0
TABLE
  2
UCS
 70
     0
  0
ENDTAB
  0
TABLE
  2
APPID
 70
     4
  0
APPID
  2
ACAD
 70
     0
  0
APPID
  2
DCO15
 70
     0
  0
APPID
  2
ACAD_MLEADERVER
 70
     0
  0
APPID
  2
ACAD_NAV_VCDISPLAY
 70
     0
  0
ENDTAB
  0
TABLE
  2
DIMSTYLE
 70
     1
  0
DIMSTYLE
  2
STANDARD
 70
     0
  3

  4

  5

  6

  7

 40
1.0
 41
0.18
 42
0.0625
 43
0.38
 44
0.18
 45
0.0
 46
0.0
 47
0.0
 48
0.0
140
0.18
141
0.09
142
0.0
143
25.399999999999999
144
1.0
145
0.0
146
1.0
147
0.09
 71
     0
 72
     0
 73
     1
 74
     1
 75
     0
 76
     0
 77
     0
 78
     0
170
     0
171
     2
172
     0
173
     0
174
     0
175
     0
176
     0
177
     0
178
     0
  0
ENDTAB
  0
ENDSEC
  0
SECTION
  2
BLOCKS
  0
BLOCK
  8
0
  2
$MODEL_SPACE
 70
     0
 10
0.0
 20
0.0
 30
0.0
  3
$MODEL_SPACE
  1

  0
ENDBLK
  5
15D
  8
0
  0
BLOCK
 67
     1
  8
0
  2
$PAPER_SPACE
 70
     0
 10
0.0
 20
0.0
 30
0.0
  3
$PAPER_SPACE
  1

  0
ENDBLK
  5
15B
 67
     1
  8
0
  0
BLOCK
  8
0
  2
STDGX5
 70
     0
 10
0.0
 20
0.0
 30
0.0
  3
STDGX5
  1

  0
ENDBLK
  5
41
  8
0
  0
ENDSEC
  0
SECTION
  2
ENTITIES
  0
INSERT
  5
CA
  8
0
  2
STDGX5
 10
0.0
 20
0.0
 30
0.0
  0
INSERT
  5
69A
  8
0
  2
STDGX5
 10
194.3272563481562
 20
13.52129245667936
 30
0.0
  0
LINE
  5
3909
  8
3
 10
22.623284597707709
 20
30.647169897890961
 30
0.0
 11
44.623284597707681
 21
30.647169897890961
 31
0.0
  0
LINE
  5
390A
  8
3
 10
22.623284597707709
 20
30.747169897890959
 30
0.0
 11
44.623284597707681
 21
30.747169897890959
 31
0.0
  0
LINE
  5
390B
  8
3
 10
22.623284597707709
 20
30.947169897890969
 30
0.0
 11
44.623284597707681
 21
30.947169897890959
 31
0.0
  0
LINE
  5
390C
  8
3
 10
22.623284597707709
 20
31.247169897890959
 30
0.0
 11
44.623284597707681
 21
31.247169897890959
 31
0.0
  0
LINE
  5
390D
  8
3
 10
22.623284597707709
 20
31.647169897890961
 30
0.0
 11
44.623284597707681
 21
31.647169897890951
 31
0.0
  0
LINE
  5
390E
  8
3
 10
22.623284597707709
 20
32.147169897890961
 30
0.0
 11
44.623284597707681
 21
32.147169897890961
 31
0.0
  0
LINE
  5
390F
  8
3
 10
22.623284597707709
 20
32.74716989789097
 30
0.0
 11
44.623284597707681
 21
32.747169897890963
 31
0.0
  0
LINE
  5
3910
  8
3
 10
22.623284597707709
 20
33.347169897890971
 30
0.0
 11
44.623284597707681
 21
33.347169897890957
 31
0.0
  0
LINE
  5
3911
  8
3
 10
22.623284597707709
 20
33.947169897890973
 30
0.0
 11
44.623284597707681
 21
33.947169897890959
 31
0.0
  0
LINE
  5
3912
  8
3
 10
22.623284597707709
 20
34.547169897890967
 30
0.0
 11
44.623284597707681
 21
34.54716989789096
 31
0.0
  0
LINE
  5
3913
  8
3
 10
22.623284597707709
 20
35.147169897890969
 30
0.0
 11
44.623284597707681
 21
35.147169897890961
 31
0.0
  0
LINE
  5
3914
  8
3
 10
22.623284597707709
 20
35.74716989789097
 30
0.0
 11
44.623284597707681
 21
35.747169897890963
 31
0.0
  0
LINE
  5
3915
  8
3
 10
22.623284597707709
 20
36.347169897890971
 30
0.0
 11
44.623284597707681
 21
36.347169897890957
 31
0.0
  0
LINE
  5
3916
  8
3
 10
22.623284597707709
 20
36.947169897890973
 30
0.0
 11
44.623284597707681
 21
36.947169897890973
 31
0.0
  0
LINE
  5
3917
  8
3
 10
22.623284597707709
 20
37.547169897890967
 30
0.0
 11
44.623284597707681
 21
37.547169897890967
 31
0.0
  0
LINE
  5
3918
  8
3
 10
22.623284597707709
 20
38.147169897890969
 30
0.0
 11
44.623284597707681
 21
38.147169897890969
 31
0.0
  0
LINE
  5
3919
  8
3
 10
22.623284597707709
 20
38.747169897890977
 30
0.0
 11
44.623284597707681
 21
38.74716989789097
 31
0.0
  0
LINE
  5
391A
  8
3
 10
22.623284597707709
 20
39.347169897890979
 30
0.0
 11
44.623284597707681
 21
39.347169897890971
 31
0.0
  0
LINE
  5
391B
  8
3
 10
22.623284597707709
 20
39.94716989789098
 30
0.0
 11
44.623284597707681
 21
39.947169897890973
 31
0.0
  0
CIRCLE
  5
391C
  8
3
 10
80.623284597707709
 20
40.547169897890981
 30
0.0
 40
3.0
  0
CIRCLE
  5
391D
  8
0
 10
80.623284597707709
 20
40.547169897890981
 30
0.0
 40
2.4585000000000998
  0
LINE
  5
391F
  8
2
 10
44.623284597707709
 20
43.005669897891082
 30
0.0
 11
45.623284597707702
 21
44.00566989789111
 31
0.0
  0
LINE
  5
3925
  8
2
 10
44.623284597707709
 20
43.005669897891082
 30
0.0
 11
22.623284597707698
 21
43.005669897891082
 31
0.0
  0
LINE
  5
3926
  8
0
 10
22.623284597707709
 20
50.54716989789096
 30
0.0
 11
22.623284597707709
 21
30.547169897890988
 31
0.0
  0
LINE
  5
3927
  8
0
 10
44.623284597707702
 20
50.547169897890967
 30
0.0
 11
44.623284597707709
 21
30.547169897890981
 31
0.0
  0
CIRCLE
  5
3928
  8
0
 10
80.623284597707709
 20
40.547169897890981
 30
0.0
 40
9.0000000000000142
  0
LINE
  5
3929
  8
0
 10
21.623284597707709
 20
31.547169897890981
 30
0.0
 11
22.623284597707709
 21
30.547169897890981
 31
0.0
  0
LINE
  5
392A
  8
0
 10
45.623284597707702
 20
31.547169897890981
 30
0.0
 11
44.623284597707709
 21
30.547169897890981
 31
0.0
  0
LINE
  5
392B
  8
0
 10
44.623284597707709
 20
50.547169897890981
 30
0.0
 11
45.623284597707702
 21
49.547169897890981
 31
0.0
  0
LINE
  5
392C
  8
0
 10
22.623284597707709
 20
50.547169897890981
 30
0.0
 11
21.623284597707709
 21
49.547169897890981
 31
0.0
  0
LINE
  5
392D
  8
0
 10
21.623284597707709
 20
49.547169897890981
 30
0.0
 11
21.623284597707709
 21
31.547169897890981
 31
0.0
  0
LINE
  5
392E
  8
0
 10
45.623284597707702
 20
49.547169897890981
 30
0.0
 11
45.623284597707702
 21
31.547169897890981
 31
0.0
  0
LINE
  5
392F
  8
0
 10
44.623284597707709
 20
30.547169897890981
 30
0.0
 11
22.623284597707709
 21
30.547169897890981
 31
0.0
  0
LINE
  5
3930
  8
0
 10
44.623284597707709
 20
50.547169897890981
 30
0.0
 11
22.623284597707709
 21
50.547169897890981
 31
0.0
  0
CIRCLE
  5
3931
  8
0
 10
80.623284597707709
 20
40.547169897890981
 30
0.0
 40
10.0
  0
LINE
  5
3932
  8
1
 10
80.623284597707709
 20
53.047169897890981
 30
0.0
 11
80.623284597707709
 21
28.047169897890981
 31
0.0
  0
LINE
  5
3933
  8
1
 10
93.123284597707709
 20
40.547169897890981
 30
0.0
 11
68.123284597707709
 21
40.547169897890981
 31
0.0
  0
LINE
  5
3934
  8
1
 10
19.123284597707709
 20
40.547169897890988
 30
0.0
 11
48.123284597707709
 21
40.547169897890981
 31
0.0
  0
LINE
  5
3936
  8
2
 10
44.623284597707709
 20
38.088669897890902
 30
0.0
 11
22.62328459770773
 21
38.088669897890917
 31
0.0
  0
LINE
  5
3937
  8
2
 10
45.164784597707609
 20
37.547169897891003
 30
0.0
 11
22.081784597707841
 21
37.54716989789101
 31
0.0
  0
LINE
  5
3939
  8
2
 10
44.623284597707709
 20
38.088669897890902
 30
0.0
 11
45.623284597707702
 21
37.088669897890867
 31
0.0
  0
LINE
  5
393C
  8
3
 10
22.623284597707709
 20
41.147169897891011
 30
0.0
 11
44.623284597707681
 21
41.147169897890997
 31
0.0
  0
LINE
  5
393D
  8
3
 10
22.623284597707709
 20
41.74716989789102
 30
0.0
 11
44.623284597707681
 21
41.747169897890998
 31
0.0
  0
LINE
  5
393E
  8
3
 10
22.623284597707709
 20
42.347169897891007
 30
0.0
 11
44.623284597707681
 21
42.347169897891007
 31
0.0
  0
LINE
  5
393F
  8
3
 10
22.623284597707709
 20
42.947169897891023
 30
0.0
 11
44.623284597707681
 21
42.947169897891001
 31
0.0
  0
LINE
  5
3940
  8
3
 10
22.623284597707709
 20
43.547169897891017
 30
0.0
 11
44.623284597707681
 21
43.54716989789101
 31
0.0
  0
LINE
  5
3941
  8
3
 10
22.623284597707709
 20
44.147169897891018
 30
0.0
 11
44.623284597707681
 21
44.147169897891011
 31
0.0
  0
LINE
  5
3942
  8
3
 10
22.623284597707709
 20
44.747169897891027
 30
0.0
 11
44.623284597707681
 21
44.747169897891013
 31
0.0
  0
LINE
  5
3943
  8
3
 10
22.623284597707709
 20
45.347169897891021
 30
0.0
 11
44.623284597707681
 21
45.347169897891007
 31
0.0
  0
LINE
  5
3944
  8
3
 10
22.623284597707709
 20
45.94716989789103
 30
0.0
 11
44.623284597707681
 21
45.947169897891008
 31
0.0
  0
LINE
  5
3945
  8
3
 10
22.623284597707709
 20
46.547169897891031
 30
0.0
 11
44.623284597707681
 21
46.54716989789101
 31
0.0
  0
LINE
  5
3946
  8
3
 10
22.62328459770772
 20
47.147169897891033
 30
0.0
 11
44.623284597707681
 21
47.147169897891018
 31
0.0
  0
LINE
  5
3947
  8
3
 10
22.62328459770772
 20
47.747169897891027
 30
0.0
 11
44.623284597707681
 21
47.747169897891013
 31
0.0
  0
LINE
  5
3948
  8
3
 10
22.62328459770772
 20
48.347169897891042
 30
0.0
 11
44.623284597707681
 21
48.347169897891021
 31
0.0
  0
LINE
  5
3949
  8
3
 10
22.62328459770772
 20
48.94716989789103
 30
0.0
 11
44.623284597707688
 21
48.947169897891023
 31
0.0
  0
LINE
  5
394A
  8
3
 10
22.62328459770772
 20
49.44716989789103
 30
0.0
 11
44.623284597707688
 21
49.447169897891023
 31
0.0
  0
LINE
  5
394B
  8
3
 10
22.62328459770772
 20
49.847169897891028
 30
0.0
 11
44.623284597707688
 21
49.847169897891021
 31
0.0
  0
LINE
  5
394C
  8
3
 10
22.62328459770772
 20
50.147169897891033
 30
0.0
 11
44.623284597707688
 21
50.147169897891018
 31
0.0
  0
LINE
  5
394D
  8
3
 10
22.62328459770772
 20
50.347169897891028
 30
0.0
 11
44.623284597707688
 21
50.347169897891021
 31
0.0
  0
LINE
  5
394E
  8
3
 10
22.62328459770772
 20
50.447169897891037
 30
0.0
 11
44.623284597707688
 21
50.447169897891023
 31
0.0
  0
LINE
  5
394F
  8
2
 10
44.623284597707709
 20
43.005669897891082
 30
0.0
 11
44.623284597707709
 21
38.088669897890902
 31
0.0
  0
LINE
  5
3956
  8
3
 10
22.623284597707709
 20
40.547169897891017
 30
0.0
 11
44.623284597707681
 21
40.547169897891003
 31
0.0
  0
LINE
  5
395D
  8
2
 10
22.623284597707709
 20
43.005669897891082
 30
0.0
 11
22.623284597707709
 21
38.088669897890902
 31
0.0
  0
LINE
  5
395E
  8
2
 10
22.623284597707709
 20
38.088669897890902
 30
0.0
 11
21.623284597707709
 21
37.088669897890867
 31
0.0
  0
LINE
  5
395F
  8
2
 10
22.623284597707709
 20
43.005669897891082
 30
0.0
 11
21.623284597707709
 21
44.00566989789111
 31
0.0
  0
LINE
  5
3960
  8
2
 10
45.16478459770773
 20
43.547169897890988
 30
0.0
 11
22.081784597707969
 21
43.547169897891962
 31
0.0
  0
TEXT
  5
3A19
  8
0
 62
     3
 10
0.0
 20
0.0
 30
0.0
 40
10.0
  1
LKN6T-SUS
  7
STANDARD1
  0
ENDSEC
  0
EOF
