  0
SECTION
  2
HEADER
  9
$ACADVER
  1
AC1009
  9
$INSBASE
 10
0.0
 20
0.0
 30
0.0
  9
$EXTMIN
 10
0.0
 20
-2.960436562073669
 30
0.0
  9
$EXTMAX
 10
100.9999998807907
 20
40.999999999999993
 30
0.0
  9
$LIMMIN
 10
0.0
 20
0.0
  9
$LIMMAX
 10
187.5
 20
135.0
  9
$ORTHOMODE
 70
     1
  9
$REGENMODE
 70
     1
  9
$FILLMODE
 70
     1
  9
$QTEXTMODE
 70
     0
  9
$MIRRTEXT
 70
     0
  9
$DRAGMODE
 70
     2
  9
$LTSCALE
 40
2.5
  9
$OSMODE
 70
    37
  9
$ATTMODE
 70
     1
  9
$TEXTSIZE
 40
2.5
  9
$TRACEWID
 40
0.05
  9
$TEXTSTYLE
  7
STANDARD
  9
$CLAYER
  8
0
  9
$CELTYPE
  6
BYLAYER
  9
$CECOLOR
 62
   256
  9
$DIMSCALE
 40
0.5
  9
$DIMASZ
 40
3.0
  9
$DIMEXO
 40
2.0
  9
$DIMDLI
 40
10.0
  9
$DIMRND
 40
0.0
  9
$DIMDLE
 40
0.0
  9
$DIMEXE
 40
2.0
  9
$DIMTP
 40
0.0
  9
$DIMTM
 40
0.0
  9
$DIMTXT
 40
3.0
  9
$DIMCEN
 40
0.09
  9
$DIMTSZ
 40
0.0
  9
$DIMTOL
 70
     0
  9
$DIMLIM
 70
     0
  9
$DIMTIH
 70
     0
  9
$DIMTOH
 70
     0
  9
$DIMSE1
 70
     0
  9
$DIMSE2
 70
     0
  9
$DIMTAD
 70
     1
  9
$DIMZIN
 70
     8
  9
$DIMBLK
  1

  9
$DIMASO
 70
     0
  9
$DIMSHO
 70
     0
  9
$DIMPOST
  1

  9
$DIMAPOST
  1

  9
$DIMALT
 70
     0
  9
$DIMALTD
 70
     2
  9
$DIMALTF
 40
25.399999999999999
  9
$DIMLFAC
 40
1.0
  9
$DIMTOFL
 70
     1
  9
$DIMTVP
 40
1.6000000000000001
  9
$DIMTIX
 70
     1
  9
$DIMSOXD
 70
     0
  9
$DIMSAH
 70
     0
  9
$DIMBLK1
  1

  9
$DIMBLK2
  1

  9
$DIMSTYLE
  2
STANDARD
  9
$DIMCLRD
 70
     0
  9
$DIMCLRE
 70
     0
  9
$DIMCLRT
 70
     0
  9
$DIMTFAC
 40
1.0
  9
$DIMGAP
 40
0.09
  9
$LUNITS
 70
     2
  9
$LUPREC
 70
     1
  9
$SKETCHINC
 40
0.1
  9
$FILLETRAD
 40
0.0
  9
$AUNITS
 70
     0
  9
$AUPREC
 70
     0
  9
$MENU
  1
E:\r13\win\SUPPORT\ACAD
  9
$ELEVATION
 40
0.0
  9
$PELEVATION
 40
0.0
  9
$THICKNESS
 40
0.0
  9
$LIMCHECK
 70
     0
  9
$BLIPMODE
 70
     0
  9
$CHAMFERA
 40
3.2000000000000002
  9
$CHAMFERB
 40
3.2000000000000002
  9
$SKPOLY
 70
     0
  9
$TDCREATE
 40
2449840.5944097228
  9
$TDUPDATE
 40
2459397.455904433
  9
$TDINDWG
 40
0.3124010995
  9
$TDUSRTIMER
 40
0.3124010995
  9
$USRTIMER
 70
     1
  9
$ANGBASE
 50
0.0
  9
$ANGDIR
 70
     0
  9
$PDMODE
 70
     0
  9
$PDSIZE
 40
0.0
  9
$PLINEWID
 40
0.0
  9
$COORDS
 70
     1
  9
$SPLFRAME
 70
     0
  9
$SPLINETYPE
 70
     6
  9
$SPLINESEGS
 70
     8
  9
$ATTDIA
 70
     0
  9
$ATTREQ
 70
     1
  9
$HANDLING
 70
     1
  9
$HANDSEED
  5
4467
  9
$SURFTAB1
 70
     6
  9
$SURFTAB2
 70
     6
  9
$SURFTYPE
 70
     6
  9
$SURFU
 70
     6
  9
$SURFV
 70
     6
  9
$UCSNAME
  2

  9
$UCSORG
 10
0.0
 20
0.0
 30
0.0
  9
$UCSXDIR
 10
1.0
 20
0.0
 30
0.0
  9
$UCSYDIR
 10
0.0
 20
1.0
 30
0.0
  9
$PUCSNAME
  2

  9
$PUCSORG
 10
0.0
 20
0.0
 30
0.0
  9
$PUCSXDIR
 10
1.0
 20
0.0
 30
0.0
  9
$PUCSYDIR
 10
0.0
 20
1.0
 30
0.0
  9
$USERI1
 70
     0
  9
$USERI2
 70
     1
  9
$USERI3
 70
     1
  9
$USERI4
 70
     0
  9
$USERI5
 70
     0
  9
$USERR1
 40
0.0
  9
$USERR2
 40
0.0
  9
$USERR3
 40
0.0
  9
$USERR4
 40
0.0
  9
$USERR5
 40
0.0
  9
$WORLDVIEW
 70
     1
  9
$SHADEDGE
 70
     3
  9
$SHADEDIF
 70
    70
  9
$TILEMODE
 70
     1
  9
$MAXACTVP
 70
    16
  9
$PLIMCHECK
 70
     0
  9
$PEXTMIN
 10
1.0000000000000000E+020
 20
1.0000000000000000E+020
 30
1.0000000000000000E+020
  9
$PEXTMAX
 10
-1.0000000000000000E+020
 20
-1.0000000000000000E+020
 30
-1.0000000000000000E+020
  9
$PLIMMIN
 10
0.0
 20
0.0
  9
$PLIMMAX
 10
12.0
 20
9.0
  9
$UNITMODE
 70
     0
  9
$VISRETAIN
 70
     0
  9
$PLINEGEN
 70
     0
  9
$PSLTSCALE
 70
     0
  0
ENDSEC
  0
SECTION
  2
TABLES
  0
TABLE
  2
VPORT
 70
     1
  0
VPORT
  2
*ACTIVE
 70
     0
 10
0.0
 20
0.0
 11
1.0
 21
1.0
 12
130.0978792822186
 22
50.000000000000007
 13
0.0
 23
0.0
 14
5.0
 24
5.0
 15
5.0
 25
5.0
 16
0.0
 26
0.0
 36
1.0
 17
0.0
 27
0.0
 37
0.0
 40
100.0
 41
2.6019575856443709
 42
50.0
 43
0.0
 44
0.0
 50
0.0
 51
0.0
 71
     0
 72
   100
 73
     1
 74
     0
 75
     0
 76
     0
 77
     0
 78
     0
  0
ENDTAB
  0
TABLE
  2
LTYPE
 70
     3
  0
LTYPE
  2
CONTINUOUS
 70
     0
  3
Solid Line
 72
    65
 73
     0
 40
0.0
  0
LTYPE
  2
CENTER
 70
     0
  3
____ _ ____ _ ____ _ ____ _ ____ _ ____ _ ____
 72
    65
 73
     4
 40
2.0
 49
1.25
 49
-0.25
 49
0.25
 49
-0.25
  0
LTYPE
  2
PHANTOM2
 70
     0
  3
___ _ _ ___ _ _ ___ _ _ ___ _ _
 72
    65
 73
     6
 40
1.25
 49
0.625
 49
-0.125
 49
0.125
 49
-0.125
 49
0.125
 49
-0.125
  0
ENDTAB
  0
TABLE
  2
LAYER
 70
     4
  0
LAYER
  2
0
 70
     0
 62
     7
  6
CONTINUOUS
  0
LAYER
  2
1
 70
     0
 62
     1
  6
CENTER
  0
LAYER
  2
3
 70
     0
 62
     3
  6
CONTINUOUS
  0
LAYER
  2
DEFPOINTS
 70
     0
 62
     7
  6
CONTINUOUS
  0
ENDTAB
  0
TABLE
  2
STYLE
 70
     2
  0
STYLE
  2
STANDARD
 70
     0
 40
0.0
 41
1.0
 50
0.0
 71
     0
 42
2.5
  3
TXT
  4
BIGFONT
  0
STYLE
  2
STANDARD1
 70
     0
 40
0.0
 41
1.0
 50
0.0
 71
     0
 42
3.0
  3
txt
  4

  0
ENDTAB
  0
TABLE
  2
VIEW
 70
     1
  0
VIEW
  2
ALL
 70
     0
 40
135.0
 10
110.49579799999999
 20
67.5
 41
0.0
 11
0.0
 21
0.0
 31
1.0
 12
0.0
 22
0.0
 32
0.0
 42
0.0
 43
0.0
 44
0.0
 50
0.0
 71
     0
  0
ENDTAB
  0
TABLE
  2
UCS
 70
     0
  0
ENDTAB
  0
TABLE
  2
APPID
 70
     7
  0
APPID
  2
ACAD
 70
     0
  0
APPID
  2
DCO15
 70
     0
  0
APPID
  2
ACAD_MLEADERVER
 70
     0
  0
APPID
  2
ACAD_EXEMPT_FROM_CAD_STANDARDS
 70
     0
  0
APPID
  2
ACAD_NAV_VCDISPLAY
 70
     0
  0
APPID
  2
ACAD_DSTYLE_DIMJAG
 70
     0
  0
APPID
  2
ACAD_DSTYLE_DIMTALN
 70
     0
  0
ENDTAB
  0
TABLE
  2
DIMSTYLE
 70
     1
  0
DIMSTYLE
  2
STANDARD
 70
     0
  3

  4

  5

  6

  7

 40
1.0
 41
0.18
 42
0.0625
 43
0.38
 44
0.18
 45
0.0
 46
0.0
 47
0.0
 48
0.0
140
0.18
141
0.09
142
0.0
143
25.399999999999999
144
1.0
145
0.0
146
1.0
147
0.09
 71
     0
 72
     0
 73
     1
 74
     1
 75
     0
 76
     0
 77
     0
 78
     0
170
     0
171
     2
172
     0
173
     0
174
     0
175
     0
176
     0
177
     0
178
     0
  0
ENDTAB
  0
ENDSEC
  0
SECTION
  2
BLOCKS
  0
BLOCK
  8
0
  2
$MODEL_SPACE
 70
     0
 10
0.0
 20
0.0
 30
0.0
  3
$MODEL_SPACE
  1

  0
ENDBLK
  5
15D
  8
0
  0
BLOCK
 67
     1
  8
0
  2
$PAPER_SPACE
 70
     0
 10
0.0
 20
0.0
 30
0.0
  3
$PAPER_SPACE
  1

  0
ENDBLK
  5
15B
 67
     1
  8
0
  0
ENDSEC
  0
SECTION
  2
ENTITIES
  0
TEXT
  5
3B02
  8
0
 62
     3
 10
0.0
 20
0.0
 30
0.0
 40
10.0
  1
LKS3X10-SUS
  7
STANDARD1
  0
LINE
  5
4286
  8
0
 10
65.400000075809629
 20
30.999999810010191
 30
0.0
 11
66.0000001043081
 21
31.599999954923991
 31
0.0
  0
LINE
  5
4287
  8
0
 10
66.0000001043081
 20
38.400000045076013
 30
0.0
 11
65.400000075809629
 21
39.000000189989798
 31
0.0
  0
LINE
  5
4288
  8
0
 10
65.400000075809629
 20
39.000000189989798
 30
0.0
 11
54.599999912083128
 21
39.000000189989798
 31
0.0
  0
LINE
  5
4289
  8
0
 10
54.599999912083128
 20
30.999999810010191
 30
0.0
 11
65.400000075809629
 21
30.999999810010191
 31
0.0
  0
LINE
  5
428A
  8
0
 10
54.599999912083128
 20
39.000000189989798
 30
0.0
 11
53.999999999999979
 21
38.400000045076013
 31
0.0
  0
LINE
  5
428B
  8
0
 10
53.999999999999979
 20
31.599999954923991
 30
0.0
 11
54.599999912083128
 21
30.999999810010191
 31
0.0
  0
LINE
  5
428C
  8
0
 10
75.399999968707533
 20
33.499999986961477
 30
0.0
 11
75.999999880790682
 21
34.100000015459948
 31
0.0
  0
LINE
  5
428D
  8
0
 10
75.999999880790682
 20
35.899999984540038
 30
0.0
 11
75.399999968707533
 21
36.500000013038523
 31
0.0
  0
LINE
  5
428E
  8
0
 10
68.000000199303003
 20
33.499999986961477
 30
0.0
 11
75.399999968707533
 21
33.499999986961477
 31
0.0
  0
LINE
  5
428F
  8
0
 10
75.399999968707533
 20
36.500000013038523
 30
0.0
 11
68.000000199303003
 21
36.500000013038523
 31
0.0
  0
LINE
  5
4290
  8
0
 10
68.000000199303003
 20
36.500000013038523
 30
0.0
 11
67.279129401780636
 21
36.132698031142347
 31
0.0
  0
LINE
  5
4291
  8
0
 10
67.279129401780636
 20
33.867301968857653
 30
0.0
 11
68.000000199303003
 21
33.499999986961477
 31
0.0
  0
ARC
  5
4292
  8
0
 10
66.300000104308111
 20
33.599999999999987
 30
0.0
 40
0.2999999999999971
 50
90.0
 51
179.99999999999989
  0
ARC
  5
4293
  8
0
 10
66.300000104308111
 20
36.399999999999999
 30
0.0
 40
0.3000000000000007
 50
179.99999999999989
 51
270.0000000000008
  0
ARC
  5
4294
  8
0
 10
67.142932274382019
 20
33.599999999999987
 30
0.0
 40
0.3000000000000009
 50
62.999999999999972
 51
90.0
  0
ARC
  5
4295
  8
0
 10
67.142932274382019
 20
36.399999999999999
 30
0.0
 40
0.3000000000000009
 50
270.0000000000008
 51
297.00000000000091
  0
LINE
  5
4296
  8
0
 10
66.300000118557335
 20
33.900000005960457
 30
0.0
 11
67.142932322807582
 21
33.900000005960457
 31
0.0
  0
LINE
  5
4297
  8
0
 10
67.142932322807582
 20
36.099999994039528
 30
0.0
 11
66.300000118557335
 21
36.099999994039528
 31
0.0
  0
LINE
  5
4298
  8
0
 10
65.400000075809629
 20
30.999999810010191
 30
0.0
 11
65.400000075809629
 21
39.000000189989798
 31
0.0
  0
LINE
  5
429B
  8
0
 10
66.0000001043081
 20
38.400000045076013
 30
0.0
 11
66.0000001043081
 21
31.599999954924002
 31
0.0
  0
LINE
  5
429D
  8
0
 10
54.599999912083128
 20
39.000000189989798
 30
0.0
 11
54.599999912083149
 21
30.999999810010198
 31
0.0
  0
LINE
  5
429E
  8
0
 10
53.999999999999979
 20
31.599999954923991
 30
0.0
 11
53.999999999999979
 21
38.400000045076013
 31
0.0
  0
LINE
  5
42A0
  8
0
 10
75.399999968707533
 20
33.499999986961477
 30
0.0
 11
75.399999968707533
 21
36.500000013038523
 31
0.0
  0
LINE
  5
42A1
  8
0
 10
75.999999880790682
 20
35.899999984540038
 30
0.0
 11
75.999999880790682
 21
34.100000015459948
 31
0.0
  0
LINE
  5
42A2
  8
0
 10
68.000000199303003
 20
33.499999986961477
 30
0.0
 11
68.000000199303003
 21
36.500000013038523
 31
0.0
  0
LINE
  5
42AB
  8
0
 10
66.300000118557335
 20
33.900000005960457
 30
0.0
 11
66.300000118557335
 21
36.099999994039528
 31
0.0
  0
LINE
  5
42AC
  8
0
 10
67.142932322807582
 20
36.099999994039528
 30
0.0
 11
67.142932322807582
 21
33.900000005960457
 31
0.0
  0
LINE
  5
42C8
  8
3
 10
75.680500104308123
 20
33.780500000000004
 30
0.0
 11
67.44948785751393
 21
33.780500000000004
 31
0.0
  0
LINE
  5
42C9
  8
3
 10
75.680500104308123
 20
36.219499999999996
 30
0.0
 11
67.44948785751393
 21
36.219499999999996
 31
0.0
  0
CIRCLE
  5
42CC
  8
0
 10
94.999999880790682
 20
35.0
 30
0.0
 40
1.5000000000000071
  0
CIRCLE
  5
42CD
  8
0
 10
94.999999880790682
 20
35.0
 30
0.0
 40
3.999999999999992
  0
CIRCLE
  5
42CE
  8
0
 10
94.999999880790682
 20
35.0
 30
0.0
 40
3.3999999999999981
  0
CIRCLE
  5
42D2
  8
3
 10
94.999999880790682
 20
35.0
 30
0.0
 40
1.2195000000000029
  0
CIRCLE
  5
42D3
  8
0
 10
35.0
 20
35.0
 30
0.0
 40
3.4000000000000008
  0
CIRCLE
  5
42D4
  8
0
 10
35.0
 20
35.0
 30
0.0
 40
4.0
  0
LINE
  5
4374
  8
3
 10
54.600000104308101
 20
38.174999999999997
 30
0.0
 11
65.400000104308106
 21
38.174999999999997
 31
0.0
  0
LINE
  5
4375
  8
3
 10
54.600000104308101
 20
37.11666666666666
 30
0.0
 11
65.400000104308106
 21
37.11666666666666
 31
0.0
  0
LINE
  5
4376
  8
3
 10
54.600000104308101
 20
36.05833333333333
 30
0.0
 11
65.400000104308106
 21
36.05833333333333
 31
0.0
  0
LINE
  5
4377
  8
3
 10
54.600000104308101
 20
35.0
 30
0.0
 11
65.400000104308106
 21
35.0
 31
0.0
  0
LINE
  5
4378
  8
3
 10
54.600000104308101
 20
33.941666666666663
 30
0.0
 11
65.400000104308106
 21
33.941666666666663
 31
0.0
  0
LINE
  5
4379
  8
3
 10
54.600000104308101
 20
32.883333333333333
 30
0.0
 11
65.400000104308106
 21
32.883333333333333
 31
0.0
  0
LINE
  5
437A
  8
3
 10
54.600000104308101
 20
31.824999999999999
 30
0.0
 11
65.400000104308106
 21
31.824999999999999
 31
0.0
  0
LINE
  5
4381
  8
1
 10
29.0
 20
35.0
 30
0.0
 11
41.0
 21
35.0
 31
0.0
  0
LINE
  5
4382
  8
1
 10
35.0
 20
29.0
 30
0.0
 11
35.0
 21
40.999999999999993
 31
0.0
  0
LINE
  5
4383
  8
1
 10
94.999999880790682
 20
40.999999999999979
 30
0.0
 11
94.999999880790682
 21
29.0
 31
0.0
  0
LINE
  5
4388
  8
1
 10
51.999999999999993
 20
35.0
 30
0.0
 11
77.999999880790682
 21
35.0
 31
0.0
  0
LINE
  5
4389
  8
1
 10
88.999999880790682
 20
35.0
 30
0.0
 11
100.9999998807907
 21
35.0
 31
0.0
  0
ENDSEC
  0
EOF
