  0
SECTION
  2
HEADER
  9
$ACADVER
  1
AC1009
  9
$INSBASE
 10
0.0
 20
0.0
 30
0.0
  9
$EXTMIN
 10
0.0
 20
-2.960436562073669
 30
0.0
  9
$EXTMAX
 10
147.62655422171201
 20
76.481131097576053
 30
0.0
  9
$LIMMIN
 10
0.0
 20
0.0
  9
$LIMMAX
 10
187.5
 20
135.0
  9
$ORTHOMODE
 70
     1
  9
$REGENMODE
 70
     1
  9
$FILLMODE
 70
     1
  9
$QTEXTMODE
 70
     0
  9
$MIRRTEXT
 70
     0
  9
$DRAGMODE
 70
     2
  9
$LTSCALE
 40
2.5
  9
$OSMODE
 70
  3071
  9
$ATTMODE
 70
     1
  9
$TEXTSIZE
 40
2.5
  9
$TRACEWID
 40
0.05
  9
$TEXTSTYLE
  7
STANDARD
  9
$CLAYER
  8
0
  9
$CELTYPE
  6
BYLAYER
  9
$CECOLOR
 62
   256
  9
$DIMSCALE
 40
0.5
  9
$DIMASZ
 40
3.0
  9
$DIMEXO
 40
2.0
  9
$DIMDLI
 40
10.0
  9
$DIMRND
 40
0.0
  9
$DIMDLE
 40
0.0
  9
$DIMEXE
 40
2.0
  9
$DIMTP
 40
0.0
  9
$DIMTM
 40
0.0
  9
$DIMTXT
 40
3.0
  9
$DIMCEN
 40
0.09
  9
$DIMTSZ
 40
0.0
  9
$DIMTOL
 70
     0
  9
$DIMLIM
 70
     0
  9
$DIMTIH
 70
     0
  9
$DIMTOH
 70
     0
  9
$DIMSE1
 70
     0
  9
$DIMSE2
 70
     0
  9
$DIMTAD
 70
     1
  9
$DIMZIN
 70
     0
  9
$DIMBLK
  1

  9
$DIMASO
 70
     0
  9
$DIMSHO
 70
     0
  9
$DIMPOST
  1

  9
$DIMAPOST
  1

  9
$DIMALT
 70
     0
  9
$DIMALTD
 70
     2
  9
$DIMALTF
 40
25.399999999999999
  9
$DIMLFAC
 40
1.0
  9
$DIMTOFL
 70
     1
  9
$DIMTVP
 40
1.6000000000000001
  9
$DIMTIX
 70
     1
  9
$DIMSOXD
 70
     0
  9
$DIMSAH
 70
     0
  9
$DIMBLK1
  1

  9
$DIMBLK2
  1

  9
$DIMSTYLE
  2
STANDARD
  9
$DIMCLRD
 70
     0
  9
$DIMCLRE
 70
     0
  9
$DIMCLRT
 70
     0
  9
$DIMTFAC
 40
1.0
  9
$DIMGAP
 40
0.09
  9
$LUNITS
 70
     2
  9
$LUPREC
 70
     4
  9
$SKETCHINC
 40
0.1
  9
$FILLETRAD
 40
0.0
  9
$AUNITS
 70
     0
  9
$AUPREC
 70
     0
  9
$MENU
  1
E:\r13\win\SUPPORT\ACAD
  9
$ELEVATION
 40
0.0
  9
$PELEVATION
 40
0.0
  9
$THICKNESS
 40
0.0
  9
$LIMCHECK
 70
     0
  9
$BLIPMODE
 70
     0
  9
$CHAMFERA
 40
3.2000000000000002
  9
$CHAMFERB
 40
3.2000000000000002
  9
$SKPOLY
 70
     0
  9
$TDCREATE
 40
2449840.5944097228
  9
$TDUPDATE
 40
2456597.5791412848
  9
$TDINDWG
 40
0.2982860764
  9
$TDUSRTIMER
 40
0.2982860764
  9
$USRTIMER
 70
     1
  9
$ANGBASE
 50
0.0
  9
$ANGDIR
 70
     0
  9
$PDMODE
 70
     0
  9
$PDSIZE
 40
0.0
  9
$PLINEWID
 40
0.0
  9
$COORDS
 70
     1
  9
$SPLFRAME
 70
     0
  9
$SPLINETYPE
 70
     6
  9
$SPLINESEGS
 70
     8
  9
$ATTDIA
 70
     0
  9
$ATTREQ
 70
     1
  9
$HANDLING
 70
     1
  9
$HANDSEED
  5
3C8A
  9
$SURFTAB1
 70
     6
  9
$SURFTAB2
 70
     6
  9
$SURFTYPE
 70
     6
  9
$SURFU
 70
     6
  9
$SURFV
 70
     6
  9
$UCSNAME
  2

  9
$UCSORG
 10
0.0
 20
0.0
 30
0.0
  9
$UCSXDIR
 10
1.0
 20
0.0
 30
0.0
  9
$UCSYDIR
 10
0.0
 20
1.0
 30
0.0
  9
$PUCSNAME
  2

  9
$PUCSORG
 10
0.0
 20
0.0
 30
0.0
  9
$PUCSXDIR
 10
1.0
 20
0.0
 30
0.0
  9
$PUCSYDIR
 10
0.0
 20
1.0
 30
0.0
  9
$USERI1
 70
     0
  9
$USERI2
 70
     1
  9
$USERI3
 70
     1
  9
$USERI4
 70
     0
  9
$USERI5
 70
     0
  9
$USERR1
 40
0.0
  9
$USERR2
 40
0.0
  9
$USERR3
 40
0.0
  9
$USERR4
 40
0.0
  9
$USERR5
 40
0.0
  9
$WORLDVIEW
 70
     1
  9
$SHADEDGE
 70
     3
  9
$SHADEDIF
 70
    70
  9
$TILEMODE
 70
     1
  9
$MAXACTVP
 70
    16
  9
$PLIMCHECK
 70
     0
  9
$PEXTMIN
 10
1.0000000000000000E+020
 20
1.0000000000000000E+020
 30
1.0000000000000000E+020
  9
$PEXTMAX
 10
-1.0000000000000000E+020
 20
-1.0000000000000000E+020
 30
-1.0000000000000000E+020
  9
$PLIMMIN
 10
0.0
 20
0.0
  9
$PLIMMAX
 10
12.0
 20
9.0
  9
$UNITMODE
 70
     0
  9
$VISRETAIN
 70
     0
  9
$PLINEGEN
 70
     0
  9
$PSLTSCALE
 70
     0
  0
ENDSEC
  0
SECTION
  2
TABLES
  0
TABLE
  2
VPORT
 70
     1
  0
VPORT
  2
*ACTIVE
 70
     0
 10
0.0
 20
0.0
 11
1.0
 21
1.0
 12
93.74713919532617
 22
80.848703909439024
 13
0.0
 23
0.0
 14
5.0
 24
5.0
 15
5.0
 25
5.0
 16
0.0
 26
0.0
 36
1.0
 17
0.0
 27
0.0
 37
0.0
 40
169.22413112104309
 41
1.9089595375722539
 42
50.0
 43
0.0
 44
0.0
 50
0.0
 51
0.0
 71
     0
 72
   100
 73
     1
 74
     0
 75
     0
 76
     0
 77
     0
 78
     0
  0
ENDTAB
  0
TABLE
  2
LTYPE
 70
     4
  0
LTYPE
  2
CONTINUOUS
 70
     0
  3
Solid Line
 72
    65
 73
     0
 40
0.0
  0
LTYPE
  2
CENTER
 70
     0
  3
____ _ ____ _ ____ _ ____ _ ____ _ ____ _ ____
 72
    65
 73
     4
 40
2.0
 49
1.25
 49
-0.25
 49
0.25
 49
-0.25
  0
LTYPE
  2
HIDDEN
 70
     0
  3
_ _ _ _ _ _ _ _ _ _ _ _ _ _ _ _ _ _ _ _ _ _ _
 72
    65
 73
     2
 40
0.375
 49
0.25
 49
-0.125
  0
LTYPE
  2
PHANTOM2
 70
     0
  3
___ _ _ ___ _ _ ___ _ _ ___ _ _
 72
    65
 73
     6
 40
1.25
 49
0.625
 49
-0.125
 49
0.125
 49
-0.125
 49
0.125
 49
-0.125
  0
ENDTAB
  0
TABLE
  2
LAYER
 70
     4
  0
LAYER
  2
0
 70
     0
 62
     7
  6
CONTINUOUS
  0
LAYER
  2
1
 70
     0
 62
     1
  6
CENTER
  0
LAYER
  2
2
 70
     0
 62
     2
  6
HIDDEN
  0
LAYER
  2
3
 70
     0
 62
     3
  6
CONTINUOUS
  0
ENDTAB
  0
TABLE
  2
STYLE
 70
     2
  0
STYLE
  2
STANDARD
 70
     0
 40
0.0
 41
1.0
 50
0.0
 71
     0
 42
2.5
  3
TXT
  4
BIGFONT
  0
STYLE
  2
STANDARD1
 70
     0
 40
0.0
 41
1.0
 50
0.0
 71
     0
 42
3.0
  3
txt
  4

  0
ENDTAB
  0
TABLE
  2
VIEW
 70
     1
  0
VIEW
  2
ALL
 70
     0
 40
135.0
 10
110.49579799999999
 20
67.5
 41
0.0
 11
0.0
 21
0.0
 31
1.0
 12
0.0
 22
0.0
 32
0.0
 42
0.0
 43
0.0
 44
0.0
 50
0.0
 71
     0
  0
ENDTAB
  0
TABLE
  2
UCS
 70
     0
  0
ENDTAB
  0
TABLE
  2
APPID
 70
     4
  0
APPID
  2
ACAD
 70
     0
  0
APPID
  2
DCO15
 70
     0
  0
APPID
  2
ACAD_MLEADERVER
 70
     0
  0
APPID
  2
ACAD_NAV_VCDISPLAY
 70
     0
  0
ENDTAB
  0
TABLE
  2
DIMSTYLE
 70
     1
  0
DIMSTYLE
  2
STANDARD
 70
     0
  3

  4

  5

  6

  7

 40
1.0
 41
0.18
 42
0.0625
 43
0.38
 44
0.18
 45
0.0
 46
0.0
 47
0.0
 48
0.0
140
0.18
141
0.09
142
0.0
143
25.399999999999999
144
1.0
145
0.0
146
1.0
147
0.09
 71
     0
 72
     0
 73
     1
 74
     1
 75
     0
 76
     0
 77
     0
 78
     0
170
     0
171
     2
172
     0
173
     0
174
     0
175
     0
176
     0
177
     0
178
     0
  0
ENDTAB
  0
ENDSEC
  0
SECTION
  2
BLOCKS
  0
BLOCK
  8
0
  2
$MODEL_SPACE
 70
     0
 10
0.0
 20
0.0
 30
0.0
  3
$MODEL_SPACE
  1

  0
ENDBLK
  5
15D
  8
0
  0
BLOCK
 67
     1
  8
0
  2
$PAPER_SPACE
 70
     0
 10
0.0
 20
0.0
 30
0.0
  3
$PAPER_SPACE
  1

  0
ENDBLK
  5
15B
 67
     1
  8
0
  0
BLOCK
  8
0
  2
STDGX5
 70
     0
 10
0.0
 20
0.0
 30
0.0
  3
STDGX5
  1

  0
ENDBLK
  5
41
  8
0
  0
ENDSEC
  0
SECTION
  2
ENTITIES
  0
INSERT
  5
CA
  8
0
  2
STDGX5
 10
0.0
 20
0.0
 30
0.0
  0
INSERT
  5
69A
  8
0
  2
STDGX5
 10
194.3272563481562
 20
13.52129245667936
 30
0.0
  0
LINE
  5
3AED
  8
3
 10
62.126554221711991
 20
63.981131097576082
 30
0.0
 11
84.126554221711956
 21
63.981131097576089
 31
0.0
  0
LINE
  5
3AEE
  8
3
 10
62.126554221711991
 20
66.981131097576082
 30
0.0
 11
84.126554221711956
 21
66.981131097576096
 31
0.0
  0
LINE
  5
3AEF
  8
3
 10
62.126554221711991
 20
67.58113109757609
 30
0.0
 11
84.126554221711956
 21
67.581131097576105
 31
0.0
  0
LINE
  5
3AF0
  8
3
 10
62.126554221711991
 20
68.181131097576099
 30
0.0
 11
84.126554221711956
 21
68.181131097576099
 31
0.0
  0
LINE
  5
3AF1
  8
3
 10
62.126554221711991
 20
68.781131097576093
 30
0.0
 11
84.126554221711956
 21
68.781131097576093
 31
0.0
  0
LINE
  5
3AF2
  8
3
 10
62.126554221711991
 20
69.381131097576073
 30
0.0
 11
84.126554221711956
 21
69.381131097576102
 31
0.0
  0
LINE
  5
3AF3
  8
3
 10
62.126554221711991
 20
69.981131097576096
 30
0.0
 11
84.126554221711956
 21
69.98113109757611
 31
0.0
  0
LINE
  5
3AF4
  8
3
 10
62.126554221711991
 20
70.581131097576105
 30
0.0
 11
84.126554221711956
 21
70.581131097576105
 31
0.0
  0
LINE
  5
3AF5
  8
3
 10
62.126554221711991
 20
71.181131097576099
 30
0.0
 11
84.126554221711956
 21
71.181131097576099
 31
0.0
  0
LINE
  5
3AF6
  8
3
 10
62.126554221711991
 20
71.781131097576093
 30
0.0
 11
84.126554221711956
 21
71.781131097576093
 31
0.0
  0
LINE
  5
3AF7
  8
3
 10
62.126554221711991
 20
72.381131097576102
 30
0.0
 11
84.126554221711956
 21
72.381131097576116
 31
0.0
  0
LINE
  5
3AF8
  8
3
 10
62.126554221711991
 20
72.881131097576102
 30
0.0
 11
84.126554221711956
 21
72.881131097576116
 31
0.0
  0
LINE
  5
3AF9
  8
3
 10
62.126554221711991
 20
73.281131097576093
 30
0.0
 11
84.126554221711956
 21
73.281131097576107
 31
0.0
  0
LINE
  5
3AFA
  8
3
 10
62.126554221711991
 20
73.581131097576105
 30
0.0
 11
84.126554221711956
 21
73.581131097576105
 31
0.0
  0
LINE
  5
3AFB
  8
3
 10
62.126554221711991
 20
73.781131097576093
 30
0.0
 11
84.126554221711956
 21
73.781131097576093
 31
0.0
  0
LINE
  5
3AFC
  8
3
 10
62.126554221711991
 20
73.881131097576102
 30
0.0
 11
84.126554221711956
 21
73.881131097576116
 31
0.0
  0
LINE
  5
3AFD
  8
3
 10
62.126554221711991
 20
66.381131097576073
 30
0.0
 11
84.126554221711956
 21
66.381131097576073
 31
0.0
  0
LINE
  5
3AFE
  8
3
 10
62.126554221711991
 20
65.781131097576093
 30
0.0
 11
84.126554221711956
 21
65.781131097576093
 31
0.0
  0
LINE
  5
3AFF
  8
3
 10
62.126554221711991
 20
65.181131097576085
 30
0.0
 11
84.126554221711956
 21
65.181131097576099
 31
0.0
  0
LINE
  5
3B00
  8
3
 10
62.126554221711991
 20
64.581131097576076
 30
0.0
 11
84.126554221711956
 21
64.58113109757609
 31
0.0
  0
LINE
  5
3B01
  8
0
 10
85.126554221711984
 20
60.981131097577268
 30
0.0
 11
99.126554221711984
 21
60.981131097577268
 31
0.0
  0
LINE
  5
3B02
  8
3
 10
85.126554221711984
 20
61.522631097577893
 30
0.0
 11
99.668054221712595
 21
61.522631097577893
 31
0.0
  0
LINE
  5
3B03
  8
0
 10
85.126554221711984
 20
66.981131097574888
 30
0.0
 11
99.126554221711999
 21
66.981131097574888
 31
0.0
  0
LINE
  5
3B04
  8
3
 10
85.126554221711984
 20
66.439631097574392
 30
0.0
 11
99.668054221712495
 21
66.439631097574392
 31
0.0
  0
LINE
  5
3B0C
  8
2
 10
75.626554221711928
 20
66.981131097574831
 30
0.0
 11
75.126554221711984
 21
66.115105693790355
 31
0.0
  0
LINE
  5
3B0D
  8
2
 10
75.626554221711928
 20
60.981131097577219
 30
0.0
 11
75.126554221711984
 21
61.847156501361688
 31
0.0
  0
LINE
  5
3B0E
  8
2
 10
75.626554221711984
 20
66.981131097574888
 30
0.0
 11
75.626554221711984
 21
60.981131097577268
 31
0.0
  0
LINE
  5
3B0F
  8
0
 10
100.126554221712
 20
61.981131097577268
 30
0.0
 11
99.126554221711984
 21
60.981131097577268
 31
0.0
  0
LINE
  5
3B10
  8
0
 10
99.126554221711984
 20
66.981131097574888
 30
0.0
 11
100.126554221712
 21
65.981131097574874
 31
0.0
  0
LINE
  5
3B11
  8
0
 10
99.126554221711984
 20
66.981131097574888
 30
0.0
 11
99.126554221711984
 21
60.981131097577219
 31
0.0
  0
LINE
  5
3B12
  8
0
 10
100.126554221712
 20
65.981131097574874
 30
0.0
 11
100.126554221712
 21
61.981131097577268
 31
0.0
  0
LINE
  5
3B13
  8
2
 10
75.626554221711984
 20
66.981131097574888
 30
0.0
 11
85.126554221711984
 21
66.981131097574888
 31
0.0
  0
LINE
  5
3B14
  8
2
 10
75.313919050945486
 20
66.439631097574392
 30
0.0
 11
85.126554221711984
 21
66.439631097574392
 31
0.0
  0
LINE
  5
3B15
  8
2
 10
75.313919050945316
 20
61.522631097577893
 30
0.0
 11
85.126554221711984
 21
61.5226310975779
 31
0.0
  0
LINE
  5
3B16
  8
2
 10
75.626554221711984
 20
60.981131097577268
 30
0.0
 11
85.126554221711984
 21
60.98113109757729
 31
0.0
  0
LINE
  5
3B17
  8
2
 10
75.126554221711984
 20
66.115105693790355
 30
0.0
 11
75.126554221711984
 21
61.847156501361582
 31
0.0
  0
LINE
  5
3B18
  8
3
 10
62.126554221711991
 20
54.081131097576062
 30
0.0
 11
84.126554221711956
 21
54.081131097576048
 31
0.0
  0
LINE
  5
3B19
  8
3
 10
62.126554221711991
 20
54.181131097576063
 30
0.0
 11
84.126554221711956
 21
54.181131097576049
 31
0.0
  0
LINE
  5
3B1A
  8
3
 10
62.126554221711991
 20
54.381131097576059
 30
0.0
 11
84.126554221711956
 21
54.381131097576059
 31
0.0
  0
LINE
  5
3B1B
  8
3
 10
62.126554221711991
 20
54.681131097576063
 30
0.0
 11
84.126554221711956
 21
54.681131097576063
 31
0.0
  0
LINE
  5
3B1C
  8
3
 10
62.126554221711991
 20
55.081131097576062
 30
0.0
 11
84.126554221711956
 21
55.081131097576048
 31
0.0
  0
LINE
  5
3B1D
  8
3
 10
62.126554221711991
 20
55.581131097576062
 30
0.0
 11
84.126554221711956
 21
55.581131097576062
 31
0.0
  0
LINE
  5
3B1E
  8
3
 10
62.126554221711991
 20
56.181131097576063
 30
0.0
 11
84.126554221711956
 21
56.181131097576049
 31
0.0
  0
LINE
  5
3B1F
  8
3
 10
62.126554221711991
 20
56.781131097576072
 30
0.0
 11
84.126554221711956
 21
56.781131097576058
 31
0.0
  0
LINE
  5
3B20
  8
3
 10
62.126554221711991
 20
57.381131097576059
 30
0.0
 11
84.126554221711956
 21
57.381131097576052
 31
0.0
  0
LINE
  5
3B21
  8
3
 10
62.126554221711991
 20
57.981131097576068
 30
0.0
 11
84.126554221711956
 21
57.981131097576061
 31
0.0
  0
LINE
  5
3B22
  8
3
 10
62.126554221711991
 20
58.581131097576062
 30
0.0
 11
84.126554221711956
 21
58.581131097576062
 31
0.0
  0
LINE
  5
3B23
  8
3
 10
62.126554221711991
 20
59.18113109757607
 30
0.0
 11
84.126554221711956
 21
59.181131097576063
 31
0.0
  0
LINE
  5
3B24
  8
3
 10
62.126554221711991
 20
59.781131097576072
 30
0.0
 11
84.126554221711956
 21
59.781131097576072
 31
0.0
  0
LINE
  5
3B25
  8
3
 10
62.126554221711991
 20
60.381131097576073
 30
0.0
 11
84.126554221711956
 21
60.381131097576059
 31
0.0
  0
LINE
  5
3B26
  8
3
 10
62.126554221711991
 20
60.981131097576082
 30
0.0
 11
84.126554221711956
 21
60.981131097576068
 31
0.0
  0
LINE
  5
3B27
  8
3
 10
62.126554221711991
 20
61.581131097576069
 30
0.0
 11
84.126554221711956
 21
61.581131097576069
 31
0.0
  0
LINE
  5
3B28
  8
3
 10
62.126554221711991
 20
62.181131097576078
 30
0.0
 11
84.126554221711956
 21
62.18113109757607
 31
0.0
  0
LINE
  5
3B29
  8
3
 10
62.126554221711991
 20
62.781131097576079
 30
0.0
 11
84.126554221711956
 21
62.781131097576072
 31
0.0
  0
LINE
  5
3B2A
  8
3
 10
62.126554221711991
 20
63.38113109757608
 30
0.0
 11
84.126554221711956
 21
63.381131097576073
 31
0.0
  0
CIRCLE
  5
3B2B
  8
0
 10
135.12655422171201
 20
63.981131097576061
 30
0.0
 40
3.0
  0
CIRCLE
  5
3B2C
  8
3
 10
135.12655422171201
 20
63.981131097576061
 30
0.0
 40
2.4585000000000998
  0
LINE
  5
3B2D
  8
0
 10
62.126554221711991
 20
73.981131097576082
 30
0.0
 11
62.126554221711991
 21
53.981131097576089
 31
0.0
  0
LINE
  5
3B2E
  8
0
 10
84.126554221711956
 20
73.981131097576082
 30
0.0
 11
84.126554221711984
 21
53.981131097576082
 31
0.0
  0
CIRCLE
  5
3B2F
  8
0
 10
135.12655422171201
 20
63.981131097576061
 30
0.0
 40
9.0000000000000142
  0
LINE
  5
3B30
  8
0
 10
61.12655422171197
 20
54.981131097576082
 30
0.0
 11
62.126554221711977
 21
53.981131097576082
 31
0.0
  0
LINE
  5
3B31
  8
0
 10
85.126554221711984
 20
54.981131097576082
 30
0.0
 11
84.126554221711984
 21
53.981131097576082
 31
0.0
  0
LINE
  5
3B32
  8
0
 10
84.126554221711984
 20
73.981131097576082
 30
0.0
 11
85.126554221711984
 21
72.981131097576082
 31
0.0
  0
LINE
  5
3B33
  8
0
 10
62.126554221711977
 20
73.981131097576082
 30
0.0
 11
61.12655422171197
 21
72.981131097576082
 31
0.0
  0
LINE
  5
3B34
  8
0
 10
61.12655422171197
 20
72.981131097576082
 30
0.0
 11
61.12655422171197
 21
54.981131097576082
 31
0.0
  0
LINE
  5
3B35
  8
0
 10
85.126554221711984
 20
72.981131097576082
 30
0.0
 11
85.126554221711984
 21
54.981131097576082
 31
0.0
  0
LINE
  5
3B36
  8
0
 10
84.126554221711984
 20
53.981131097576082
 30
0.0
 11
62.126554221711977
 21
53.981131097576082
 31
0.0
  0
LINE
  5
3B37
  8
0
 10
84.126554221711984
 20
73.981131097576082
 30
0.0
 11
62.126554221711977
 21
73.981131097576082
 31
0.0
  0
CIRCLE
  5
3B38
  8
0
 10
135.12655422171201
 20
63.981131097576061
 30
0.0
 40
10.0
  0
LINE
  5
3B39
  8
1
 10
135.12655422171201
 20
76.481131097576053
 30
0.0
 11
135.12655422171201
 21
51.481131097576061
 31
0.0
  0
LINE
  5
3B3A
  8
1
 10
147.62655422171201
 20
63.981131097576061
 30
0.0
 11
122.626554221712
 21
63.981131097576061
 31
0.0
  0
LINE
  5
3B3B
  8
1
 10
58.62655422171197
 20
63.981131097576089
 30
0.0
 11
102.626554221712
 21
63.981131097576061
 31
0.0
  0
LINE
  5
3B3D
  8
1
 10
26.12655422171196
 20
76.481131097576053
 30
0.0
 11
26.12655422171196
 21
51.481131097576061
 31
0.0
  0
CIRCLE
  5
3B3E
  8
0
 10
26.12655422171196
 20
63.981131097576061
 30
0.0
 40
10.0
  0
CIRCLE
  5
3B3F
  8
0
 10
26.12655422171196
 20
63.981131097576061
 30
0.0
 40
9.0000000000000142
  0
LINE
  5
3B40
  8
1
 10
13.626554221711951
 20
63.981131097576061
 30
0.0
 11
38.62655422171197
 21
63.981131097576061
 31
0.0
  0
TEXT
  5
3BF9
  8
0
 62
     3
 10
0.0
 20
0.0
 30
0.0
 40
10.0
  1
LKS6X15-SUS
  7
STANDARD1
  0
ENDSEC
  0
EOF
