  0
SECTION
  2
HEADER
  9
$ACADVER
  1
AC1009
  9
$INSBASE
 10
0.0
 20
0.0
 30
0.0
  9
$EXTMIN
 10
0.0
 20
-2.960436562073669
 30
0.0
  9
$EXTMAX
 10
89.749999999999986
 20
78.349999999999994
 30
0.0
  9
$LIMMIN
 10
0.0
 20
0.0
  9
$LIMMAX
 10
75.0
 20
54.0
  9
$ORTHOMODE
 70
     1
  9
$REGENMODE
 70
     1
  9
$FILLMODE
 70
     1
  9
$QTEXTMODE
 70
     0
  9
$MIRRTEXT
 70
     0
  9
$DRAGMODE
 70
     2
  9
$LTSCALE
 40
2.0
  9
$OSMODE
 70
  3071
  9
$ATTMODE
 70
     1
  9
$TEXTSIZE
 40
2.0000000000000502
  9
$TRACEWID
 40
0.05
  9
$TEXTSTYLE
  7
STANDARD
  9
$CLAYER
  8
0
  9
$CELTYPE
  6
BYLAYER
  9
$CECOLOR
 62
   256
  9
$DIMSCALE
 40
0.2
  9
$DIMASZ
 40
3.0
  9
$DIMEXO
 40
2.0
  9
$DIMDLI
 40
0.38
  9
$DIMRND
 40
0.0
  9
$DIMDLE
 40
0.0
  9
$DIMEXE
 40
2.0
  9
$DIMTP
 40
0.0
  9
$DIMTM
 40
0.0
  9
$DIMTXT
 40
3.2000000000000002
  9
$DIMCEN
 40
0.0
  9
$DIMTSZ
 40
0.0
  9
$DIMTOL
 70
     0
  9
$DIMLIM
 70
     0
  9
$DIMTIH
 70
     0
  9
$DIMTOH
 70
     0
  9
$DIMSE1
 70
     0
  9
$DIMSE2
 70
     0
  9
$DIMTAD
 70
     1
  9
$DIMZIN
 70
     0
  9
$DIMBLK
  1

  9
$DIMASO
 70
     1
  9
$DIMSHO
 70
     0
  9
$DIMPOST
  1

  9
$DIMAPOST
  1

  9
$DIMALT
 70
     0
  9
$DIMALTD
 70
     2
  9
$DIMALTF
 40
25.399999999999999
  9
$DIMLFAC
 40
1.0
  9
$DIMTOFL
 70
     1
  9
$DIMTVP
 40
1.6000000000000001
  9
$DIMTIX
 70
     1
  9
$DIMSOXD
 70
     0
  9
$DIMSAH
 70
     0
  9
$DIMBLK1
  1

  9
$DIMBLK2
  1

  9
$DIMSTYLE
  2
STANDARD
  9
$DIMCLRD
 70
     0
  9
$DIMCLRE
 70
     0
  9
$DIMCLRT
 70
     0
  9
$DIMTFAC
 40
1.0
  9
$DIMGAP
 40
0.09
  9
$LUNITS
 70
     2
  9
$LUPREC
 70
     4
  9
$SKETCHINC
 40
0.1
  9
$FILLETRAD
 40
0.0
  9
$AUNITS
 70
     0
  9
$AUPREC
 70
     4
  9
$MENU
  1
E:\r13\win\SUPPORT\ACAD
  9
$ELEVATION
 40
0.0
  9
$PELEVATION
 40
0.0
  9
$THICKNESS
 40
0.0
  9
$LIMCHECK
 70
     0
  9
$BLIPMODE
 70
     0
  9
$CHAMFERA
 40
0.0
  9
$CHAMFERB
 40
0.0
  9
$SKPOLY
 70
     0
  9
$TDCREATE
 40
2449839.7866435191
  9
$TDUPDATE
 40
2456597.6062389701
  9
$TDINDWG
 40
0.0555564468
  9
$TDUSRTIMER
 40
0.0555564468
  9
$USRTIMER
 70
     1
  9
$ANGBASE
 50
0.0
  9
$ANGDIR
 70
     0
  9
$PDMODE
 70
     0
  9
$PDSIZE
 40
0.0
  9
$PLINEWID
 40
0.0
  9
$COORDS
 70
     1
  9
$SPLFRAME
 70
     0
  9
$SPLINETYPE
 70
     6
  9
$SPLINESEGS
 70
     8
  9
$ATTDIA
 70
     0
  9
$ATTREQ
 70
     1
  9
$HANDLING
 70
     1
  9
$HANDSEED
  5
2C4
  9
$SURFTAB1
 70
     6
  9
$SURFTAB2
 70
     6
  9
$SURFTYPE
 70
     6
  9
$SURFU
 70
     6
  9
$SURFV
 70
     6
  9
$UCSNAME
  2

  9
$UCSORG
 10
0.0
 20
0.0
 30
0.0
  9
$UCSXDIR
 10
1.0
 20
0.0
 30
0.0
  9
$UCSYDIR
 10
0.0
 20
1.0
 30
0.0
  9
$PUCSNAME
  2

  9
$PUCSORG
 10
0.0
 20
0.0
 30
0.0
  9
$PUCSXDIR
 10
1.0
 20
0.0
 30
0.0
  9
$PUCSYDIR
 10
0.0
 20
1.0
 30
0.0
  9
$USERI1
 70
     0
  9
$USERI2
 70
     1
  9
$USERI3
 70
     1
  9
$USERI4
 70
     0
  9
$USERI5
 70
     0
  9
$USERR1
 40
0.0
  9
$USERR2
 40
0.0
  9
$USERR3
 40
0.0
  9
$USERR4
 40
0.0
  9
$USERR5
 40
0.0
  9
$WORLDVIEW
 70
     1
  9
$SHADEDGE
 70
     3
  9
$SHADEDIF
 70
    70
  9
$TILEMODE
 70
     1
  9
$MAXACTVP
 70
    16
  9
$PLIMCHECK
 70
     0
  9
$PEXTMIN
 10
1.0000000000000000E+020
 20
1.0000000000000000E+020
 30
1.0000000000000000E+020
  9
$PEXTMAX
 10
-1.0000000000000000E+020
 20
-1.0000000000000000E+020
 30
-1.0000000000000000E+020
  9
$PLIMMIN
 10
0.0
 20
0.0
  9
$PLIMMAX
 10
12.0
 20
9.0
  9
$UNITMODE
 70
     0
  9
$VISRETAIN
 70
     0
  9
$PLINEGEN
 70
     0
  9
$PSLTSCALE
 70
     0
  0
ENDSEC
  0
SECTION
  2
TABLES
  0
TABLE
  2
VPORT
 70
     1
  0
VPORT
  2
*ACTIVE
 70
     0
 10
0.0
 20
0.0
 11
1.0
 21
1.0
 12
44.875000208965503
 22
37.871564966731249
 13
0.0
 23
0.0
 14
2.0
 24
2.0
 15
2.0
 25
2.0
 16
0.0
 26
0.0
 36
1.0
 17
0.0
 27
0.0
 37
0.0
 40
82.600406325436282
 41
2.304913294797688
 42
50.0
 43
0.0
 44
0.0
 50
0.0
 51
0.0
 71
     0
 72
   500
 73
     1
 74
     0
 75
     0
 76
     0
 77
     0
 78
     2
  0
ENDTAB
  0
TABLE
  2
LTYPE
 70
     3
  0
LTYPE
  2
CONTINUOUS
 70
     0
  3
Solid Line
 72
    65
 73
     0
 40
0.0
  0
LTYPE
  2
CENTER
 70
     0
  3
____ _ ____ _ ____ _ ____ _ ____ _ ____ _ ____
 72
    65
 73
     4
 40
2.0
 49
1.25
 49
-0.25
 49
0.25
 49
-0.25
  0
LTYPE
  2
PHANTOM2
 70
     0
  3
___ _ _ ___ _ _ ___ _ _ ___ _ _
 72
    65
 73
     6
 40
1.25
 49
0.625
 49
-0.125
 49
0.125
 49
-0.125
 49
0.125
 49
-0.125
  0
ENDTAB
  0
TABLE
  2
LAYER
 70
     3
  0
LAYER
  2
0
 70
     0
 62
     7
  6
CONTINUOUS
  0
LAYER
  2
1
 70
     0
 62
     1
  6
CENTER
  0
LAYER
  2
3
 70
     0
 62
     3
  6
CONTINUOUS
  0
ENDTAB
  0
TABLE
  2
STYLE
 70
     2
  0
STYLE
  2
STANDARD
 70
     0
 40
0.0
 41
1.0
 50
0.0
 71
     0
 42
2.0000000000000502
  3
TXT
  4
BIGFONT
  0
STYLE
  2
STANDARD1
 70
     0
 40
0.0
 41
1.0
 50
0.0
 71
     0
 42
3.0
  3
txt
  4

  0
ENDTAB
  0
TABLE
  2
VIEW
 70
     1
  0
VIEW
  2
ALL
 70
     0
 40
54.0
 10
44.198319327731092
 20
27.0
 41
0.0
 11
0.0
 21
0.0
 31
1.0
 12
0.0
 22
0.0
 32
0.0
 42
0.0
 43
0.0
 44
0.0
 50
0.0
 71
     0
  0
ENDTAB
  0
TABLE
  2
UCS
 70
     0
  0
ENDTAB
  0
TABLE
  2
APPID
 70
     4
  0
APPID
  2
ACAD
 70
     0
  0
APPID
  2
ACAD_EXEMPT_FROM_CAD_STANDARDS
 70
     0
  0
APPID
  2
ACAD_MLEADERVER
 70
     0
  0
APPID
  2
ACAD_NAV_VCDISPLAY
 70
     0
  0
ENDTAB
  0
TABLE
  2
DIMSTYLE
 70
     1
  0
DIMSTYLE
  2
STANDARD
 70
     0
  3

  4

  5

  6

  7

 40
1.0
 41
0.18
 42
0.0625
 43
0.38
 44
0.18
 45
0.0
 46
0.0
 47
0.0
 48
0.0
140
0.18
141
0.09
142
0.0
143
25.399999999999999
144
1.0
145
0.0
146
1.0
147
0.09
 71
     0
 72
     0
 73
     1
 74
     1
 75
     0
 76
     0
 77
     0
 78
     0
170
     0
171
     2
172
     0
173
     0
174
     0
175
     0
176
     0
177
     0
178
     0
  0
ENDTAB
  0
ENDSEC
  0
SECTION
  2
BLOCKS
  0
BLOCK
  8
0
  2
$MODEL_SPACE
 70
     0
 10
0.0
 20
0.0
 30
0.0
  3
$MODEL_SPACE
  1

  0
ENDBLK
  5
C9
  8
0
  0
BLOCK
 67
     1
  8
0
  2
$PAPER_SPACE
 70
     0
 10
0.0
 20
0.0
 30
0.0
  3
$PAPER_SPACE
  1

  0
ENDBLK
  5
C7
 67
     1
  8
0
  0
ENDSEC
  0
SECTION
  2
ENTITIES
  0
LINE
  5
1A6
  8
1
 10
49.0
 20
72.599999999999994
 30
0.0
 11
71.0
 21
72.599999999999994
 31
0.0
  0
LINE
  5
1A7
  8
1
 10
60.0
 20
66.849999999999994
 30
0.0
 11
60.0
 21
78.349999999999994
 31
0.0
  0
LINE
  5
1A8
  8
1
 10
60.0
 20
61.600000000000001
 30
0.0
 11
60.0
 21
42.59999999999998
 31
0.0
  0
ARC
  5
1A9
  8
0
 10
52.600000000000009
 20
72.599999999999994
 30
0.0
 40
2.600000000000001
 50
122.4014424423962
 51
237.59855755760381
  0
ARC
  5
1AA
  8
0
 10
67.400000000000006
 20
72.599999999999994
 30
0.0
 40
2.600000000000001
 50
302.40145095256639
 51
57.598549047433679
  0
ARC
  5
1AB
  8
0
 10
60.0
 20
60.940116279069748
 30
0.0
 40
16.409883720930239
 50
57.598553304206881
 51
122.4014454959562
  0
ARC
  5
1AC
  8
0
 10
60.0
 20
84.259883720930247
 30
0.0
 40
16.409883720930239
 50
237.5985545040439
 51
302.4014466957928
  0
LINE
  5
1AD
  8
0
 10
62.0
 20
49.600000000000023
 30
0.0
 11
62.0
 21
44.399999999999991
 31
0.0
  0
LINE
  5
1AE
  8
0
 10
61.20000000000001
 20
43.59999999999998
 30
0.0
 11
58.800000000000011
 21
43.59999999999998
 31
0.0
  0
LINE
  5
1AF
  8
0
 10
62.0
 20
44.399999999999963
 30
0.0
 11
61.20000000000001
 21
43.59999999999998
 31
0.0
  0
LINE
  5
1B0
  8
0
 10
58.000000000000057
 20
44.399999999999942
 30
0.0
 11
62.0
 21
44.399999999999991
 31
0.0
  0
LINE
  5
1B1
  8
0
 10
62.0
 20
48.19999999999996
 30
0.0
 11
58.0
 21
48.200000000000003
 31
0.0
  0
LINE
  5
1B2
  8
3
 10
61.620999999998617
 20
48.19999999999996
 30
0.0
 11
61.620999999998617
 21
44.020999999998573
 31
0.0
  0
LINE
  5
1B3
  8
3
 10
61.620999999998617
 20
48.19999999999996
 30
0.0
 11
62.0
 21
48.856447256070972
 31
0.0
  0
LINE
  5
1B4
  8
3
 10
58.379000000001383
 20
48.19999999999996
 30
0.0
 11
58.0
 21
48.856447256070972
 31
0.0
  0
LINE
  5
1B5
  8
3
 10
58.379000000001412
 20
48.19999999999996
 30
0.0
 11
58.379000000001412
 21
44.02099999999858
 31
0.0
  0
LINE
  5
1B6
  8
0
 10
58.0
 20
44.399999999999963
 30
0.0
 11
58.800000000000011
 21
43.59999999999998
 31
0.0
  0
LINE
  5
1B7
  8
0
 10
58.0
 20
49.60000000000003
 30
0.0
 11
58.0
 21
44.399999999999999
 31
0.0
  0
LINE
  5
1B8
  8
1
 10
85.000000000000028
 20
61.600000000000001
 30
0.0
 11
85.000000000000028
 21
42.59999999999998
 31
0.0
  0
LINE
  5
1B9
  8
0
 10
83.000000000000014
 20
49.60000000000003
 30
0.0
 11
83.000000000000014
 21
44.399999999999999
 31
0.0
  0
LINE
  5
1BA
  8
0
 10
83.000000000000014
 20
44.399999999999963
 30
0.0
 11
83.80000000000004
 21
43.59999999999998
 31
0.0
  0
LINE
  5
1BB
  8
3
 10
83.379000000001454
 20
48.19999999999996
 30
0.0
 11
83.379000000001454
 21
44.02099999999858
 31
0.0
  0
LINE
  5
1BC
  8
3
 10
83.379000000001412
 20
48.19999999999996
 30
0.0
 11
83.000000000000014
 21
48.856447256070972
 31
0.0
  0
LINE
  5
1BD
  8
3
 10
86.620999999998645
 20
48.19999999999996
 30
0.0
 11
87.000000000000014
 21
48.856447256070972
 31
0.0
  0
LINE
  5
1BE
  8
3
 10
86.620999999998645
 20
48.19999999999996
 30
0.0
 11
86.620999999998645
 21
44.020999999998573
 31
0.0
  0
LINE
  5
1BF
  8
0
 10
87.000000000000014
 20
48.19999999999996
 30
0.0
 11
83.000000000000014
 21
48.200000000000003
 31
0.0
  0
LINE
  5
1C0
  8
0
 10
83.000000000000085
 20
44.399999999999942
 30
0.0
 11
87.000000000000014
 21
44.399999999999991
 31
0.0
  0
LINE
  5
1C1
  8
0
 10
87.000000000000014
 20
44.399999999999963
 30
0.0
 11
86.200000000000045
 21
43.59999999999998
 31
0.0
  0
LINE
  5
1C2
  8
0
 10
86.200000000000045
 20
43.59999999999998
 30
0.0
 11
83.80000000000004
 21
43.59999999999998
 31
0.0
  0
LINE
  5
1C3
  8
0
 10
87.000000000000014
 20
49.600000000000023
 30
0.0
 11
87.000000000000014
 21
44.399999999999991
 31
0.0
  0
LINE
  5
1C4
  8
0
 10
56.5
 20
49.599999999999987
 30
0.0
 11
63.5
 21
49.599999999999987
 31
0.0
  0
LINE
  5
1C5
  8
0
 10
50.0
 20
50.0
 30
0.0
 11
70.0
 21
50.0
 31
0.0
  0
ARC
  5
1C6
  8
0
 10
60.0
 20
42.600000000000001
 30
0.0
 40
17.999999999999989
 50
61.486821587374308
 51
118.5131767791602
  0
LINE
  5
1C7
  8
0
 10
56.5
 20
50.0
 30
0.0
 11
56.5
 21
49.599999999999987
 31
0.0
  0
LINE
  5
1C8
  8
0
 10
50.0
 20
50.0
 30
0.0
 11
50.364967228082691
 21
56.763989565587089
 31
0.0
  0
LINE
  5
1C9
  8
0
 10
70.0
 20
50.0
 30
0.0
 11
69.635032771917309
 21
56.763989565587089
 31
0.0
  0
ARC
  5
1CA
  8
0
 10
52.362226297591839
 20
56.659317653101198
 30
0.0
 40
2.0
 50
118.5131767791602
 51
177.00000000000011
  0
ARC
  5
1CB
  8
0
 10
67.637773702408154
 20
56.659317653101198
 30
0.0
 40
2.0
 50
2.9999999999998912
 51
61.486823220839788
  0
LINE
  5
1CC
  8
0
 10
63.5
 20
50.0
 30
0.0
 11
63.5
 21
49.599999999999987
 31
0.0
  0
LINE
  5
1CD
  8
0
 10
80.250000000000028
 20
50.0
 30
0.0
 11
89.749999999999986
 21
50.0
 31
0.0
  0
LINE
  5
1CE
  8
0
 10
81.500000000000028
 20
49.599999999999987
 30
0.0
 11
88.500000000000057
 21
49.599999999999987
 31
0.0
  0
LINE
  5
1CF
  8
0
 10
81.500000000000028
 20
50.0
 30
0.0
 11
81.500000000000028
 21
49.599999999999987
 31
0.0
  0
LINE
  5
1D0
  8
0
 10
88.500000000000028
 20
50.0
 30
0.0
 11
88.499999999999986
 21
49.599999999999987
 31
0.0
  0
LINE
  5
1D1
  8
0
 10
80.250000000000028
 20
50.0
 30
0.0
 11
80.648169841819637
 21
57.397533176691461
 31
0.0
  0
LINE
  5
1D2
  8
0
 10
89.749999999999986
 20
50.0
 30
0.0
 11
89.351830158180377
 21
57.397533176691731
 31
0.0
  0
ARC
  5
1D3
  8
0
 10
85.0
 20
55.825766291053732
 30
0.0
 40
4.774233708946185
 50
31.926362723766569
 51
148.0736372762376
  0
ARC
  5
1D4
  8
0
 10
82.645428911328793
 20
57.292861264205563
 30
0.0
 40
2.0
 50
148.0736372762376
 51
176.99999999999969
  0
ARC
  5
1D5
  8
0
 10
87.354571088671236
 20
57.292861264205818
 30
0.0
 40
2.0
 50
3.000000000000298
 51
31.926362723766569
  0
TEXT
  5
264
  8
0
 62
     3
 10
0.0
 20
0.0
 30
0.0
 40
10.0
  1
LS4X6
  7
STANDARD1
  0
ENDSEC
  0
EOF
