  0
SECTION
  2
HEADER
  9
$ACADVER
  1
AC1009
  9
$INSBASE
 10
0.0
 20
0.0
 30
0.0
  9
$EXTMIN
 10
0.0
 20
-1.4802182810368341
 30
0.0
  9
$EXTMAX
 10
103.5000000000001
 20
103.4999999999999
 30
0.0
  9
$LIMMIN
 10
0.0
 20
0.0
  9
$LIMMAX
 10
12.0
 20
9.0
  9
$ORTHOMODE
 70
     1
  9
$REGENMODE
 70
     1
  9
$FILLMODE
 70
     1
  9
$QTEXTMODE
 70
     0
  9
$MIRRTEXT
 70
     0
  9
$DRAGMODE
 70
     2
  9
$LTSCALE
 40
1.0
  9
$OSMODE
 70
    37
  9
$ATTMODE
 70
     1
  9
$TEXTSIZE
 40
0.2
  9
$TRACEWID
 40
0.05
  9
$TEXTSTYLE
  7
STANDARD
  9
$CLAYER
  8
0
  9
$CELTYPE
  6
BYLAYER
  9
$CECOLOR
 62
   256
  9
$DIMSCALE
 40
1.0
  9
$DIMASZ
 40
1.0
  9
$DIMEXO
 40
2.54
  9
$DIMDLI
 40
0.38
  9
$DIMRND
 40
0.0
  9
$DIMDLE
 40
0.0
  9
$DIMEXE
 40
2.54
  9
$DIMTP
 40
0.0
  9
$DIMTM
 40
0.0
  9
$DIMTXT
 40
3.2000000000000002
  9
$DIMCEN
 40
0.09
  9
$DIMTSZ
 40
0.0
  9
$DIMTOL
 70
     0
  9
$DIMLIM
 70
     0
  9
$DIMTIH
 70
     0
  9
$DIMTOH
 70
     0
  9
$DIMSE1
 70
     0
  9
$DIMSE2
 70
     0
  9
$DIMTAD
 70
     1
  9
$DIMZIN
 70
     8
  9
$DIMBLK
  1

  9
$DIMASO
 70
     1
  9
$DIMSHO
 70
     0
  9
$DIMPOST
  1

  9
$DIMAPOST
  1

  9
$DIMALT
 70
     0
  9
$DIMALTD
 70
     2
  9
$DIMALTF
 40
25.399999999999999
  9
$DIMLFAC
 40
1.0
  9
$DIMTOFL
 70
     0
  9
$DIMTVP
 40
1.0
  9
$DIMTIX
 70
     0
  9
$DIMSOXD
 70
     0
  9
$DIMSAH
 70
     0
  9
$DIMBLK1
  1

  9
$DIMBLK2
  1

  9
$DIMSTYLE
  2
STANDARD
  9
$DIMCLRD
 70
     0
  9
$DIMCLRE
 70
     0
  9
$DIMCLRT
 70
     0
  9
$DIMTFAC
 40
1.0
  9
$DIMGAP
 40
1.6000000000000001
  9
$LUNITS
 70
     2
  9
$LUPREC
 70
     2
  9
$SKETCHINC
 40
0.1
  9
$FILLETRAD
 40
0.0
  9
$AUNITS
 70
     0
  9
$AUPREC
 70
     0
  9
$MENU
  1
.
  9
$ELEVATION
 40
0.0
  9
$PELEVATION
 40
0.0
  9
$THICKNESS
 40
0.0
  9
$LIMCHECK
 70
     0
  9
$BLIPMODE
 70
     0
  9
$CHAMFERA
 40
0.0
  9
$CHAMFERB
 40
0.0
  9
$SKPOLY
 70
     0
  9
$TDCREATE
 40
2453173.4709223039
  9
$TDUPDATE
 40
2459278.659645787
  9
$TDINDWG
 40
0.4095975347
  9
$TDUSRTIMER
 40
0.4095975347
  9
$USRTIMER
 70
     1
  9
$ANGBASE
 50
0.0
  9
$ANGDIR
 70
     0
  9
$PDMODE
 70
     0
  9
$PDSIZE
 40
0.0
  9
$PLINEWID
 40
0.0
  9
$COORDS
 70
     1
  9
$SPLFRAME
 70
     0
  9
$SPLINETYPE
 70
     6
  9
$SPLINESEGS
 70
     8
  9
$ATTDIA
 70
     0
  9
$ATTREQ
 70
     1
  9
$HANDLING
 70
     1
  9
$HANDSEED
  5
304
  9
$SURFTAB1
 70
     6
  9
$SURFTAB2
 70
     6
  9
$SURFTYPE
 70
     6
  9
$SURFU
 70
     6
  9
$SURFV
 70
     6
  9
$UCSNAME
  2

  9
$UCSORG
 10
0.0
 20
0.0
 30
0.0
  9
$UCSXDIR
 10
1.0
 20
0.0
 30
0.0
  9
$UCSYDIR
 10
0.0
 20
1.0
 30
0.0
  9
$PUCSNAME
  2

  9
$PUCSORG
 10
0.0
 20
0.0
 30
0.0
  9
$PUCSXDIR
 10
1.0
 20
0.0
 30
0.0
  9
$PUCSYDIR
 10
0.0
 20
1.0
 30
0.0
  9
$USERI1
 70
     0
  9
$USERI2
 70
     0
  9
$USERI3
 70
     0
  9
$USERI4
 70
     0
  9
$USERI5
 70
     0
  9
$USERR1
 40
0.0
  9
$USERR2
 40
0.0
  9
$USERR3
 40
0.0
  9
$USERR4
 40
0.0
  9
$USERR5
 40
0.0
  9
$WORLDVIEW
 70
     1
  9
$SHADEDGE
 70
     3
  9
$SHADEDIF
 70
    70
  9
$TILEMODE
 70
     1
  9
$MAXACTVP
 70
    64
  9
$PLIMCHECK
 70
     0
  9
$PEXTMIN
 10
1.0000000000000000E+020
 20
1.0000000000000000E+020
 30
1.0000000000000000E+020
  9
$PEXTMAX
 10
-1.0000000000000000E+020
 20
-1.0000000000000000E+020
 30
-1.0000000000000000E+020
  9
$PLIMMIN
 10
0.0
 20
0.0
  9
$PLIMMAX
 10
12.0
 20
9.0
  9
$UNITMODE
 70
     0
  9
$VISRETAIN
 70
     1
  9
$PLINEGEN
 70
     0
  9
$PSLTSCALE
 70
     1
  0
ENDSEC
  0
SECTION
  2
TABLES
  0
TABLE
  2
VPORT
 70
     1
  0
VPORT
  2
*ACTIVE
 70
     0
 10
0.0
 20
0.0
 11
1.0
 21
1.0
 12
195.14681892332791
 22
75.0
 13
0.0
 23
0.0
 14
1.0
 24
1.0
 15
0.0
 25
0.0
 16
0.0
 26
0.0
 36
1.0
 17
0.0
 27
0.0
 37
0.0
 40
150.0
 41
2.6019575856443709
 42
50.0
 43
0.0
 44
0.0
 50
0.0
 51
0.0
 71
     0
 72
   100
 73
     1
 74
     1
 75
     0
 76
     0
 77
     0
 78
     0
  0
ENDTAB
  0
TABLE
  2
LTYPE
 70
     3
  0
LTYPE
  2
CONTINUOUS
 70
     0
  3
Solid line
 72
    65
 73
     0
 40
0.0
  0
LTYPE
  2
CENTER
 70
     0
  3
Center ____ _ ____ _ ____ _ ____ _ ____ _ ____
 72
    65
 73
     4
 40
12.0
 49
7.5
 49
-1.5
 49
1.5
 49
-1.5
  0
LTYPE
  2
PHANTOM2
 70
     0
  3
___ _ _ ___ _ _ ___ _ _ ___ _ _
 72
    65
 73
     6
 40
1.25
 49
0.625
 49
-0.125
 49
0.125
 49
-0.125
 49
0.125
 49
-0.125
  0
ENDTAB
  0
TABLE
  2
LAYER
 70
     3
  0
LAYER
  2
0
 70
     0
 62
     7
  6
CONTINUOUS
  0
LAYER
  2
1
 70
     0
 62
     1
  6
CENTER
  0
LAYER
  2
3
 70
     0
 62
     3
  6
CONTINUOUS
  0
ENDTAB
  0
TABLE
  2
STYLE
 70
     2
  0
STYLE
  2
STANDARD
 70
     0
 40
0.0
 41
1.0
 50
0.0
 71
     0
 42
0.2
  3
simplex.shx
  4
bigfont.shx
  0
STYLE
  2
STANDARD1
 70
     0
 40
0.0
 41
1.0
 50
0.0
 71
     0
 42
3.0
  3
txt
  4

  0
ENDTAB
  0
TABLE
  2
VIEW
 70
     0
  0
ENDTAB
  0
TABLE
  2
UCS
 70
     0
  0
ENDTAB
  0
TABLE
  2
APPID
 70
     6
  0
APPID
  2
ACAD
 70
     0
  0
APPID
  2
ACAD_MLEADERVER
 70
     0
  0
APPID
  2
ACAD_EXEMPT_FROM_CAD_STANDARDS
 70
     0
  0
APPID
  2
ACAD_NAV_VCDISPLAY
 70
     0
  0
APPID
  2
ACAD_DSTYLE_DIMJAG
 70
     0
  0
APPID
  2
ACAD_DSTYLE_DIMTALN
 70
     0
  0
ENDTAB
  0
TABLE
  2
DIMSTYLE
 70
     1
  0
DIMSTYLE
  2
STANDARD
 70
     0
  3

  4

  5

  6

  7

 40
1.0
 41
0.18
 42
0.0625
 43
0.38
 44
0.18
 45
0.0
 46
0.0
 47
0.0
 48
0.0
140
0.18
141
0.09
142
0.0
143
25.399999999999999
144
1.0
145
0.0
146
1.0
147
0.09
 71
     0
 72
     0
 73
     1
 74
     1
 75
     0
 76
     0
 77
     0
 78
     0
170
     0
171
     2
172
     0
173
     0
174
     0
175
     0
176
     0
177
     0
178
     0
  0
ENDTAB
  0
ENDSEC
  0
SECTION
  2
BLOCKS
  0
BLOCK
  8
0
  2
$MODEL_SPACE
 70
     0
 10
0.0
 20
0.0
 30
0.0
  3
$MODEL_SPACE
  1

  0
ENDBLK
  5
9
  8
0
  0
BLOCK
 67
     1
  8
0
  2
$PAPER_SPACE
 70
     0
 10
0.0
 20
0.0
 30
0.0
  3
$PAPER_SPACE
  1

  0
ENDBLK
  5
E
 67
     1
  8
0
  0
ENDSEC
  0
SECTION
  2
ENTITIES
  0
LINE
  5
28
  8
0
 10
38.900730000000131
 20
95.749999999999901
 30
0.0
 11
34.859270000000102
 21
95.749999999999901
 31
0.0
  0
LINE
  5
29
  8
0
 10
40.921450000000107
 20
92.249999999999901
 30
0.0
 11
38.900730000000131
 21
95.749999999999901
 31
0.0
  0
LINE
  5
2A
  8
0
 10
38.900730000000131
 20
88.749999999999915
 30
0.0
 11
40.921450000000107
 21
92.249999999999901
 31
0.0
  0
LINE
  5
2B
  8
0
 10
34.859270000000102
 20
88.749999999999915
 30
0.0
 11
38.900730000000131
 21
88.749999999999915
 31
0.0
  0
LINE
  5
2C
  8
0
 10
32.838550000000119
 20
92.249999999999901
 30
0.0
 11
34.859270000000102
 21
88.749999999999915
 31
0.0
  0
LINE
  5
2D
  8
0
 10
34.859270000000102
 20
95.749999999999901
 30
0.0
 11
32.838550000000119
 21
92.249999999999901
 31
0.0
  0
LINE
  5
2E
  8
1
 10
25.0
 20
92.249999999999901
 30
0.0
 11
47.5
 21
92.249999999999901
 31
0.0
  0
LINE
  5
31
  8
1
 10
36.25
 20
80.999999999999901
 30
0.0
 11
36.25
 21
103.4999999999999
 31
0.0
  0
LINE
  5
32
  8
1
 10
103.5000000000001
 20
92.249999999999901
 30
0.0
 11
67.500000000000114
 21
92.249999999999901
 31
0.0
  0
CIRCLE
  5
33
  8
0
 10
36.25
 20
92.249999999999901
 30
0.0
 40
6.25
  0
LINE
  5
35
  8
0
 10
97.000000000000171
 20
97.249999999999901
 30
0.0
 11
97.000000000000057
 21
87.249999999999901
 31
0.0
  0
LINE
  5
36
  8
3
 10
79.500000000000171
 20
88.061999999999827
 30
0.0
 11
78.5
 21
87.484649730810091
 31
0.0
  0
LINE
  5
38
  8
3
 10
79.500000000000171
 20
96.438000000000002
 30
0.0
 11
78.500000000000114
 21
97.015350269189653
 31
0.0
  0
LINE
  5
39
  8
0
 10
79.500000000000171
 20
97.249999999999901
 30
0.0
 11
79.500000000000057
 21
87.249999999999901
 31
0.0
  0
LINE
  5
3A
  8
0
 10
98.500000000000057
 20
88.749999999999915
 30
0.0
 11
97.000000000000057
 21
87.249999999999901
 31
0.0
  0
LINE
  5
3B
  8
0
 10
97.000000000000171
 20
97.249999999999901
 30
0.0
 11
98.500000000000114
 21
95.749999999999901
 31
0.0
  0
LINE
  5
3C
  8
0
 10
78.500000000000114
 20
97.249999999999901
 30
0.0
 11
97.000000000000171
 21
97.249999999999901
 31
0.0
  0
LINE
  5
3D
  8
3
 10
79.500000000000114
 20
96.438000000000002
 30
0.0
 11
97.812000000000069
 21
96.438000000000002
 31
0.0
  0
LINE
  5
3E
  8
3
 10
79.5
 20
88.061999999999799
 30
0.0
 11
97.812000000000012
 21
88.061999999999827
 31
0.0
  0
LINE
  5
3F
  8
0
 10
78.500000000000114
 20
87.249999999999901
 30
0.0
 11
97.000000000000057
 21
87.249999999999901
 31
0.0
  0
LINE
  5
40
  8
0
 10
98.500000000000114
 20
95.749999999999901
 30
0.0
 11
98.500000000000057
 21
88.749999999999915
 31
0.0
  0
LINE
  5
41
  8
0
 10
78.500000000000171
 20
98.499999999999901
 30
0.0
 11
78.5
 21
85.999999999999901
 31
0.0
  0
LINE
  5
42
  8
0
 10
72.500000000000171
 20
98.499999999999901
 30
0.0
 11
78.500000000000114
 21
98.499999999999901
 31
0.0
  0
LINE
  5
43
  8
0
 10
72.5
 20
85.999999999999901
 30
0.0
 11
78.499999999999943
 21
85.999999999999901
 31
0.0
  0
LINE
  5
44
  8
0
 10
72.500000000000171
 20
98.499999999999986
 30
0.0
 11
72.5
 21
85.999999999999986
 31
0.0
  0
LINE
  5
45
  8
0
 10
41.880000000000123
 20
31.499999999999911
 30
0.0
 11
31.88000000000012
 21
31.500000000000028
 31
0.0
  0
LINE
  5
46
  8
3
 10
32.692000000000071
 20
48.999999999999908
 30
0.0
 11
32.114649730810306
 21
50.000000000000078
 31
0.0
  0
LINE
  5
47
  8
3
 10
41.068000000000218
 20
48.999999999999908
 30
0.0
 11
41.645350269189869
 21
49.999999999999972
 31
0.0
  0
LINE
  5
48
  8
0
 10
41.880000000000123
 20
48.999999999999908
 30
0.0
 11
31.88000000000012
 21
49.000000000000028
 31
0.0
  0
LINE
  5
49
  8
0
 10
33.380000000000123
 20
30.000000000000028
 30
0.0
 11
31.88000000000012
 21
31.500000000000028
 31
0.0
  0
LINE
  5
4A
  8
0
 10
41.880000000000123
 20
31.499999999999911
 30
0.0
 11
40.380000000000109
 21
29.999999999999972
 31
0.0
  0
LINE
  5
4B
  8
0
 10
41.880000000000123
 20
49.999999999999972
 30
0.0
 11
41.880000000000123
 21
31.499999999999911
 31
0.0
  0
LINE
  5
4C
  8
3
 10
41.068000000000218
 20
48.999999999999972
 30
0.0
 11
41.068000000000218
 21
30.688000000000009
 31
0.0
  0
LINE
  5
4D
  8
3
 10
32.692000000000007
 20
49.000000000000092
 30
0.0
 11
32.692000000000007
 21
30.68800000000007
 31
0.0
  0
LINE
  5
4E
  8
0
 10
31.88000000000012
 20
49.999999999999972
 30
0.0
 11
31.88000000000012
 21
31.500000000000028
 31
0.0
  0
LINE
  5
4F
  8
0
 10
40.380000000000109
 20
29.999999999999972
 30
0.0
 11
33.380000000000123
 21
30.000000000000028
 31
0.0
  0
LINE
  5
50
  8
0
 10
42.5
 20
49.999999999999901
 30
0.0
 11
30.0
 21
50.000000000000071
 31
0.0
  0
LINE
  5
51
  8
0
 10
42.5
 20
55.999999999999901
 30
0.0
 11
42.5
 21
49.999999999999957
 31
0.0
  0
LINE
  5
52
  8
0
 10
30.0
 20
56.000000000000071
 30
0.0
 11
30.0
 21
50.000000000000128
 31
0.0
  0
LINE
  5
53
  8
0
 10
42.500000000000107
 20
55.999999999999901
 30
0.0
 11
30.00000000000011
 21
56.000000000000071
 31
0.0
  0
LINE
  5
54
  8
1
 10
36.880000000000123
 20
24.999999999999972
 30
0.0
 11
36.880000000000123
 21
60.999999999999957
 31
0.0
  0
LINE
  5
55
  8
1
 10
36.249999999999957
 20
47.0
 30
0.0
 11
36.25
 21
59.0
 31
0.0
  0
TEXT
  5
14E
  8
0
 62
     3
 10
0.0
 20
0.0
 30
0.0
 40
5.0
  1
MBCS10
  7
STANDARD1
  0
LINE
  5
278
  8
1
 10
36.880000000000123
 20
98.749999999999915
 30
0.0
 11
36.880000000000123
 21
85.749999999999901
 31
0.0
  0
ENDSEC
  0
EOF
