  0
SECTION
  2
HEADER
  9
$ACADVER
  1
AC1009
  9
$INSBASE
 10
0.0
 20
0.0
 30
0.0
  9
$EXTMIN
 10
0.0
 20
-2.960436562073669
 30
0.0
  9
$EXTMAX
 10
541.04999999999995
 20
38.750000000000092
 30
0.0
  9
$LIMMIN
 10
0.0
 20
0.0
  9
$LIMMAX
 10
12.0
 20
9.0
  9
$ORTHOMODE
 70
     1
  9
$REGENMODE
 70
     1
  9
$FILLMODE
 70
     1
  9
$QTEXTMODE
 70
     0
  9
$MIRRTEXT
 70
     0
  9
$DRAGMODE
 70
     2
  9
$LTSCALE
 40
0.2
  9
$OSMODE
 70
  3071
  9
$ATTMODE
 70
     1
  9
$TEXTSIZE
 40
0.2
  9
$TRACEWID
 40
0.05
  9
$TEXTSTYLE
  7
STANDARD
  9
$CLAYER
  8
0
  9
$CELTYPE
  6
BYLAYER
  9
$CECOLOR
 62
   256
  9
$DIMSCALE
 40
1.0
  9
$DIMASZ
 40
1.0
  9
$DIMEXO
 40
2.54
  9
$DIMDLI
 40
0.38
  9
$DIMRND
 40
0.0
  9
$DIMDLE
 40
0.0
  9
$DIMEXE
 40
2.54
  9
$DIMTP
 40
0.0
  9
$DIMTM
 40
0.0
  9
$DIMTXT
 40
3.2000000000000002
  9
$DIMCEN
 40
0.09
  9
$DIMTSZ
 40
0.0
  9
$DIMTOL
 70
     0
  9
$DIMLIM
 70
     0
  9
$DIMTIH
 70
     0
  9
$DIMTOH
 70
     0
  9
$DIMSE1
 70
     0
  9
$DIMSE2
 70
     0
  9
$DIMTAD
 70
     1
  9
$DIMZIN
 70
     8
  9
$DIMBLK
  1

  9
$DIMASO
 70
     1
  9
$DIMSHO
 70
     0
  9
$DIMPOST
  1

  9
$DIMAPOST
  1

  9
$DIMALT
 70
     0
  9
$DIMALTD
 70
     2
  9
$DIMALTF
 40
25.399999999999999
  9
$DIMLFAC
 40
1.0
  9
$DIMTOFL
 70
     0
  9
$DIMTVP
 40
1.0
  9
$DIMTIX
 70
     0
  9
$DIMSOXD
 70
     0
  9
$DIMSAH
 70
     0
  9
$DIMBLK1
  1

  9
$DIMBLK2
  1

  9
$DIMSTYLE
  2
STANDARD
  9
$DIMCLRD
 70
     0
  9
$DIMCLRE
 70
     0
  9
$DIMCLRT
 70
     0
  9
$DIMTFAC
 40
1.0
  9
$DIMGAP
 40
1.6000000000000001
  9
$LUNITS
 70
     2
  9
$LUPREC
 70
     4
  9
$SKETCHINC
 40
0.1
  9
$FILLETRAD
 40
0.2
  9
$AUNITS
 70
     0
  9
$AUPREC
 70
     0
  9
$MENU
  1
.
  9
$ELEVATION
 40
0.0
  9
$PELEVATION
 40
0.0
  9
$THICKNESS
 40
0.0
  9
$LIMCHECK
 70
     0
  9
$BLIPMODE
 70
     0
  9
$CHAMFERA
 40
0.5
  9
$CHAMFERB
 40
0.5
  9
$SKPOLY
 70
     0
  9
$TDCREATE
 40
2453173.4709223039
  9
$TDUPDATE
 40
2456597.6346113081
  9
$TDINDWG
 40
1.133529537
  9
$TDUSRTIMER
 40
1.133529537
  9
$USRTIMER
 70
     1
  9
$ANGBASE
 50
0.0
  9
$ANGDIR
 70
     0
  9
$PDMODE
 70
     0
  9
$PDSIZE
 40
0.0
  9
$PLINEWID
 40
0.0
  9
$COORDS
 70
     1
  9
$SPLFRAME
 70
     0
  9
$SPLINETYPE
 70
     6
  9
$SPLINESEGS
 70
     8
  9
$ATTDIA
 70
     0
  9
$ATTREQ
 70
     1
  9
$HANDLING
 70
     1
  9
$HANDSEED
  5
3A7
  9
$SURFTAB1
 70
     6
  9
$SURFTAB2
 70
     6
  9
$SURFTYPE
 70
     6
  9
$SURFU
 70
     6
  9
$SURFV
 70
     6
  9
$UCSNAME
  2

  9
$UCSORG
 10
0.0
 20
0.0
 30
0.0
  9
$UCSXDIR
 10
1.0
 20
0.0
 30
0.0
  9
$UCSYDIR
 10
0.0
 20
1.0
 30
0.0
  9
$PUCSNAME
  2

  9
$PUCSORG
 10
0.0
 20
0.0
 30
0.0
  9
$PUCSXDIR
 10
1.0
 20
0.0
 30
0.0
  9
$PUCSYDIR
 10
0.0
 20
1.0
 30
0.0
  9
$USERI1
 70
     0
  9
$USERI2
 70
     0
  9
$USERI3
 70
     0
  9
$USERI4
 70
     0
  9
$USERI5
 70
     0
  9
$USERR1
 40
0.0
  9
$USERR2
 40
0.0
  9
$USERR3
 40
0.0
  9
$USERR4
 40
0.0
  9
$USERR5
 40
0.0
  9
$WORLDVIEW
 70
     1
  9
$SHADEDGE
 70
     3
  9
$SHADEDIF
 70
    70
  9
$TILEMODE
 70
     1
  9
$MAXACTVP
 70
    64
  9
$PLIMCHECK
 70
     0
  9
$PEXTMIN
 10
1.0000000000000000E+020
 20
1.0000000000000000E+020
 30
1.0000000000000000E+020
  9
$PEXTMAX
 10
-1.0000000000000000E+020
 20
-1.0000000000000000E+020
 30
-1.0000000000000000E+020
  9
$PLIMMIN
 10
0.0
 20
0.0
  9
$PLIMMAX
 10
12.0
 20
9.0
  9
$UNITMODE
 70
     0
  9
$VISRETAIN
 70
     1
  9
$PLINEGEN
 70
     0
  9
$PSLTSCALE
 70
     1
  0
ENDSEC
  0
SECTION
  2
TABLES
  0
TABLE
  2
VPORT
 70
     1
  0
VPORT
  2
*ACTIVE
 70
     0
 10
0.0
 20
0.0
 11
1.0
 21
1.0
 12
270.52500125973017
 22
18.398087001372708
 13
0.0
 23
0.0
 14
1.0
 24
1.0
 15
0.0
 25
0.0
 16
0.0
 26
0.0
 36
1.0
 17
0.0
 27
0.0
 37
0.0
 40
235.91769054165459
 41
2.304913294797688
 42
50.0
 43
0.0
 44
0.0
 50
0.0
 51
0.0
 71
     0
 72
   100
 73
     1
 74
     1
 75
     0
 76
     0
 77
     0
 78
     0
  0
ENDTAB
  0
TABLE
  2
LTYPE
 70
     4
  0
LTYPE
  2
CONTINUOUS
 70
     0
  3
Solid line
 72
    65
 73
     0
 40
0.0
  0
LTYPE
  2
CENTER
 70
     0
  3
Center ____ _ ____ _ ____ _ ____ _ ____ _ ____
 72
    65
 73
     4
 40
12.0
 49
7.5
 49
-1.5
 49
1.5
 49
-1.5
  0
LTYPE
  2
PHANTOM
 70
     0
  3
Phantom ______  __  __  ______  __  __  ______
 72
    65
 73
     6
 40
15.0
 49
7.5
 49
-1.5
 49
1.5
 49
-1.5
 49
1.5
 49
-1.5
  0
LTYPE
  2
PHANTOM2
 70
     0
  3
___ _ _ ___ _ _ ___ _ _ ___ _ _
 72
    65
 73
     6
 40
1.25
 49
0.625
 49
-0.125
 49
0.125
 49
-0.125
 49
0.125
 49
-0.125
  0
ENDTAB
  0
TABLE
  2
LAYER
 70
     4
  0
LAYER
  2
0
 70
     0
 62
     7
  6
CONTINUOUS
  0
LAYER
  2
1
 70
     0
 62
     1
  6
CENTER
  0
LAYER
  2
5
 70
     0
 62
     3
  6
PHANTOM
  0
LAYER
  2
DEFPOINTS
 70
     0
 62
     7
  6
CONTINUOUS
  0
ENDTAB
  0
TABLE
  2
STYLE
 70
     2
  0
STYLE
  2
STANDARD
 70
     0
 40
0.0
 41
1.0
 50
0.0
 71
     0
 42
0.2
  3
simplex.shx
  4
bigfont.shx
  0
STYLE
  2
STANDARD1
 70
     0
 40
0.0
 41
1.0
 50
0.0
 71
     0
 42
3.0
  3
txt
  4

  0
ENDTAB
  0
TABLE
  2
VIEW
 70
     0
  0
ENDTAB
  0
TABLE
  2
UCS
 70
     0
  0
ENDTAB
  0
TABLE
  2
APPID
 70
     6
  0
APPID
  2
ACAD
 70
     0
  0
APPID
  2
ACAD_EXEMPT_FROM_CAD_STANDARDS
 70
     0
  0
APPID
  2
ACAD_DSTYLE_DIMJAG
 70
     0
  0
APPID
  2
ACAD_DSTYLE_DIMTALN
 70
     0
  0
APPID
  2
ACAD_MLEADERVER
 70
     0
  0
APPID
  2
ACAD_NAV_VCDISPLAY
 70
     0
  0
ENDTAB
  0
TABLE
  2
DIMSTYLE
 70
     1
  0
DIMSTYLE
  2
STANDARD
 70
     0
  3

  4

  5

  6

  7

 40
1.0
 41
0.18
 42
0.0625
 43
0.38
 44
0.18
 45
0.0
 46
0.0
 47
0.0
 48
0.0
140
0.18
141
0.09
142
0.0
143
25.399999999999999
144
1.0
145
0.0
146
1.0
147
0.09
 71
     0
 72
     0
 73
     1
 74
     1
 75
     0
 76
     0
 77
     0
 78
     0
170
     0
171
     2
172
     0
173
     0
174
     0
175
     0
176
     0
177
     0
178
     0
  0
ENDTAB
  0
ENDSEC
  0
SECTION
  2
BLOCKS
  0
BLOCK
  8
0
  2
$MODEL_SPACE
 70
     0
 10
0.0
 20
0.0
 30
0.0
  3
$MODEL_SPACE
  1

  0
ENDBLK
  5
9
  8
0
  0
BLOCK
 67
     1
  8
0
  2
$PAPER_SPACE
 70
     0
 10
0.0
 20
0.0
 30
0.0
  3
$PAPER_SPACE
  1

  0
ENDBLK
  5
E
 67
     1
  8
0
  0
ENDSEC
  0
SECTION
  2
ENTITIES
  0
ARC
  5
27
  8
5
 10
23.15065014871459
 20
22.414293107851279
 30
0.0
 40
0.2
 50
357.00000000000011
 51
147.00000000006889
  0
LINE
  5
2A
  8
5
 10
22.97270789748876
 20
19.018952689685818
 30
0.0
 11
22.972707897488359
 21
19.018952689685761
 31
0.0
  0
LINE
  5
2B
  8
5
 10
22.723867782972871
 20
18.092264973081061
 30
0.0
 11
22.762514799289089
 21
18.82969397398341
 31
0.0
  0
LINE
  5
2C
  8
5
 10
23.350376055665489
 20
22.403825916602731
 30
0.0
 11
23.182900995688041
 21
19.208211405388109
 31
0.0
  0
LINE
  5
2D
  8
5
 10
22.223181609973889
 20
18.092264973081001
 30
0.0
 11
22.267623987475361
 21
18.940276052913589
 31
0.0
  0
LINE
  5
2E
  8
5
 10
22.176825887527428
 20
19.1184773577512
 30
0.0
 11
22.01694586669117
 21
19.222304657282791
 31
0.0
  0
LINE
  5
2F
  8
5
 10
22.982916035125498
 20
22.523220914854331
 30
0.0
 11
21.93657567990488
 21
19.454585417162381
 31
0.0
  0
ARC
  5
30
  8
5
 10
22.125873673694169
 20
19.390038770871911
 30
0.0
 40
0.2
 50
161.17170007220059
 51
237.0000000000002
  0
ARC
  5
31
  8
5
 10
22.067898080524461
 20
18.950743244162201
 30
0.0
 40
0.2
 50
356.99999999999898
 51
57.000000000007482
  0
ARC
  5
32
  8
5
 10
22.96224070624001
 20
18.819226782734798
 30
0.0
 40
0.2
 50
87.000000000065143
 51
176.9999999999992
  0
ARC
  5
33
  8
5
 10
22.983175088737131
 20
19.218678596636721
 30
0.0
 40
0.2
 50
267.00000000006509
 51
356.99999999999949
  0
ARC
  5
34
  8
0
 10
17.149999999999949
 20
22.450000000000038
 30
0.0
 40
0.2
 50
29.99999999993107
 51
180.0
  0
ARC
  5
35
  8
0
 10
17.149999999999991
 20
19.25000000000006
 30
0.0
 40
0.2
 50
180.00000000000051
 51
269.99999999993491
  0
ARC
  5
36
  8
0
 10
17.14999999999992
 20
18.850000000000019
 30
0.0
 40
0.2
 50
0.0000000000007703
 51
89.999999999934886
  0
ARC
  5
37
  8
0
 10
18.049999999999919
 20
18.934529946162112
 30
0.0
 40
0.2
 50
119.9999999999925
 51
180.00000000000111
  0
ARC
  5
38
  8
0
 10
18.015094811829329
 20
19.37625764172731
 30
0.0
 40
0.2
 50
299.99999999999977
 51
15.82829992779933
  0
LINE
  5
39
  8
0
 10
17.32320508075685
 20
22.550000000000072
 30
0.0
 11
18.207511489752989
 21
19.430808737562529
 31
0.0
  0
LINE
  5
3A
  8
0
 10
17.949999999999939
 20
19.107735026918991
 30
0.0
 11
18.115094811829319
 21
19.203052560970431
 31
0.0
  0
LINE
  5
3B
  8
0
 10
17.849999999999952
 20
17.25000000000006
 30
0.0
 11
17.84999999999992
 21
18.934529946162112
 31
0.0
  0
LINE
  5
3C
  8
0
 10
16.94999999999996
 20
22.450000000000038
 30
0.0
 11
16.949999999999989
 21
19.25000000000006
 31
0.0
  0
LINE
  5
3D
  8
0
 10
17.349999999999952
 20
16.450000000000038
 30
0.0
 11
17.34999999999992
 21
18.850000000000019
 31
0.0
  0
LINE
  5
3E
  8
0
 10
17.149999999999761
 20
19.050000000000072
 30
0.0
 11
17.150000000000151
 21
19.050000000000011
 31
0.0
  0
LINE
  5
4B
  8
0
 10
30.049999999999951
 20
22.650000000000048
 30
0.0
 11
30.049999999999969
 21
16.25000000000005
 31
0.0
  0
LINE
  5
4C
  8
0
 10
30.049999999999969
 20
19.050000000000011
 30
0.0
 11
538.04999999999995
 21
19.050000000000011
 31
0.0
  0
LINE
  5
4D
  8
0
 10
30.049999999999969
 20
22.650000000000091
 30
0.0
 11
538.04999999999995
 21
22.649999999999729
 31
0.0
  0
LINE
  5
4E
  8
0
 10
30.049999999999951
 20
16.25000000000005
 30
0.0
 11
538.04999999999995
 21
16.250000000000401
 31
0.0
  0
LINE
  5
51
  8
0
 10
30.049999999999951
 20
38.750000000000092
 30
0.0
 11
30.049999999999951
 21
32.650000000000063
 31
0.0
  0
LINE
  5
52
  8
0
 10
30.049999999999951
 20
38.376794919243032
 30
0.0
 11
538.04999999999995
 21
38.376794919243039
 31
0.0
  0
LINE
  5
53
  8
0
 10
30.049999999999951
 20
38.750000000000092
 30
0.0
 11
538.04999999999995
 21
38.750000000000092
 31
0.0
  0
LINE
  5
54
  8
0
 10
30.049999999999951
 20
33.023205080757023
 30
0.0
 11
538.04999999999995
 21
33.023205080757009
 31
0.0
  0
LINE
  5
55
  8
0
 10
30.049999999999951
 20
32.650000000000077
 30
0.0
 11
538.04999999999995
 21
32.650000000000063
 31
0.0
  0
LINE
  5
71
  8
0
 10
22.850000000000179
 20
19.050000000000072
 30
0.0
 11
22.849999999999799
 21
19.050000000000011
 31
0.0
  0
LINE
  5
72
  8
0
 10
22.649999999999991
 20
16.450000000000038
 30
0.0
 11
22.65000000000002
 21
18.850000000000019
 31
0.0
  0
LINE
  5
73
  8
0
 10
23.049999999999979
 20
22.450000000000038
 30
0.0
 11
23.049999999999962
 21
19.25000000000006
 31
0.0
  0
LINE
  5
74
  8
0
 10
22.149999999999991
 20
17.25000000000006
 30
0.0
 11
22.15000000000002
 21
18.934529946162112
 31
0.0
  0
ARC
  5
75
  8
0
 10
22.850000000000001
 20
22.450000000000038
 30
0.0
 40
0.2
 50
0.000000000000007
 51
150.00000000006889
  0
ARC
  5
76
  8
0
 10
21.949999999999989
 20
17.25000000000006
 30
0.0
 40
0.2
 50
270.0
 51
359.99999999999898
  0
ARC
  5
77
  8
0
 10
22.449999999999989
 20
16.450000000000038
 30
0.0
 40
0.2
 50
269.99999999999949
 51
359.99999999999932
  0
LINE
  5
78
  8
0
 10
22.050000000000001
 20
19.107735026918991
 30
0.0
 11
21.88490518817062
 21
19.203052560970431
 31
0.0
  0
LINE
  5
79
  8
0
 10
22.67679491924309
 20
22.550000000000072
 30
0.0
 11
21.792488510246951
 21
19.430808737562529
 31
0.0
  0
ARC
  5
7A
  8
0
 10
21.984905188170611
 20
19.37625764172731
 30
0.0
 40
0.2
 50
164.17170007220071
 51
240.0000000000002
  0
ARC
  5
7B
  8
0
 10
21.950000000000021
 20
18.934529946162112
 30
0.0
 40
0.2
 50
359.99999999999892
 51
60.000000000007461
  0
ARC
  5
7C
  8
0
 10
22.850000000000019
 20
18.850000000000019
 30
0.0
 40
0.2
 50
90.000000000065128
 51
179.9999999999992
  0
ARC
  5
7D
  8
0
 10
22.849999999999952
 20
19.25000000000006
 30
0.0
 40
0.2
 50
270.0000000000652
 51
359.99999999999949
  0
ARC
  5
7E
  8
5
 10
17.016824911262809
 20
19.218678596636721
 30
0.0
 40
0.2
 50
183.00000000000051
 51
272.9999999999348
  0
ARC
  5
7F
  8
5
 10
17.03775929375993
 20
18.819226782734798
 30
0.0
 40
0.2
 50
3.0000000000007629
 51
92.999999999934857
  0
ARC
  5
80
  8
5
 10
17.932101919475478
 20
18.950743244162201
 30
0.0
 40
0.2
 50
122.9999999999925
 51
183.00000000000099
  0
ARC
  5
81
  8
5
 10
17.87412632630577
 20
19.390038770871911
 30
0.0
 40
0.2
 50
302.99999999999977
 51
18.828299927799311
  0
LINE
  5
82
  8
5
 10
17.017083964874441
 20
22.523220914854331
 30
0.0
 11
18.063424320095059
 21
19.454585417162381
 31
0.0
  0
LINE
  5
83
  8
5
 10
17.823174112472511
 20
19.1184773577512
 30
0.0
 11
17.983054133308769
 21
19.222304657282791
 31
0.0
  0
ARC
  5
84
  8
0
 10
17.549999999999979
 20
16.450000000000038
 30
0.0
 40
0.2
 50
180.00000000000071
 51
270.00000000000051
  0
ARC
  5
85
  8
0
 10
18.049999999999979
 20
17.25000000000006
 30
0.0
 40
0.2
 50
180.00000000000091
 51
270.0
  0
ARC
  5
86
  8
5
 10
16.84934985128535
 20
22.414293107851279
 30
0.0
 40
0.2
 50
32.999999999931049
 51
183.0
  0
LINE
  5
87
  8
5
 10
17.776818390026051
 20
18.092264973081001
 30
0.0
 11
17.732376012524579
 21
18.940276052913589
 31
0.0
  0
LINE
  5
88
  8
0
 10
18.049999999999979
 20
17.050000000000072
 30
0.0
 11
21.949999999999989
 21
17.050000000000072
 31
0.0
  0
LINE
  5
89
  8
5
 10
16.649623944334451
 20
22.403825916602731
 30
0.0
 11
16.817099004311899
 21
19.208211405388109
 31
0.0
  0
LINE
  5
8A
  8
5
 10
17.276132217027069
 20
18.092264973081061
 30
0.0
 11
17.23748520071085
 21
18.82969397398341
 31
0.0
  0
LINE
  5
8B
  8
5
 10
17.027292102511179
 20
19.018952689685818
 30
0.0
 11
17.027292102511581
 21
19.018952689685761
 31
0.0
  0
LINE
  5
A2
  8
1
 10
541.04999999999995
 20
35.700000000000053
 30
0.0
 11
27.049999999999962
 21
35.700000000000017
 31
0.0
  0
LINE
  5
A5
  8
0
 10
17.549999999999979
 20
16.25000000000006
 30
0.0
 11
22.449999999999989
 21
16.25000000000006
 31
0.0
  0
LINE
  5
A6
  8
1
 10
20.0
 20
13.250000000000069
 30
0.0
 11
19.999999999999972
 21
25.65000000000007
 31
0.0
  0
LINE
  5
19A
  8
0
 10
30.049999999999951
 20
37.484905188170657
 30
0.0
 11
538.04999999999995
 21
37.484905188170671
 31
0.0
  0
LINE
  5
19B
  8
0
 10
30.049999999999951
 20
33.915094811829377
 30
0.0
 11
538.04999999999995
 21
33.915094811829377
 31
0.0
  0
LINE
  5
1B4
  8
0
 10
538.04999999999995
 20
22.650000000000158
 30
0.0
 11
538.04999999999995
 21
16.25000000000016
 31
0.0
  0
LINE
  5
1B5
  8
0
 10
538.04999999999995
 20
38.750000000000078
 30
0.0
 11
538.04999999999995
 21
32.650000000000063
 31
0.0
  0
TEXT
  5
345
  8
0
 62
     3
 10
0.0
 20
0.0
 30
0.0
 40
10.0
  1
MBDE02LB
  7
STANDARD1
  0
ENDSEC
  0
EOF
