  0
SECTION
  2
HEADER
  9
$ACADVER
  1
AC1009
  9
$INSBASE
 10
0.0
 20
0.0
 30
0.0
  9
$EXTMIN
 10
0.0
 20
-2.960436562073669
 30
0.0
  9
$EXTMAX
 10
562.14999850000015
 20
63.205516290398322
 30
0.0
  9
$LIMMIN
 10
0.0
 20
0.0
  9
$LIMMAX
 10
12.0
 20
9.0
  9
$ORTHOMODE
 70
     1
  9
$REGENMODE
 70
     1
  9
$FILLMODE
 70
     1
  9
$QTEXTMODE
 70
     0
  9
$MIRRTEXT
 70
     0
  9
$DRAGMODE
 70
     2
  9
$LTSCALE
 40
0.3
  9
$OSMODE
 70
  3071
  9
$ATTMODE
 70
     1
  9
$TEXTSIZE
 40
0.2
  9
$TRACEWID
 40
0.05
  9
$TEXTSTYLE
  7
STANDARD
  9
$CLAYER
  8
0
  9
$CELTYPE
  6
BYLAYER
  9
$CECOLOR
 62
   256
  9
$DIMSCALE
 40
1.0
  9
$DIMASZ
 40
1.0
  9
$DIMEXO
 40
2.54
  9
$DIMDLI
 40
0.38
  9
$DIMRND
 40
0.0
  9
$DIMDLE
 40
0.0
  9
$DIMEXE
 40
2.54
  9
$DIMTP
 40
0.0
  9
$DIMTM
 40
0.0
  9
$DIMTXT
 40
3.2000000000000002
  9
$DIMCEN
 40
0.09
  9
$DIMTSZ
 40
0.0
  9
$DIMTOL
 70
     0
  9
$DIMLIM
 70
     0
  9
$DIMTIH
 70
     0
  9
$DIMTOH
 70
     0
  9
$DIMSE1
 70
     0
  9
$DIMSE2
 70
     0
  9
$DIMTAD
 70
     1
  9
$DIMZIN
 70
     8
  9
$DIMBLK
  1

  9
$DIMASO
 70
     1
  9
$DIMSHO
 70
     0
  9
$DIMPOST
  1

  9
$DIMAPOST
  1

  9
$DIMALT
 70
     0
  9
$DIMALTD
 70
     2
  9
$DIMALTF
 40
25.399999999999999
  9
$DIMLFAC
 40
1.0
  9
$DIMTOFL
 70
     0
  9
$DIMTVP
 40
1.0
  9
$DIMTIX
 70
     0
  9
$DIMSOXD
 70
     0
  9
$DIMSAH
 70
     0
  9
$DIMBLK1
  1

  9
$DIMBLK2
  1

  9
$DIMSTYLE
  2
STANDARD
  9
$DIMCLRD
 70
     0
  9
$DIMCLRE
 70
     0
  9
$DIMCLRT
 70
     0
  9
$DIMTFAC
 40
1.0
  9
$DIMGAP
 40
1.6000000000000001
  9
$LUNITS
 70
     2
  9
$LUPREC
 70
     4
  9
$SKETCHINC
 40
0.1
  9
$FILLETRAD
 40
0.2
  9
$AUNITS
 70
     0
  9
$AUPREC
 70
     0
  9
$MENU
  1
.
  9
$ELEVATION
 40
0.0
  9
$PELEVATION
 40
0.0
  9
$THICKNESS
 40
0.0
  9
$LIMCHECK
 70
     0
  9
$BLIPMODE
 70
     0
  9
$CHAMFERA
 40
0.5
  9
$CHAMFERB
 40
0.5
  9
$SKPOLY
 70
     0
  9
$TDCREATE
 40
2453173.4709223039
  9
$TDUPDATE
 40
2456597.6346495831
  9
$TDINDWG
 40
1.2038127545999999
  9
$TDUSRTIMER
 40
1.2038127545999999
  9
$USRTIMER
 70
     1
  9
$ANGBASE
 50
0.0
  9
$ANGDIR
 70
     0
  9
$PDMODE
 70
     0
  9
$PDSIZE
 40
0.0
  9
$PLINEWID
 40
0.0
  9
$COORDS
 70
     1
  9
$SPLFRAME
 70
     0
  9
$SPLINETYPE
 70
     6
  9
$SPLINESEGS
 70
     8
  9
$ATTDIA
 70
     0
  9
$ATTREQ
 70
     1
  9
$HANDLING
 70
     1
  9
$HANDSEED
  5
39C
  9
$SURFTAB1
 70
     6
  9
$SURFTAB2
 70
     6
  9
$SURFTYPE
 70
     6
  9
$SURFU
 70
     6
  9
$SURFV
 70
     6
  9
$UCSNAME
  2

  9
$UCSORG
 10
0.0
 20
0.0
 30
0.0
  9
$UCSXDIR
 10
1.0
 20
0.0
 30
0.0
  9
$UCSYDIR
 10
0.0
 20
1.0
 30
0.0
  9
$PUCSNAME
  2

  9
$PUCSORG
 10
0.0
 20
0.0
 30
0.0
  9
$PUCSXDIR
 10
1.0
 20
0.0
 30
0.0
  9
$PUCSYDIR
 10
0.0
 20
1.0
 30
0.0
  9
$USERI1
 70
     0
  9
$USERI2
 70
     0
  9
$USERI3
 70
     0
  9
$USERI4
 70
     0
  9
$USERI5
 70
     0
  9
$USERR1
 40
0.0
  9
$USERR2
 40
0.0
  9
$USERR3
 40
0.0
  9
$USERR4
 40
0.0
  9
$USERR5
 40
0.0
  9
$WORLDVIEW
 70
     1
  9
$SHADEDGE
 70
     3
  9
$SHADEDIF
 70
    70
  9
$TILEMODE
 70
     1
  9
$MAXACTVP
 70
    64
  9
$PLIMCHECK
 70
     0
  9
$PEXTMIN
 10
1.0000000000000000E+020
 20
1.0000000000000000E+020
 30
1.0000000000000000E+020
  9
$PEXTMAX
 10
-1.0000000000000000E+020
 20
-1.0000000000000000E+020
 30
-1.0000000000000000E+020
  9
$PLIMMIN
 10
0.0
 20
0.0
  9
$PLIMMAX
 10
12.0
 20
9.0
  9
$UNITMODE
 70
     0
  9
$VISRETAIN
 70
     1
  9
$PLINEGEN
 70
     0
  9
$PSLTSCALE
 70
     1
  0
ENDSEC
  0
SECTION
  2
TABLES
  0
TABLE
  2
VPORT
 70
     1
  0
VPORT
  2
*ACTIVE
 70
     0
 10
0.0
 20
0.0
 11
1.0
 21
1.0
 12
281.07500055885748
 22
30.644710508193661
 13
0.0
 23
0.0
 14
1.0
 24
1.0
 15
0.0
 25
0.0
 16
0.0
 26
0.0
 36
1.0
 17
0.0
 27
0.0
 37
0.0
 40
245.11806558379931
 41
2.304913294797688
 42
50.0
 43
0.0
 44
0.0
 50
0.0
 51
0.0
 71
     0
 72
   100
 73
     1
 74
     1
 75
     0
 76
     0
 77
     0
 78
     0
  0
ENDTAB
  0
TABLE
  2
LTYPE
 70
     4
  0
LTYPE
  2
CONTINUOUS
 70
     0
  3
Solid line
 72
    65
 73
     0
 40
0.0
  0
LTYPE
  2
CENTER
 70
     0
  3
Center ____ _ ____ _ ____ _ ____ _ ____ _ ____
 72
    65
 73
     4
 40
12.0
 49
7.5
 49
-1.5
 49
1.5
 49
-1.5
  0
LTYPE
  2
PHANTOM
 70
     0
  3
Phantom ______  __  __  ______  __  __  ______
 72
    65
 73
     6
 40
15.0
 49
7.5
 49
-1.5
 49
1.5
 49
-1.5
 49
1.5
 49
-1.5
  0
LTYPE
  2
PHANTOM2
 70
     0
  3
___ _ _ ___ _ _ ___ _ _ ___ _ _
 72
    65
 73
     6
 40
1.25
 49
0.625
 49
-0.125
 49
0.125
 49
-0.125
 49
0.125
 49
-0.125
  0
ENDTAB
  0
TABLE
  2
LAYER
 70
     4
  0
LAYER
  2
0
 70
     0
 62
     7
  6
CONTINUOUS
  0
LAYER
  2
1
 70
     0
 62
     1
  6
CENTER
  0
LAYER
  2
5
 70
     0
 62
     3
  6
PHANTOM
  0
LAYER
  2
DEFPOINTS
 70
     0
 62
     7
  6
CONTINUOUS
  0
ENDTAB
  0
TABLE
  2
STYLE
 70
     2
  0
STYLE
  2
STANDARD
 70
     0
 40
0.0
 41
1.0
 50
0.0
 71
     0
 42
0.2
  3
simplex.shx
  4
bigfont.shx
  0
STYLE
  2
STANDARD1
 70
     0
 40
0.0
 41
1.0
 50
0.0
 71
     0
 42
3.0
  3
txt
  4

  0
ENDTAB
  0
TABLE
  2
VIEW
 70
     0
  0
ENDTAB
  0
TABLE
  2
UCS
 70
     0
  0
ENDTAB
  0
TABLE
  2
APPID
 70
     6
  0
APPID
  2
ACAD
 70
     0
  0
APPID
  2
ACAD_DSTYLE_DIMJAG
 70
     0
  0
APPID
  2
ACAD_DSTYLE_DIMTALN
 70
     0
  0
APPID
  2
ACAD_EXEMPT_FROM_CAD_STANDARDS
 70
     0
  0
APPID
  2
ACAD_MLEADERVER
 70
     0
  0
APPID
  2
ACAD_NAV_VCDISPLAY
 70
     0
  0
ENDTAB
  0
TABLE
  2
DIMSTYLE
 70
     1
  0
DIMSTYLE
  2
STANDARD
 70
     0
  3

  4

  5

  6

  7

 40
1.0
 41
0.18
 42
0.0625
 43
0.38
 44
0.18
 45
0.0
 46
0.0
 47
0.0
 48
0.0
140
0.18
141
0.09
142
0.0
143
25.399999999999999
144
1.0
145
0.0
146
1.0
147
0.09
 71
     0
 72
     0
 73
     1
 74
     1
 75
     0
 76
     0
 77
     0
 78
     0
170
     0
171
     2
172
     0
173
     0
174
     0
175
     0
176
     0
177
     0
178
     0
  0
ENDTAB
  0
ENDSEC
  0
SECTION
  2
BLOCKS
  0
BLOCK
  8
0
  2
$MODEL_SPACE
 70
     0
 10
0.0
 20
0.0
 30
0.0
  3
$MODEL_SPACE
  1

  0
ENDBLK
  5
9
  8
0
  0
BLOCK
 67
     1
  8
0
  2
$PAPER_SPACE
 70
     0
 10
0.0
 20
0.0
 30
0.0
  3
$PAPER_SPACE
  1

  0
ENDBLK
  5
E
 67
     1
  8
0
  0
ENDSEC
  0
SECTION
  2
ENTITIES
  0
LINE
  5
36
  8
0
 10
51.149998500000081
 20
35.305516725398263
 30
0.0
 11
559.14999850000015
 21
35.305516725398263
 31
0.0
  0
LINE
  5
37
  8
5
 10
25.66133596527331
 20
35.118102956509347
 30
0.0
 11
25.75800928386013
 21
32.711147473254933
 31
0.0
  0
ARC
  5
3A
  8
0
 10
26.20000079999997
 20
35.105516055398262
 30
0.0
 40
0.30000085
 50
107.7205399999995
 51
179.9999799999996
  0
ARC
  5
3C
  8
5
 10
25.961093584371561
 20
35.130142466176842
 30
0.0
 40
0.30000085
 50
110.0205399999996
 51
182.29997999999961
  0
ARC
  5
3D
  8
0
 10
25.97172159999997
 20
35.819932055398283
 30
0.0
 40
0.4500006700000001
 50
287.72026999999957
 51
21.999833999999542
  0
LINE
  5
3E
  8
0
 10
24.428157056172012
 20
40.717897099853303
 30
0.0
 11
26.388955444164619
 21
35.988504064593258
 31
0.0
  0
ARC
  5
3F
  8
5
 10
25.704327492516398
 20
35.834821675663022
 30
0.0
 40
0.4500006700000001
 50
290.02026999999958
 51
24.299833999999599
  0
ARC
  5
40
  8
0
 10
24.499999959999968
 20
35.005517485398229
 30
0.0
 40
0.29999924
 50
0.000000000000007
 51
89.999982000000003
  0
LINE
  5
41
  8
5
 10
24.566232954365091
 20
34.974039881756937
 30
0.0
 11
24.662906272951918
 21
32.567084398502459
 31
0.0
  0
ARC
  5
42
  8
0
 10
24.299998499999958
 20
35.755517485398229
 30
0.0
 40
0.45000076
 50
179.9999799999996
 51
270.0000200000004
  0
LINE
  5
43
  8
0
 10
24.499999959999968
 20
35.30551672539832
 30
0.0
 11
24.299998499999958
 21
35.305516725398263
 31
0.0
  0
ARC
  5
44
  8
5
 10
24.036536212972369
 20
35.703369753734187
 30
0.0
 40
0.45000076
 50
182.29997999999961
 51
272.30002000000042
  0
ARC
  5
45
  8
5
 10
24.266475395218489
 20
34.962000374497343
 30
0.0
 40
0.29999924
 50
2.300000000000042
 51
92.299982000000014
  0
LINE
  5
46
  8
5
 10
24.254435887958891
 20
35.261757933643992
 30
0.0
 11
24.054595550112179
 21
35.253731516544967
 31
0.0
  0
ARC
  5
47
  8
0
 10
24.15000079999999
 20
40.605516055398247
 30
0.0
 40
0.30000067
 50
21.999756000000399
 51
179.9999799999996
  0
LINE
  5
48
  8
5
 10
23.9654423348303
 20
40.666894883515447
 30
0.0
 11
26.114460114157939
 21
36.020002224495393
 31
0.0
  0
ARC
  5
49
  8
5
 10
23.692020215457891
 20
40.543441464614538
 30
0.0
 40
0.30000067
 50
24.29975600000046
 51
182.29997999999961
  0
LINE
  5
4A
  8
0
 10
23.850000130000002
 20
40.60551616011827
 30
0.0
 11
23.849997739999989
 21
35.755517642478203
 31
0.0
  0
LINE
  5
4B
  8
5
 10
23.392261223260721
 20
40.531402004602107
 30
0.0
 11
23.586897969479249
 21
35.685310573547731
 31
0.0
  0
ARC
  5
4C
  8
0
 10
24.15000079999999
 20
40.605516055398247
 30
0.0
 40
0.30000067
 50
21.999756000000399
 51
179.9999799999996
  0
LINE
  5
4D
  8
5
 10
35.433767045634909
 20
34.974039881756937
 30
0.0
 11
35.337093727048092
 21
32.567084398502459
 31
0.0
  0
LINE
  5
4E
  8
5
 10
35.745564112041109
 20
35.261757933643992
 30
0.0
 11
35.945404449887818
 21
35.253731516544967
 31
0.0
  0
ARC
  5
4F
  8
5
 10
35.733524604781508
 20
34.962000374497343
 30
0.0
 40
0.29999924
 50
87.700017999999986
 51
177.6999999999999
  0
ARC
  5
50
  8
5
 10
35.963463787027642
 20
35.703369753734187
 30
0.0
 40
0.45000076
 50
267.69997999999958
 51
357.70002000000039
  0
ARC
  5
51
  8
0
 10
35.849999200000013
 20
40.605516055398247
 30
0.0
 40
0.30000067
 50
0.0000200000003914
 51
158.00024399999961
  0
LINE
  5
52
  8
5
 10
36.607738776739282
 20
40.531402004602107
 30
0.0
 11
36.413102030520747
 21
35.685310573547731
 31
0.0
  0
LINE
  5
53
  8
0
 10
36.149999870000002
 20
40.60551616011827
 30
0.0
 11
36.150002260000008
 21
35.755517642478203
 31
0.0
  0
LINE
  5
54
  8
0
 10
35.500000040000032
 20
35.30551672539832
 30
0.0
 11
35.700001500000042
 21
35.305516725398263
 31
0.0
  0
LINE
  5
5E
  8
0
 10
51.149998500000102
 20
63.2055162903983
 30
0.0
 11
51.149998500000102
 21
50.905516725398272
 31
0.0
  0
LINE
  5
5F
  8
0
 10
51.149998500000102
 20
62.627358169226319
 30
0.0
 11
559.14999850000015
 21
62.627358169226319
 31
0.0
  0
LINE
  5
60
  8
0
 10
51.149998500000102
 20
51.483672281570627
 30
0.0
 11
559.14999850000015
 21
51.483672281570712
 31
0.0
  0
LINE
  5
61
  8
0
 10
51.149998500000102
 20
63.205516290398322
 30
0.0
 11
559.14999850000015
 21
63.2055162903983
 31
0.0
  0
LINE
  5
62
  8
0
 10
51.149998500000102
 20
50.905516725398272
 30
0.0
 11
559.14999850000015
 21
50.905516725398343
 31
0.0
  0
LINE
  5
6F
  8
0
 10
51.149998500000081
 20
40.905516725398272
 30
0.0
 11
559.14999850000015
 21
40.905516725398279
 31
0.0
  0
LINE
  5
70
  8
0
 10
51.149998500000109
 20
40.905516725398257
 30
0.0
 11
51.149998500000102
 21
28.20551672539823
 31
0.0
  0
LINE
  5
71
  8
0
 10
51.149998500000102
 20
28.20551672539823
 30
0.0
 11
559.14999850000015
 21
28.20551672539824
 31
0.0
  0
ARC
  5
73
  8
5
 10
36.307979784542113
 20
40.543441464614538
 30
0.0
 40
0.30000067
 50
357.70002000000039
 51
155.70024399999949
  0
LINE
  5
74
  8
5
 10
36.0345576651697
 20
40.666894883515447
 30
0.0
 11
33.885539885842057
 21
36.020002224495393
 31
0.0
  0
ARC
  5
75
  8
5
 10
34.295672507483602
 20
35.834821675663022
 30
0.0
 40
0.4500006700000001
 50
155.70016600000039
 51
249.97973000000039
  0
ARC
  5
76
  8
5
 10
34.038906415628453
 20
35.130142466176842
 30
0.0
 40
0.30000085
 50
357.70002000000039
 51
69.979460000000415
  0
LINE
  5
77
  8
5
 10
34.33866403472669
 20
35.118102956509347
 30
0.0
 11
34.241990716139867
 21
32.711147473254933
 31
0.0
  0
ARC
  5
7E
  8
0
 10
25.199999200000018
 20
28.605516725398271
 30
0.0
 40
0.4
 50
180.0
 51
270.0
  0
ARC
  5
7F
  8
0
 10
34.800000799999992
 20
28.605516725398271
 30
0.0
 40
0.4
 50
270.0
 51
0.0
  0
ARC
  5
80
  8
0
 10
35.849999200000013
 20
40.605516055398247
 30
0.0
 40
0.30000067
 50
0.0000200000003914
 51
158.00024399999961
  0
LINE
  5
81
  8
0
 10
35.571842943827988
 20
40.717897099853303
 30
0.0
 11
33.611044555835377
 21
35.988504064593258
 31
0.0
  0
ARC
  5
82
  8
0
 10
34.02827840000004
 20
35.819932055398283
 30
0.0
 40
0.4500006700000001
 50
158.00016600000041
 51
252.2797300000004
  0
ARC
  5
83
  8
0
 10
35.700001500000042
 20
35.755517485398229
 30
0.0
 40
0.45000076
 50
269.9999799999996
 51
0.0000200000003914
  0
ARC
  5
84
  8
0
 10
35.500000040000032
 20
35.005517485398229
 30
0.0
 40
0.29999924
 50
90.000018000000011
 51
180.0
  0
ARC
  5
85
  8
0
 10
33.79999920000003
 20
35.105516055398262
 30
0.0
 40
0.30000085
 50
0.0000200000003914
 51
72.279460000000455
  0
LINE
  5
95
  8
1
 10
30.0
 20
25.20551672539824
 30
0.0
 11
30.0
 21
43.905516725398279
 31
0.0
  0
LINE
  5
96
  8
0
 10
25.199999200000018
 20
28.205516725398301
 30
0.0
 11
34.800000799999992
 21
28.205516725398301
 31
0.0
  0
LINE
  5
97
  8
0
 10
35.200000799999991
 20
35.005517485398229
 30
0.0
 11
35.200000800000012
 21
28.605516725398271
 31
0.0
  0
LINE
  5
98
  8
0
 10
24.799999199999998
 20
35.005517485398229
 30
0.0
 11
24.799999199999998
 21
28.605516725398271
 31
0.0
  0
LINE
  5
99
  8
0
 10
26.299999199999998
 20
29.900005800000031
 30
0.0
 11
33.700000799999998
 21
29.900005800000031
 31
0.0
  0
LINE
  5
9A
  8
0
 10
25.900001499999998
 20
35.10648042060393
 30
0.0
 11
25.900001499999998
 21
30.298253072323568
 31
0.0
  0
LINE
  5
9B
  8
0
 10
34.099998499999998
 20
35.105516055398262
 30
0.0
 11
34.099998499999998
 21
30.298253072321991
 31
0.0
  0
LINE
  5
9F
  8
1
 10
48.149998500000109
 20
57.055515225398338
 30
0.0
 11
562.14999850000015
 21
57.055515225398338
 31
0.0
  0
ARC
  5
A1
  8
0
 10
33.700000799999998
 20
30.300003499999999
 30
0.0
 40
0.4000015300000001
 50
270.0000200000004
 51
0.0
  0
ARC
  5
A2
  8
0
 10
26.299999199999998
 20
30.300003499999999
 30
0.0
 40
0.4000015300000001
 50
179.9999799999996
 51
270.0000200000004
  0
LINE
  5
1A4
  8
0
 10
559.14999850000015
 20
40.905516725398229
 30
0.0
 11
559.14999850000015
 21
28.205516725398208
 31
0.0
  0
LINE
  5
1A5
  8
0
 10
559.14999850000015
 20
63.2055162903983
 30
0.0
 11
559.14999850000015
 21
50.905516725398257
 31
0.0
  0
LINE
  5
1A8
  8
0
 10
51.149998500000102
 20
60.633792955398377
 30
0.0
 11
559.14999850000015
 21
60.633792955398363
 31
0.0
  0
LINE
  5
1A9
  8
0
 10
51.149998500000102
 20
53.477237495398313
 30
0.0
 11
559.14999850000015
 21
53.477237495398299
 31
0.0
  0
TEXT
  5
33A
  8
0
 62
     3
 10
0.0
 20
0.0
 30
0.0
 40
10.0
  1
MBDE04LB
  7
STANDARD1
  0
ENDSEC
  0
EOF
