  0
SECTION
  2
HEADER
  9
$ACADVER
  1
AC1009
  9
$INSBASE
 10
0.0
 20
0.0
 30
0.0
  9
$EXTMIN
 10
0.0
 20
-2.960436562073669
 30
0.0
  9
$EXTMAX
 10
600.30000149999978
 20
95.000002550000787
 30
0.0
  9
$LIMMIN
 10
0.0
 20
0.0
  9
$LIMMAX
 10
12.0
 20
9.0
  9
$ORTHOMODE
 70
     1
  9
$REGENMODE
 70
     1
  9
$FILLMODE
 70
     1
  9
$QTEXTMODE
 70
     0
  9
$MIRRTEXT
 70
     0
  9
$DRAGMODE
 70
     2
  9
$LTSCALE
 40
0.5
  9
$OSMODE
 70
  3071
  9
$ATTMODE
 70
     1
  9
$TEXTSIZE
 40
0.2
  9
$TRACEWID
 40
0.05
  9
$TEXTSTYLE
  7
STANDARD
  9
$CLAYER
  8
0
  9
$CELTYPE
  6
BYLAYER
  9
$CECOLOR
 62
   256
  9
$DIMSCALE
 40
1.0
  9
$DIMASZ
 40
1.0
  9
$DIMEXO
 40
2.54
  9
$DIMDLI
 40
0.38
  9
$DIMRND
 40
0.0
  9
$DIMDLE
 40
0.0
  9
$DIMEXE
 40
2.54
  9
$DIMTP
 40
0.0
  9
$DIMTM
 40
0.0
  9
$DIMTXT
 40
3.2000000000000002
  9
$DIMCEN
 40
0.09
  9
$DIMTSZ
 40
0.0
  9
$DIMTOL
 70
     0
  9
$DIMLIM
 70
     0
  9
$DIMTIH
 70
     0
  9
$DIMTOH
 70
     0
  9
$DIMSE1
 70
     0
  9
$DIMSE2
 70
     0
  9
$DIMTAD
 70
     1
  9
$DIMZIN
 70
     8
  9
$DIMBLK
  1

  9
$DIMASO
 70
     1
  9
$DIMSHO
 70
     0
  9
$DIMPOST
  1

  9
$DIMAPOST
  1

  9
$DIMALT
 70
     0
  9
$DIMALTD
 70
     2
  9
$DIMALTF
 40
25.399999999999999
  9
$DIMLFAC
 40
1.0
  9
$DIMTOFL
 70
     0
  9
$DIMTVP
 40
1.0
  9
$DIMTIX
 70
     0
  9
$DIMSOXD
 70
     0
  9
$DIMSAH
 70
     0
  9
$DIMBLK1
  1

  9
$DIMBLK2
  1

  9
$DIMSTYLE
  2
STANDARD
  9
$DIMCLRD
 70
     0
  9
$DIMCLRE
 70
     0
  9
$DIMCLRT
 70
     0
  9
$DIMTFAC
 40
1.0
  9
$DIMGAP
 40
1.6000000000000001
  9
$LUNITS
 70
     2
  9
$LUPREC
 70
     4
  9
$SKETCHINC
 40
0.1
  9
$FILLETRAD
 40
0.2
  9
$AUNITS
 70
     0
  9
$AUPREC
 70
     0
  9
$MENU
  1
.
  9
$ELEVATION
 40
0.0
  9
$PELEVATION
 40
0.0
  9
$THICKNESS
 40
0.0
  9
$LIMCHECK
 70
     0
  9
$BLIPMODE
 70
     0
  9
$CHAMFERA
 40
0.5
  9
$CHAMFERB
 40
0.5
  9
$SKPOLY
 70
     0
  9
$TDCREATE
 40
2453173.4709223039
  9
$TDUPDATE
 40
2456597.6346815391
  9
$TDINDWG
 40
1.2332130670999999
  9
$TDUSRTIMER
 40
1.2332130670999999
  9
$USRTIMER
 70
     1
  9
$ANGBASE
 50
0.0
  9
$ANGDIR
 70
     0
  9
$PDMODE
 70
     0
  9
$PDSIZE
 40
0.0
  9
$PLINEWID
 40
0.0
  9
$COORDS
 70
     1
  9
$SPLFRAME
 70
     0
  9
$SPLINETYPE
 70
     6
  9
$SPLINESEGS
 70
     8
  9
$ATTDIA
 70
     0
  9
$ATTREQ
 70
     1
  9
$HANDLING
 70
     1
  9
$HANDSEED
  5
418
  9
$SURFTAB1
 70
     6
  9
$SURFTAB2
 70
     6
  9
$SURFTYPE
 70
     6
  9
$SURFU
 70
     6
  9
$SURFV
 70
     6
  9
$UCSNAME
  2

  9
$UCSORG
 10
0.0
 20
0.0
 30
0.0
  9
$UCSXDIR
 10
1.0
 20
0.0
 30
0.0
  9
$UCSYDIR
 10
0.0
 20
1.0
 30
0.0
  9
$PUCSNAME
  2

  9
$PUCSORG
 10
0.0
 20
0.0
 30
0.0
  9
$PUCSXDIR
 10
1.0
 20
0.0
 30
0.0
  9
$PUCSYDIR
 10
0.0
 20
1.0
 30
0.0
  9
$USERI1
 70
     0
  9
$USERI2
 70
     0
  9
$USERI3
 70
     0
  9
$USERI4
 70
     0
  9
$USERI5
 70
     0
  9
$USERR1
 40
0.0
  9
$USERR2
 40
0.0
  9
$USERR3
 40
0.0
  9
$USERR4
 40
0.0
  9
$USERR5
 40
0.0
  9
$WORLDVIEW
 70
     1
  9
$SHADEDGE
 70
     3
  9
$SHADEDIF
 70
    70
  9
$TILEMODE
 70
     1
  9
$MAXACTVP
 70
    64
  9
$PLIMCHECK
 70
     0
  9
$PEXTMIN
 10
1.0000000000000000E+020
 20
1.0000000000000000E+020
 30
1.0000000000000000E+020
  9
$PEXTMAX
 10
-1.0000000000000000E+020
 20
-1.0000000000000000E+020
 30
-1.0000000000000000E+020
  9
$PLIMMIN
 10
0.0
 20
0.0
  9
$PLIMMAX
 10
12.0
 20
9.0
  9
$UNITMODE
 70
     0
  9
$VISRETAIN
 70
     1
  9
$PLINEGEN
 70
     0
  9
$PSLTSCALE
 70
     1
  0
ENDSEC
  0
SECTION
  2
TABLES
  0
TABLE
  2
VPORT
 70
     1
  0
VPORT
  2
*ACTIVE
 70
     0
 10
0.0
 20
0.0
 11
1.0
 21
1.0
 12
300.1500021476823
 22
46.57561805407687
 13
0.0
 23
0.0
 14
1.0
 24
1.0
 15
0.0
 25
0.0
 16
0.0
 26
0.0
 36
1.0
 17
0.0
 27
0.0
 37
0.0
 40
261.7528693947541
 41
2.304913294797688
 42
50.0
 43
0.0
 44
0.0
 50
0.0
 51
0.0
 71
     0
 72
   100
 73
     1
 74
     1
 75
     0
 76
     0
 77
     0
 78
     0
  0
ENDTAB
  0
TABLE
  2
LTYPE
 70
     4
  0
LTYPE
  2
CONTINUOUS
 70
     0
  3
Solid line
 72
    65
 73
     0
 40
0.0
  0
LTYPE
  2
CENTER
 70
     0
  3
Center ____ _ ____ _ ____ _ ____ _ ____ _ ____
 72
    65
 73
     4
 40
12.0
 49
7.5
 49
-1.5
 49
1.5
 49
-1.5
  0
LTYPE
  2
PHANTOM
 70
     0
  3
Phantom ______  __  __  ______  __  __  ______
 72
    65
 73
     6
 40
15.0
 49
7.5
 49
-1.5
 49
1.5
 49
-1.5
 49
1.5
 49
-1.5
  0
LTYPE
  2
PHANTOM2
 70
     0
  3
___ _ _ ___ _ _ ___ _ _ ___ _ _
 72
    65
 73
     6
 40
1.25
 49
0.625
 49
-0.125
 49
0.125
 49
-0.125
 49
0.125
 49
-0.125
  0
ENDTAB
  0
TABLE
  2
LAYER
 70
     4
  0
LAYER
  2
0
 70
     0
 62
     7
  6
CONTINUOUS
  0
LAYER
  2
1
 70
     0
 62
     1
  6
CENTER
  0
LAYER
  2
5
 70
     0
 62
     3
  6
PHANTOM
  0
LAYER
  2
DEFPOINTS
 70
     0
 62
     7
  6
CONTINUOUS
  0
ENDTAB
  0
TABLE
  2
STYLE
 70
     2
  0
STYLE
  2
STANDARD
 70
     0
 40
0.0
 41
1.0
 50
0.0
 71
     0
 42
0.2
  3
simplex.shx
  4
bigfont.shx
  0
STYLE
  2
STANDARD1
 70
     0
 40
0.0
 41
1.0
 50
0.0
 71
     0
 42
3.0
  3
txt
  4

  0
ENDTAB
  0
TABLE
  2
VIEW
 70
     0
  0
ENDTAB
  0
TABLE
  2
UCS
 70
     0
  0
ENDTAB
  0
TABLE
  2
APPID
 70
     6
  0
APPID
  2
ACAD
 70
     0
  0
APPID
  2
ACAD_EXEMPT_FROM_CAD_STANDARDS
 70
     0
  0
APPID
  2
ACAD_DSTYLE_DIMJAG
 70
     0
  0
APPID
  2
ACAD_DSTYLE_DIMTALN
 70
     0
  0
APPID
  2
ACAD_MLEADERVER
 70
     0
  0
APPID
  2
ACAD_NAV_VCDISPLAY
 70
     0
  0
ENDTAB
  0
TABLE
  2
DIMSTYLE
 70
     1
  0
DIMSTYLE
  2
STANDARD
 70
     0
  3

  4

  5

  6

  7

 40
1.0
 41
0.18
 42
0.0625
 43
0.38
 44
0.18
 45
0.0
 46
0.0
 47
0.0
 48
0.0
140
0.18
141
0.09
142
0.0
143
25.399999999999999
144
1.0
145
0.0
146
1.0
147
0.09
 71
     0
 72
     0
 73
     1
 74
     1
 75
     0
 76
     0
 77
     0
 78
     0
170
     0
171
     2
172
     0
173
     0
174
     0
175
     0
176
     0
177
     0
178
     0
  0
ENDTAB
  0
ENDSEC
  0
SECTION
  2
BLOCKS
  0
BLOCK
  8
0
  2
$MODEL_SPACE
 70
     0
 10
0.0
 20
0.0
 30
0.0
  3
$MODEL_SPACE
  1

  0
ENDBLK
  5
9
  8
0
  0
BLOCK
 67
     1
  8
0
  2
$PAPER_SPACE
 70
     0
 10
0.0
 20
0.0
 30
0.0
  3
$PAPER_SPACE
  1

  0
ENDBLK
  5
E
 67
     1
  8
0
  0
ENDSEC
  0
SECTION
  2
ENTITIES
  0
LINE
  5
27
  8
0
 10
89.300001499999667
 20
94.229128572759777
 30
0.0
 11
597.30000149999989
 21
94.229128572761226
 31
0.0
  0
LINE
  5
28
  8
0
 10
89.300001499999894
 20
77.170873527239635
 30
0.0
 11
597.30000149999989
 21
77.170873527239607
 31
0.0
  0
LINE
  5
35
  8
0
 10
89.300001499999922
 20
66.399999550000047
 30
0.0
 11
89.300001499999865
 21
47.300003000000032
 31
0.0
  0
LINE
  5
36
  8
0
 10
89.300001499999865
 20
47.300003000000032
 30
0.0
 11
597.30000149999989
 21
47.300003000000032
 31
0.0
  0
LINE
  5
37
  8
0
 10
89.300001499999922
 20
56.89999955000004
 30
0.0
 11
597.30000149999989
 21
56.89999955000004
 31
0.0
  0
LINE
  5
38
  8
0
 10
89.300001499999922
 20
66.399999550000047
 30
0.0
 11
597.30000149999989
 21
66.399999550000047
 31
0.0
  0
LINE
  5
43
  8
0
 10
89.300001499999894
 20
95.000002550000787
 30
0.0
 11
89.300001499999894
 21
76.399999550000047
 31
0.0
  0
LINE
  5
44
  8
0
 10
89.300001499999894
 20
95.000002550000787
 30
0.0
 11
597.30000149999989
 21
95.000002550000772
 31
0.0
  0
LINE
  5
45
  8
0
 10
89.300001499999894
 20
76.399999550000103
 30
0.0
 11
597.30000149999989
 21
76.399999550000075
 31
0.0
  0
ARC
  5
4A
  8
0
 10
41.099999999999611
 20
66.000001000000026
 30
0.0
 40
0.39999855
 50
21.99989299999995
 51
179.99997999999999
  0
LINE
  5
4B
  8
0
 10
41.470872477239553
 20
66.149842401581878
 30
0.0
 11
44.770358978374972
 21
58.412061946147467
 31
0.0
  0
LINE
  5
4C
  8
0
 10
41.749999999999609
 20
56.89999955000004
 30
0.0
 11
41.299998499999568
 21
56.89999955000004
 31
0.0
  0
ARC
  5
4D
  8
0
 10
43.550001499999617
 20
56.699999550000051
 30
0.0
 40
0.2
 50
90.000000000000938
 51
180.0
  0
ARC
  5
4E
  8
0
 10
41.749999999999609
 20
56.699999550000001
 30
0.0
 40
0.2
 50
0.000000000000007
 51
90.0
  0
LINE
  5
4F
  8
0
 10
43.550001499999617
 20
56.89999955000004
 30
0.0
 11
43.750456999999621
 21
56.89999955000004
 31
0.0
  0
ARC
  5
50
  8
0
 10
41.299998499999568
 20
57.499999550000013
 30
0.0
 40
0.6
 50
180.0
 51
270.0
  0
LINE
  5
51
  8
0
 10
40.69999849999958
 20
66.000001000000026
 30
0.0
 11
40.699998499999609
 21
57.499999550000013
 31
0.0
  0
ARC
  5
52
  8
0
 10
43.750456999999599
 20
57.999998050000023
 30
0.0
 40
1.0999985000000001
 50
270.0000200000004
 51
21.999842999999949
  0
LINE
  5
53
  8
0
 10
41.949999999999598
 20
56.699999550000001
 30
0.0
 11
41.949999999999633
 21
47.6998490804082
 31
0.0
  0
LINE
  5
54
  8
0
 10
43.350001499999628
 20
56.699999550000051
 30
0.0
 11
43.350001499999628
 21
50.300004000000001
 31
0.0
  0
ARC
  5
55
  8
5
 10
59.745691642737057
 20
65.896412170359241
 30
0.0
 40
0.39999855
 50
357.20001999999999
 51
155.200107
  0
ARC
  5
58
  8
5
 10
56.707600621905812
 20
58.035434339452848
 30
0.0
 40
1.0999985000000001
 50
155.20015699999999
 51
267.19997999999958
  0
LINE
  5
59
  8
5
 10
60.145215595882881
 20
65.876872189166335
 30
0.0
 11
59.729992481788003
 21
57.387018573495283
 31
0.0
  0
LINE
  5
5A
  8
5
 10
57.044073405578303
 20
56.717425700129837
 30
0.0
 11
56.886715123323569
 21
53.500001775000008
 31
0.0
  0
LINE
  5
5B
  8
5
 10
58.442403496065502
 20
56.649035949141279
 30
0.0
 11
58.288390030654881
 21
53.500001775000008
 31
0.0
  0
ARC
  5
5C
  8
5
 10
59.130708799383143
 20
57.416328435372598
 30
0.0
 40
0.6
 50
267.2000000000001
 51
357.19999999999999
  0
LINE
  5
5D
  8
5
 10
56.854082132069117
 20
56.926956881557231
 30
0.0
 11
56.65386594840524
 21
56.936749086586502
 31
0.0
  0
ARC
  5
5E
  8
5
 10
58.642164723533803
 20
56.639265995182171
 30
0.0
 40
0.2
 50
87.200000000000003
 51
177.19999999999999
  0
ARC
  5
5F
  8
5
 10
56.844312178109952
 20
56.727195654088938
 30
0.0
 40
0.2
 50
357.19999999999999
 51
87.199999999999037
  0
LINE
  5
60
  8
5
 10
58.651934677492903
 20
56.839027222650451
 30
0.0
 11
59.101398937505763
 21
56.817044752967803
 31
0.0
  0
LINE
  5
61
  8
5
 10
59.382581654271938
 20
66.06419171702376
 30
0.0
 11
55.709045492885743
 21
58.4968282647595
 31
0.0
  0
LINE
  5
7F
  8
1
 10
49.99999999999995
 20
69.399999550000047
 30
0.0
 11
49.999999999999972
 21
44.300003000000039
 31
0.0
  0
ARC
  5
85
  8
0
 10
57.649998500000287
 20
47.700004
 30
0.0
 40
0.4000015300000001
 50
269.9999799999996
 51
0.0000199999999843
  0
ARC
  5
86
  8
0
 10
56.049998500000271
 20
50.300004000000001
 30
0.0
 40
0.6
 50
270.0
 51
0.000000000000007
  0
LINE
  5
87
  8
0
 10
56.649998500000287
 20
56.699999550000051
 30
0.0
 11
56.649998500000287
 21
50.300004000000001
 31
0.0
  0
LINE
  5
88
  8
0
 10
58.050000000000317
 20
56.699999550000001
 30
0.0
 11
58.050000000000267
 21
47.6998490804082
 31
0.0
  0
ARC
  5
89
  8
0
 10
56.24954300000033
 20
57.999998050000023
 30
0.0
 40
1.0999985000000001
 50
158.000157
 51
269.9999799999996
  0
ARC
  5
8A
  8
0
 10
58.900000000000283
 20
66.000001000000026
 30
0.0
 40
0.39999855
 50
0.0000199999999843
 51
158.00010700000001
  0
LINE
  5
8B
  8
0
 10
59.30000150000032
 20
66.000001000000026
 30
0.0
 11
59.30000150000032
 21
57.499999550000013
 31
0.0
  0
ARC
  5
8C
  8
0
 10
58.700001500000347
 20
57.499999550000013
 30
0.0
 40
0.6
 50
270.0
 51
0.000000000000007
  0
LINE
  5
8D
  8
0
 10
56.449998500000298
 20
56.89999955000004
 30
0.0
 11
56.249543000000273
 21
56.89999955000004
 31
0.0
  0
ARC
  5
8E
  8
0
 10
58.250000000000313
 20
56.699999550000001
 30
0.0
 40
0.2
 50
90.0
 51
180.0
  0
ARC
  5
8F
  8
0
 10
56.449998500000298
 20
56.699999550000051
 30
0.0
 40
0.2
 50
0.000000000000007
 51
89.999999999999048
  0
LINE
  5
90
  8
0
 10
58.250000000000313
 20
56.89999955000004
 30
0.0
 11
58.700001500000347
 21
56.89999955000004
 31
0.0
  0
LINE
  5
91
  8
0
 10
58.529127522760369
 20
66.149842401581878
 30
0.0
 11
55.229641021624928
 21
58.412061946147467
 31
0.0
  0
LINE
  5
92
  8
5
 10
40.617418345727977
 20
66.06419171702376
 30
0.0
 11
44.290954507114193
 21
58.4968282647595
 31
0.0
  0
LINE
  5
93
  8
5
 10
41.348065322507018
 20
56.839027222650451
 30
0.0
 11
40.89860106249413
 21
56.817044752967803
 31
0.0
  0
ARC
  5
94
  8
5
 10
43.155687821889941
 20
56.727195654088938
 30
0.0
 40
0.2
 50
92.800000000000963
 51
182.80000000000001
  0
ARC
  5
95
  8
5
 10
41.357835276466133
 20
56.639265995182171
 30
0.0
 40
0.2
 50
2.7999999999999989
 51
92.799999999999983
  0
LINE
  5
96
  8
5
 10
43.145917867930798
 20
56.926956881557231
 30
0.0
 11
43.34613405159466
 21
56.936749086586502
 31
0.0
  0
ARC
  5
97
  8
5
 10
40.86929120061675
 20
57.416328435372598
 30
0.0
 40
0.6
 50
182.80000000000001
 51
272.80000000000001
  0
ARC
  5
98
  8
0
 10
43.950001500000312
 20
50.300004000000001
 30
0.0
 40
0.6
 50
180.0
 51
270.0
  0
LINE
  5
99
  8
0
 10
42.349350346146551
 20
47.300002999999997
 30
0.0
 11
57.650649653853378
 21
47.300002999999997
 31
0.0
  0
LINE
  5
9A
  8
5
 10
41.557596503934413
 20
56.649035949141279
 30
0.0
 11
41.71160996934502
 21
53.500001775000008
 31
0.0
  0
LINE
  5
9B
  8
0
 10
43.950001500000312
 20
49.700004
 30
0.0
 11
56.049998500000271
 21
49.700004
 31
0.0
  0
LINE
  5
9C
  8
5
 10
42.955926594421634
 20
56.717425700129837
 30
0.0
 11
43.113284876676317
 21
53.500001775000008
 31
0.0
  0
LINE
  5
9D
  8
5
 10
39.854784404117012
 20
65.876872189166335
 30
0.0
 11
40.270007518211912
 21
57.387018573495283
 31
0.0
  0
LINE
  5
A1
  8
1
 10
86.300001499999908
 20
85.700001050000083
 30
0.0
 11
600.30000149999978
 21
85.700001050000054
 31
0.0
  0
ARC
  5
A3
  8
0
 10
42.350001500000317
 20
47.700004
 30
0.0
 40
0.4000015300000001
 50
179.99997999999999
 51
270.0000200000004
  0
ARC
  5
A4
  8
5
 10
40.254308357262843
 20
65.896412170359241
 30
0.0
 40
0.39999855
 50
24.79989299999993
 51
182.79998000000001
  0
ARC
  5
A5
  8
5
 10
43.29239937809411
 20
58.035434339452848
 30
0.0
 40
1.0999985000000001
 50
272.8000200000003
 51
24.799842999999949
  0
LINE
  5
209
  8
0
 10
597.30000149999989
 20
66.399999549999905
 30
0.0
 11
597.30000149999989
 21
47.300002999999883
 31
0.0
  0
LINE
  5
20E
  8
0
 10
89.300001499999894
 20
90.849545550000414
 30
0.0
 11
597.30000149999989
 21
90.849545550000414
 31
0.0
  0
LINE
  5
210
  8
0
 10
89.300001499999894
 20
80.55045654999968
 30
0.0
 11
597.30000149999989
 21
80.550456549999652
 31
0.0
  0
LINE
  5
21B
  8
0
 10
597.30000149999989
 20
95.000002550000787
 30
0.0
 11
597.30000149999989
 21
76.399999550000047
 31
0.0
  0
TEXT
  5
3B6
  8
0
 62
     3
 10
0.0
 20
0.0
 30
0.0
 40
10.0
  1
MBDE06LB
  7
STANDARD1
  0
ENDSEC
  0
EOF
