  0
SECTION
  2
HEADER
  9
$ACADVER
  1
AC1009
  9
$INSBASE
 10
0.0
 20
0.0
 30
0.0
  9
$EXTMIN
 10
0.0
 20
-2.960436562073669
 30
0.0
  9
$EXTMAX
 10
282.55000000000001
 20
103.900003
 30
0.0
  9
$LIMMIN
 10
0.0
 20
0.0
  9
$LIMMAX
 10
12.0
 20
9.0
  9
$ORTHOMODE
 70
     1
  9
$REGENMODE
 70
     1
  9
$FILLMODE
 70
     1
  9
$QTEXTMODE
 70
     0
  9
$MIRRTEXT
 70
     0
  9
$DRAGMODE
 70
     2
  9
$LTSCALE
 40
0.5
  9
$OSMODE
 70
  3071
  9
$ATTMODE
 70
     1
  9
$TEXTSIZE
 40
0.2
  9
$TRACEWID
 40
0.05
  9
$TEXTSTYLE
  7
STANDARD
  9
$CLAYER
  8
0
  9
$CELTYPE
  6
BYLAYER
  9
$CECOLOR
 62
   256
  9
$DIMSCALE
 40
1.0
  9
$DIMASZ
 40
1.0
  9
$DIMEXO
 40
2.54
  9
$DIMDLI
 40
0.38
  9
$DIMRND
 40
0.0
  9
$DIMDLE
 40
0.0
  9
$DIMEXE
 40
2.54
  9
$DIMTP
 40
0.0
  9
$DIMTM
 40
0.0
  9
$DIMTXT
 40
3.2000000000000002
  9
$DIMCEN
 40
0.09
  9
$DIMTSZ
 40
0.0
  9
$DIMTOL
 70
     0
  9
$DIMLIM
 70
     0
  9
$DIMTIH
 70
     0
  9
$DIMTOH
 70
     0
  9
$DIMSE1
 70
     0
  9
$DIMSE2
 70
     0
  9
$DIMTAD
 70
     1
  9
$DIMZIN
 70
     0
  9
$DIMBLK
  1

  9
$DIMASO
 70
     1
  9
$DIMSHO
 70
     0
  9
$DIMPOST
  1

  9
$DIMAPOST
  1

  9
$DIMALT
 70
     0
  9
$DIMALTD
 70
     2
  9
$DIMALTF
 40
25.399999999999999
  9
$DIMLFAC
 40
1.0
  9
$DIMTOFL
 70
     0
  9
$DIMTVP
 40
1.0
  9
$DIMTIX
 70
     0
  9
$DIMSOXD
 70
     0
  9
$DIMSAH
 70
     0
  9
$DIMBLK1
  1

  9
$DIMBLK2
  1

  9
$DIMSTYLE
  2
STANDARD
  9
$DIMCLRD
 70
     0
  9
$DIMCLRE
 70
     0
  9
$DIMCLRT
 70
     0
  9
$DIMTFAC
 40
1.0
  9
$DIMGAP
 40
1.6000000000000001
  9
$LUNITS
 70
     2
  9
$LUPREC
 70
     4
  9
$SKETCHINC
 40
0.1
  9
$FILLETRAD
 40
1.0
  9
$AUNITS
 70
     0
  9
$AUPREC
 70
     0
  9
$MENU
  1
.
  9
$ELEVATION
 40
0.0
  9
$PELEVATION
 40
0.0
  9
$THICKNESS
 40
0.0
  9
$LIMCHECK
 70
     0
  9
$BLIPMODE
 70
     0
  9
$CHAMFERA
 40
0.5
  9
$CHAMFERB
 40
0.5
  9
$SKPOLY
 70
     0
  9
$TDCREATE
 40
2453173.4709223039
  9
$TDUPDATE
 40
2456597.6348700351
  9
$TDINDWG
 40
1.4611991435
  9
$TDUSRTIMER
 40
1.4611991435
  9
$USRTIMER
 70
     1
  9
$ANGBASE
 50
0.0
  9
$ANGDIR
 70
     0
  9
$PDMODE
 70
     0
  9
$PDSIZE
 40
0.0
  9
$PLINEWID
 40
0.0
  9
$COORDS
 70
     1
  9
$SPLFRAME
 70
     0
  9
$SPLINETYPE
 70
     6
  9
$SPLINESEGS
 70
     8
  9
$ATTDIA
 70
     0
  9
$ATTREQ
 70
     1
  9
$HANDLING
 70
     1
  9
$HANDSEED
  5
535
  9
$SURFTAB1
 70
     6
  9
$SURFTAB2
 70
     6
  9
$SURFTYPE
 70
     6
  9
$SURFU
 70
     6
  9
$SURFV
 70
     6
  9
$UCSNAME
  2

  9
$UCSORG
 10
0.0
 20
0.0
 30
0.0
  9
$UCSXDIR
 10
1.0
 20
0.0
 30
0.0
  9
$UCSYDIR
 10
0.0
 20
1.0
 30
0.0
  9
$PUCSNAME
  2

  9
$PUCSORG
 10
0.0
 20
0.0
 30
0.0
  9
$PUCSXDIR
 10
1.0
 20
0.0
 30
0.0
  9
$PUCSYDIR
 10
0.0
 20
1.0
 30
0.0
  9
$USERI1
 70
     0
  9
$USERI2
 70
     0
  9
$USERI3
 70
     0
  9
$USERI4
 70
     0
  9
$USERI5
 70
     0
  9
$USERR1
 40
0.0
  9
$USERR2
 40
0.0
  9
$USERR3
 40
0.0
  9
$USERR4
 40
0.0
  9
$USERR5
 40
0.0
  9
$WORLDVIEW
 70
     1
  9
$SHADEDGE
 70
     3
  9
$SHADEDIF
 70
    70
  9
$TILEMODE
 70
     1
  9
$MAXACTVP
 70
    64
  9
$PLIMCHECK
 70
     0
  9
$PEXTMIN
 10
1.0000000000000000E+020
 20
1.0000000000000000E+020
 30
1.0000000000000000E+020
  9
$PEXTMAX
 10
-1.0000000000000000E+020
 20
-1.0000000000000000E+020
 30
-1.0000000000000000E+020
  9
$PLIMMIN
 10
0.0
 20
0.0
  9
$PLIMMAX
 10
12.0
 20
9.0
  9
$UNITMODE
 70
     0
  9
$VISRETAIN
 70
     1
  9
$PLINEGEN
 70
     0
  9
$PSLTSCALE
 70
     1
  0
ENDSEC
  0
SECTION
  2
TABLES
  0
TABLE
  2
VPORT
 70
     1
  0
VPORT
  2
*ACTIVE
 70
     0
 10
0.0
 20
0.0
 11
1.0
 21
1.0
 12
141.27500065786299
 22
50.730217894766596
 13
0.0
 23
0.0
 14
1.0
 24
1.0
 15
0.0
 25
0.0
 16
0.0
 26
0.0
 36
1.0
 17
0.0
 27
0.0
 37
0.0
 40
123.2021873441354
 41
2.304913294797688
 42
50.0
 43
0.0
 44
0.0
 50
0.0
 51
0.0
 71
     0
 72
   100
 73
     1
 74
     1
 75
     0
 76
     0
 77
     0
 78
     0
  0
ENDTAB
  0
TABLE
  2
LTYPE
 70
     4
  0
LTYPE
  2
CONTINUOUS
 70
     0
  3
Solid line
 72
    65
 73
     0
 40
0.0
  0
LTYPE
  2
CENTER
 70
     0
  3
Center ____ _ ____ _ ____ _ ____ _ ____ _ ____
 72
    65
 73
     4
 40
12.0
 49
7.5
 49
-1.5
 49
1.5
 49
-1.5
  0
LTYPE
  2
PHANTOM
 70
     0
  3
Phantom ______  __  __  ______  __  __  ______
 72
    65
 73
     6
 40
15.0
 49
7.5
 49
-1.5
 49
1.5
 49
-1.5
 49
1.5
 49
-1.5
  0
LTYPE
  2
PHANTOM2
 70
     0
  3
___ _ _ ___ _ _ ___ _ _ ___ _ _
 72
    65
 73
     6
 40
1.25
 49
0.625
 49
-0.125
 49
0.125
 49
-0.125
 49
0.125
 49
-0.125
  0
ENDTAB
  0
TABLE
  2
LAYER
 70
     4
  0
LAYER
  2
0
 70
     0
 62
     7
  6
CONTINUOUS
  0
LAYER
  2
1
 70
     0
 62
     1
  6
CENTER
  0
LAYER
  2
5
 70
     0
 62
     3
  6
PHANTOM
  0
LAYER
  2
DEFPOINTS
 70
     0
 62
     7
  6
CONTINUOUS
  0
ENDTAB
  0
TABLE
  2
STYLE
 70
     2
  0
STYLE
  2
STANDARD
 70
     0
 40
0.0
 41
1.0
 50
0.0
 71
     0
 42
0.2
  3
simplex.shx
  4
bigfont.shx
  0
STYLE
  2
STANDARD1
 70
     0
 40
0.0
 41
1.0
 50
0.0
 71
     0
 42
3.0
  3
txt
  4

  0
ENDTAB
  0
TABLE
  2
VIEW
 70
     0
  0
ENDTAB
  0
TABLE
  2
UCS
 70
     0
  0
ENDTAB
  0
TABLE
  2
APPID
 70
     6
  0
APPID
  2
ACAD
 70
     0
  0
APPID
  2
ACAD_EXEMPT_FROM_CAD_STANDARDS
 70
     0
  0
APPID
  2
ACAD_DSTYLE_DIMJAG
 70
     0
  0
APPID
  2
ACAD_DSTYLE_DIMTALN
 70
     0
  0
APPID
  2
ACAD_MLEADERVER
 70
     0
  0
APPID
  2
ACAD_NAV_VCDISPLAY
 70
     0
  0
ENDTAB
  0
TABLE
  2
DIMSTYLE
 70
     1
  0
DIMSTYLE
  2
STANDARD
 70
     0
  3

  4

  5

  6

  7

 40
1.0
 41
0.18
 42
0.0625
 43
0.38
 44
0.18
 45
0.0
 46
0.0
 47
0.0
 48
0.0
140
0.18
141
0.09
142
0.0
143
25.399999999999999
144
1.0
145
0.0
146
1.0
147
0.09
 71
     0
 72
     0
 73
     1
 74
     1
 75
     0
 76
     0
 77
     0
 78
     0
170
     0
171
     2
172
     0
173
     0
174
     0
175
     0
176
     0
177
     0
178
     0
  0
ENDTAB
  0
ENDSEC
  0
SECTION
  2
BLOCKS
  0
BLOCK
  8
0
  2
$MODEL_SPACE
 70
     0
 10
0.0
 20
0.0
 30
0.0
  3
$MODEL_SPACE
  1

  0
ENDBLK
  5
9
  8
0
  0
BLOCK
 67
     1
  8
0
  2
$PAPER_SPACE
 70
     0
 10
0.0
 20
0.0
 30
0.0
  3
$PAPER_SPACE
  1

  0
ENDBLK
  5
E
 67
     1
  8
0
  0
ENDSEC
  0
SECTION
  2
ENTITIES
  0
ARC
  5
26
  8
0
 10
44.28564015785404
 20
47.200002999999867
 30
0.0
 40
0.8
 50
269.9999999999705
 51
22.000208213610708
  0
ARC
  5
27
  8
0
 10
44.250000000000007
 20
45.900003000000019
 30
0.0
 40
0.5
 50
89.999999999986414
 51
180.0
  0
LINE
  5
28
  8
0
 10
44.285640157853713
 20
46.400002999999849
 30
0.0
 11
44.25000000000027
 21
46.400002999999963
 31
0.0
  0
ARC
  5
29
  8
0
 10
41.450000000000003
 20
45.900003000000019
 30
0.0
 40
0.5
 50
0.000000000000007
 51
90.00000299999769
  0
LINE
  5
2A
  8
0
 10
40.199998899999962
 20
55.799997000000012
 30
0.0
 11
40.399998699999969
 21
54.200000999999993
 31
0.0
  0
LINE
  5
2B
  8
0
 10
40.200000799999991
 20
55.800002999999997
 30
0.0
 11
41.538906147884468
 21
55.80000299999994
 31
0.0
  0
ARC
  5
2C
  8
0
 10
41.538906147884468
 20
55.600002999999958
 30
0.0
 40
0.2
 50
22.000208213611419
 51
90.0
  0
LINE
  5
2D
  8
0
 10
41.724342646531547
 20
55.674924992562289
 30
0.0
 11
45.02738615244246
 21
47.499690970249219
 31
0.0
  0
LINE
  5
2E
  8
0
 10
30.949999999999989
 20
55.80000299999994
 30
0.0
 11
30.949999999999989
 21
46.400003000000083
 31
0.0
  0
LINE
  5
2F
  8
0
 10
37.400001999999972
 20
54.200004999999969
 30
0.0
 11
40.40000150000003
 21
54.200004999999969
 31
0.0
  0
LINE
  5
30
  8
0
 10
37.399999999999977
 20
54.199996999999989
 30
0.0
 11
37.60000100000002
 21
55.800004999999999
 31
0.0
  0
LINE
  5
31
  8
0
 10
30.949999999999989
 20
55.80000299999994
 30
0.0
 11
37.599998000000028
 21
55.800002999999997
 31
0.0
  0
LINE
  5
32
  8
0
 10
30.949999999999989
 20
46.400003000000027
 30
0.0
 11
41.450000000000003
 21
46.400003000000083
 31
0.0
  0
LINE
  5
33
  8
5
 10
59.38896485731297
 20
55.558385447374008
 30
0.0
 11
55.572174244014803
 21
47.610010950927233
 31
0.0
  0
ARC
  5
36
  8
5
 10
59.04046542275124
 20
45.785826315166332
 30
0.0
 40
0.5
 50
86.349997000002318
 51
176.34999999999999
  0
LINE
  5
37
  8
5
 10
56.242407928743262
 20
46.46533302231375
 30
0.0
 11
56.277975792437893
 21
46.46306411860968
 31
0.0
  0
ARC
  5
38
  8
5
 10
56.24614507337234
 20
45.964078341934851
 30
0.0
 40
0.5
 50
356.35000000000002
 51
86.350000000013594
  0
ARC
  5
39
  8
5
 10
56.293337079248232
 20
47.263710264993449
 30
0.0
 40
0.8
 50
154.34979178638929
 51
266.35000000002952
  0
ARC
  5
3A
  8
5
 10
59.569255566121299
 20
55.471810275890512
 30
0.0
 40
0.2
 50
86.349999999999994
 51
154.34979178638861
  0
LINE
  5
3B
  8
5
 10
60.918177303563979
 20
55.58616794659207
 30
0.0
 11
59.581987853747613
 21
55.671404586560413
 31
0.0
  0
LINE
  5
3C
  8
5
 10
69.550997451987882
 20
45.616366991459238
 30
0.0
 11
59.072296141817063
 21
46.284812091841268
 31
0.0
  0
LINE
  5
3D
  8
5
 10
70.149414970425028
 20
54.99729959294541
 30
0.0
 11
63.512906136593259
 21
55.420648029197821
 31
0.0
  0
LINE
  5
3E
  8
5
 10
63.610639768340917
 20
53.811155395705718
 30
0.0
 11
63.512903270001473
 21
55.420650216125239
 31
0.0
  0
LINE
  5
3F
  8
5
 10
60.918178817741328
 20
55.586161837806003
 30
0.0
 11
60.616726660300898
 21
54.002143619226899
 31
0.0
  0
LINE
  5
40
  8
5
 10
63.610638281689297
 20
53.811163506800938
 30
0.0
 11
60.61672412062623
 21
54.002147789365097
 31
0.0
  0
LINE
  5
41
  8
5
 10
70.149414970425028
 20
54.99729959294541
 30
0.0
 11
69.550997451987882
 21
45.616366991459181
 31
0.0
  0
ARC
  5
42
  8
5
 10
43.706662920751768
 20
47.263710264993449
 30
0.0
 40
0.8
 50
273.64999999997048
 51
25.650208213610711
  0
ARC
  5
43
  8
5
 10
43.753854926627653
 20
45.964078341934851
 30
0.0
 40
0.5
 50
93.649999999986406
 51
183.65000000000001
  0
LINE
  5
44
  8
5
 10
43.757592071256738
 20
46.46533302231375
 30
0.0
 11
43.7220242075621
 21
46.46306411860968
 31
0.0
  0
LINE
  5
45
  8
5
 10
40.61103514268703
 20
55.558385447374008
 30
0.0
 11
44.427825755985197
 21
47.610010950927233
 31
0.0
  0
LINE
  5
46
  8
5
 10
29.850585029574969
 20
54.99729959294541
 30
0.0
 11
30.449002548012121
 21
45.616366991459181
 31
0.0
  0
LINE
  5
47
  8
5
 10
36.389361718310688
 20
53.811163506800938
 30
0.0
 11
39.38327587937377
 21
54.002147789365097
 31
0.0
  0
LINE
  5
48
  8
5
 10
39.081821182258658
 20
55.586161837806003
 30
0.0
 11
39.383273339699102
 21
54.002143619226899
 31
0.0
  0
LINE
  5
49
  8
5
 10
36.389360231659083
 20
53.811155395705718
 30
0.0
 11
36.487096729998527
 21
55.420650216125239
 31
0.0
  0
LINE
  5
4A
  8
5
 10
29.850585029574962
 20
54.99729959294541
 30
0.0
 11
36.487093863406741
 21
55.420648029197821
 31
0.0
  0
LINE
  5
4B
  8
5
 10
30.449002548012121
 20
45.616366991459238
 30
0.0
 11
40.92770385818293
 21
46.284812091841268
 31
0.0
  0
ARC
  5
4C
  8
5
 10
40.95953457724876
 20
45.785826315166332
 30
0.0
 40
0.5
 50
3.650000000000007
 51
93.650002999997696
  0
LINE
  5
4D
  8
5
 10
39.081822696436021
 20
55.58616794659207
 30
0.0
 11
40.418012146252387
 21
55.671404586560413
 31
0.0
  0
ARC
  5
4E
  8
5
 10
40.430744433878701
 20
55.471810275890512
 30
0.0
 40
0.2
 50
25.650208213611432
 51
93.650000000000006
  0
LINE
  5
53
  8
0
 10
55.71435984214628
 20
46.400002999999849
 30
0.0
 11
55.74999999999973
 21
46.400002999999963
 31
0.0
  0
ARC
  5
54
  8
0
 10
55.749999999999993
 20
45.900003000000019
 30
0.0
 40
0.5
 50
0.000000000000007
 51
90.000000000013614
  0
LINE
  5
55
  8
0
 10
56.249999999999993
 20
45.900003000000019
 30
0.0
 11
56.249999999999972
 21
39.900004500000023
 31
0.0
  0
ARC
  5
56
  8
0
 10
55.714359842145953
 20
47.200002999999867
 30
0.0
 40
0.8
 50
157.9997917863893
 51
270.0000000000295
  0
LINE
  5
57
  8
0
 10
58.275657353468439
 20
55.674924992562289
 30
0.0
 11
54.97261384755754
 21
47.499690970249219
 31
0.0
  0
ARC
  5
58
  8
0
 10
58.461093852115518
 20
55.600002999999958
 30
0.0
 40
0.2
 50
90.0
 51
157.99979178638861
  0
LINE
  5
59
  8
0
 10
59.799999200000002
 20
55.800002999999997
 30
0.0
 11
58.461093852115518
 21
55.80000299999994
 31
0.0
  0
ARC
  5
5A
  8
0
 10
58.549999999999997
 20
45.900003000000019
 30
0.0
 40
0.5
 50
89.999997000002296
 51
180.0
  0
LINE
  5
5B
  8
0
 10
69.050000000000011
 20
46.400003000000027
 30
0.0
 11
58.549999999999997
 21
46.400003000000083
 31
0.0
  0
LINE
  5
5C
  8
0
 10
58.04999999999999
 20
45.900003000000019
 30
0.0
 11
58.04999999999999
 21
37.099372073102991
 31
0.0
  0
LINE
  5
5D
  8
0
 10
69.050000000000011
 20
55.80000299999994
 30
0.0
 11
62.400001999999972
 21
55.800002999999997
 31
0.0
  0
LINE
  5
5E
  8
0
 10
62.600000000000023
 20
54.199996999999989
 30
0.0
 11
62.39999899999998
 21
55.800004999999999
 31
0.0
  0
LINE
  5
5F
  8
0
 10
59.800001100000031
 20
55.799997000000012
 30
0.0
 11
59.600001300000031
 21
54.200000999999993
 31
0.0
  0
LINE
  5
60
  8
0
 10
62.599998000000021
 20
54.200004999999969
 30
0.0
 11
59.59999849999997
 21
54.200004999999969
 31
0.0
  0
LINE
  5
61
  8
0
 10
69.050000000000011
 20
55.80000299999994
 30
0.0
 11
69.050000000000011
 21
46.400003000000083
 31
0.0
  0
LINE
  5
63
  8
0
 10
89.050000000000026
 20
103.900003
 30
0.0
 11
89.050000000000011
 21
65.800003000000032
 31
0.0
  0
LINE
  5
64
  8
0
 10
89.050000000000011
 20
93.176195677481402
 30
0.0
 11
279.55000000000001
 21
93.176195677481331
 31
0.0
  0
LINE
  5
65
  8
0
 10
89.050000000000054
 20
76.523810322518628
 30
0.0
 11
279.55000000000001
 21
76.523810322518585
 31
0.0
  0
LINE
  5
66
  8
0
 10
89.050000000000011
 20
75.050001899999984
 30
0.0
 11
279.55000000000001
 21
75.050001899999984
 31
0.0
  0
LINE
  5
67
  8
0
 10
89.050000000000054
 20
94.650002200000031
 30
0.0
 11
279.55000000000001
 21
94.650002200000003
 31
0.0
  0
LINE
  5
68
  8
0
 10
89.050000000000082
 20
97.250001999999995
 30
0.0
 11
279.55000000000001
 21
97.250001999999981
 31
0.0
  0
LINE
  5
69
  8
0
 10
89.050000000000011
 20
72.450001000000043
 30
0.0
 11
279.55000000000001
 21
72.450000999999943
 31
0.0
  0
LINE
  5
6A
  8
0
 10
89.050000000000054
 20
65.800003000000004
 30
0.0
 11
279.55000000000001
 21
65.80000299999999
 31
0.0
  0
LINE
  5
6B
  8
0
 10
89.050000000000026
 20
103.900003
 30
0.0
 11
279.55000000000001
 21
103.900003
 31
0.0
  0
ARC
  5
A0
  8
0
 10
44.350000000000009
 20
39.900004500000023
 30
0.0
 40
0.6
 50
180.0
 51
270.0
  0
LINE
  5
A1
  8
0
 10
43.750000000000007
 20
45.900003000000019
 30
0.0
 11
43.750000000000021
 21
39.900004500000023
 31
0.0
  0
LINE
  5
BF
  8
0
 10
89.050000000000011
 20
55.800002999999961
 30
0.0
 11
89.050000000000011
 21
36.700002999999981
 31
0.0
  0
LINE
  5
C1
  8
0
 10
89.050000000000011
 20
55.800003000000061
 30
0.0
 11
279.55000000000001
 21
55.80000299999994
 31
0.0
  0
LINE
  5
C2
  8
0
 10
89.049999999999983
 20
46.400002999999963
 30
0.0
 11
279.55000000000001
 21
46.400003000000197
 31
0.0
  0
LINE
  5
C3
  8
0
 10
89.050000000000011
 20
36.700002999999931
 30
0.0
 11
279.55000000000001
 21
36.700002999999811
 31
0.0
  0
ARC
  5
C4
  8
0
 10
55.649999999999991
 20
39.900004500000023
 30
0.0
 40
0.6
 50
270.0
 51
0.000000000000007
  0
LINE
  5
E9
  8
1
 10
86.050000000000026
 20
84.850003000000015
 30
0.0
 11
282.55000000000001
 21
84.850003000000015
 31
0.0
  0
LINE
  5
F3
  8
1
 10
50.0
 20
58.800002999999947
 30
0.0
 11
50.0
 21
33.70000299999996
 31
0.0
  0
LINE
  5
F4
  8
0
 10
42.349388310240187
 20
36.700002999999981
 30
0.0
 11
57.650611689724187
 21
36.700002999999931
 31
0.0
  0
LINE
  5
F5
  8
0
 10
41.950000000000003
 20
45.900003000000019
 30
0.0
 11
41.950000000000003
 21
37.099372073102991
 31
0.0
  0
LINE
  5
F6
  8
0
 10
44.350000000000009
 20
39.3000045
 30
0.0
 11
55.649999999999991
 21
39.3000045
 31
0.0
  0
ARC
  5
F7
  8
0
 10
42.350001500000033
 20
37.100004529999978
 30
0.0
 40
0.4000020000000001
 50
179.9999899999998
 51
270.0
  0
ARC
  5
F8
  8
0
 10
57.649998499999967
 20
37.100004529999978
 30
0.0
 40
0.4000020000000001
 50
270.0
 51
0.0
  0
LINE
  5
29F
  8
0
 10
279.55000000000001
 20
89.764362842145957
 30
0.0
 11
89.050000000000011
 21
89.764362842145985
 31
0.0
  0
LINE
  5
2A0
  8
0
 10
279.55000000000001
 20
79.935643157854045
 30
0.0
 11
89.050000000000011
 21
79.935643157854045
 31
0.0
  0
LINE
  5
321
  8
0
 10
279.55000000000001
 20
103.900003
 30
0.0
 11
279.55000000000001
 21
65.800003000000004
 31
0.0
  0
LINE
  5
32A
  8
0
 10
279.55000000000001
 20
55.800002999999961
 30
0.0
 11
279.55000000000001
 21
36.700002999999981
 31
0.0
  0
TEXT
  5
4D3
  8
0
 62
     3
 10
0.0
 20
0.0
 30
0.0
 40
10.0
  1
MBDES06LB
  7
STANDARD1
  0
ENDSEC
  0
EOF
