  0
SECTION
  2
HEADER
  9
$ACADVER
  1
AC1009
  9
$INSBASE
 10
0.0
 20
0.0
 30
0.0
  9
$EXTMIN
 10
0.0
 20
-2.960436562073669
 30
0.0
  9
$EXTMAX
 10
282.55000000000001
 20
82.15805381438642
 30
0.0
  9
$LIMMIN
 10
0.0
 20
0.0
  9
$LIMMAX
 10
12.0
 20
9.0
  9
$ORTHOMODE
 70
     1
  9
$REGENMODE
 70
     1
  9
$FILLMODE
 70
     1
  9
$QTEXTMODE
 70
     0
  9
$MIRRTEXT
 70
     0
  9
$DRAGMODE
 70
     2
  9
$LTSCALE
 40
0.5
  9
$OSMODE
 70
  3071
  9
$ATTMODE
 70
     1
  9
$TEXTSIZE
 40
0.2
  9
$TRACEWID
 40
0.05
  9
$TEXTSTYLE
  7
STANDARD
  9
$CLAYER
  8
0
  9
$CELTYPE
  6
BYLAYER
  9
$CECOLOR
 62
   256
  9
$DIMSCALE
 40
1.0
  9
$DIMASZ
 40
1.0
  9
$DIMEXO
 40
2.54
  9
$DIMDLI
 40
0.38
  9
$DIMRND
 40
0.0
  9
$DIMDLE
 40
0.0
  9
$DIMEXE
 40
2.54
  9
$DIMTP
 40
0.0
  9
$DIMTM
 40
0.0
  9
$DIMTXT
 40
3.2000000000000002
  9
$DIMCEN
 40
0.09
  9
$DIMTSZ
 40
0.0
  9
$DIMTOL
 70
     0
  9
$DIMLIM
 70
     0
  9
$DIMTIH
 70
     0
  9
$DIMTOH
 70
     0
  9
$DIMSE1
 70
     0
  9
$DIMSE2
 70
     0
  9
$DIMTAD
 70
     1
  9
$DIMZIN
 70
     0
  9
$DIMBLK
  1

  9
$DIMASO
 70
     1
  9
$DIMSHO
 70
     0
  9
$DIMPOST
  1

  9
$DIMAPOST
  1

  9
$DIMALT
 70
     0
  9
$DIMALTD
 70
     2
  9
$DIMALTF
 40
25.399999999999999
  9
$DIMLFAC
 40
1.0
  9
$DIMTOFL
 70
     0
  9
$DIMTVP
 40
1.0
  9
$DIMTIX
 70
     0
  9
$DIMSOXD
 70
     0
  9
$DIMSAH
 70
     0
  9
$DIMBLK1
  1

  9
$DIMBLK2
  1

  9
$DIMSTYLE
  2
STANDARD
  9
$DIMCLRD
 70
     0
  9
$DIMCLRE
 70
     0
  9
$DIMCLRT
 70
     0
  9
$DIMTFAC
 40
1.0
  9
$DIMGAP
 40
1.6000000000000001
  9
$LUNITS
 70
     2
  9
$LUPREC
 70
     4
  9
$SKETCHINC
 40
0.1
  9
$FILLETRAD
 40
1.0
  9
$AUNITS
 70
     0
  9
$AUPREC
 70
     0
  9
$MENU
  1
.
  9
$ELEVATION
 40
0.0
  9
$PELEVATION
 40
0.0
  9
$THICKNESS
 40
0.0
  9
$LIMCHECK
 70
     0
  9
$BLIPMODE
 70
     0
  9
$CHAMFERA
 40
0.5
  9
$CHAMFERB
 40
0.5
  9
$SKPOLY
 70
     0
  9
$TDCREATE
 40
2453173.4709223039
  9
$TDUPDATE
 40
2456597.6348799649
  9
$TDINDWG
 40
1.4497185764
  9
$TDUSRTIMER
 40
1.4497185764
  9
$USRTIMER
 70
     1
  9
$ANGBASE
 50
0.0
  9
$ANGDIR
 70
     0
  9
$PDMODE
 70
     0
  9
$PDSIZE
 40
0.0
  9
$PLINEWID
 40
0.0
  9
$COORDS
 70
     1
  9
$SPLFRAME
 70
     0
  9
$SPLINETYPE
 70
     6
  9
$SPLINESEGS
 70
     8
  9
$ATTDIA
 70
     0
  9
$ATTREQ
 70
     1
  9
$HANDLING
 70
     1
  9
$HANDSEED
  5
528
  9
$SURFTAB1
 70
     6
  9
$SURFTAB2
 70
     6
  9
$SURFTYPE
 70
     6
  9
$SURFU
 70
     6
  9
$SURFV
 70
     6
  9
$UCSNAME
  2

  9
$UCSORG
 10
0.0
 20
0.0
 30
0.0
  9
$UCSXDIR
 10
1.0
 20
0.0
 30
0.0
  9
$UCSYDIR
 10
0.0
 20
1.0
 30
0.0
  9
$PUCSNAME
  2

  9
$PUCSORG
 10
0.0
 20
0.0
 30
0.0
  9
$PUCSXDIR
 10
1.0
 20
0.0
 30
0.0
  9
$PUCSYDIR
 10
0.0
 20
1.0
 30
0.0
  9
$USERI1
 70
     0
  9
$USERI2
 70
     0
  9
$USERI3
 70
     0
  9
$USERI4
 70
     0
  9
$USERI5
 70
     0
  9
$USERR1
 40
0.0
  9
$USERR2
 40
0.0
  9
$USERR3
 40
0.0
  9
$USERR4
 40
0.0
  9
$USERR5
 40
0.0
  9
$WORLDVIEW
 70
     1
  9
$SHADEDGE
 70
     3
  9
$SHADEDIF
 70
    70
  9
$TILEMODE
 70
     1
  9
$MAXACTVP
 70
    64
  9
$PLIMCHECK
 70
     0
  9
$PEXTMIN
 10
1.0000000000000000E+020
 20
1.0000000000000000E+020
 30
1.0000000000000000E+020
  9
$PEXTMAX
 10
-1.0000000000000000E+020
 20
-1.0000000000000000E+020
 30
-1.0000000000000000E+020
  9
$PLIMMIN
 10
0.0
 20
0.0
  9
$PLIMMAX
 10
12.0
 20
9.0
  9
$UNITMODE
 70
     0
  9
$VISRETAIN
 70
     1
  9
$PLINEGEN
 70
     0
  9
$PSLTSCALE
 70
     1
  0
ENDSEC
  0
SECTION
  2
TABLES
  0
TABLE
  2
VPORT
 70
     1
  0
VPORT
  2
*ACTIVE
 70
     0
 10
0.0
 20
0.0
 11
1.0
 21
1.0
 12
141.27500065786299
 22
39.86229499853421
 13
0.0
 23
0.0
 14
1.0
 24
1.0
 15
0.0
 25
0.0
 16
0.0
 26
0.0
 36
1.0
 17
0.0
 27
0.0
 37
0.0
 40
123.2021873441354
 41
2.304913294797688
 42
50.0
 43
0.0
 44
0.0
 50
0.0
 51
0.0
 71
     0
 72
   100
 73
     1
 74
     1
 75
     0
 76
     0
 77
     0
 78
     0
  0
ENDTAB
  0
TABLE
  2
LTYPE
 70
     3
  0
LTYPE
  2
CONTINUOUS
 70
     0
  3
Solid line
 72
    65
 73
     0
 40
0.0
  0
LTYPE
  2
CENTER
 70
     0
  3
Center ____ _ ____ _ ____ _ ____ _ ____ _ ____
 72
    65
 73
     4
 40
12.0
 49
7.5
 49
-1.5
 49
1.5
 49
-1.5
  0
LTYPE
  2
PHANTOM2
 70
     0
  3
___ _ _ ___ _ _ ___ _ _ ___ _ _
 72
    65
 73
     6
 40
1.25
 49
0.625
 49
-0.125
 49
0.125
 49
-0.125
 49
0.125
 49
-0.125
  0
ENDTAB
  0
TABLE
  2
LAYER
 70
     3
  0
LAYER
  2
0
 70
     0
 62
     7
  6
CONTINUOUS
  0
LAYER
  2
1
 70
     0
 62
     1
  6
CENTER
  0
LAYER
  2
DEFPOINTS
 70
     0
 62
     7
  6
CONTINUOUS
  0
ENDTAB
  0
TABLE
  2
STYLE
 70
     2
  0
STYLE
  2
STANDARD
 70
     0
 40
0.0
 41
1.0
 50
0.0
 71
     0
 42
0.2
  3
simplex.shx
  4
bigfont.shx
  0
STYLE
  2
STANDARD1
 70
     0
 40
0.0
 41
1.0
 50
0.0
 71
     0
 42
3.0
  3
txt
  4

  0
ENDTAB
  0
TABLE
  2
VIEW
 70
     0
  0
ENDTAB
  0
TABLE
  2
UCS
 70
     0
  0
ENDTAB
  0
TABLE
  2
APPID
 70
     6
  0
APPID
  2
ACAD
 70
     0
  0
APPID
  2
ACAD_EXEMPT_FROM_CAD_STANDARDS
 70
     0
  0
APPID
  2
ACAD_DSTYLE_DIMJAG
 70
     0
  0
APPID
  2
ACAD_DSTYLE_DIMTALN
 70
     0
  0
APPID
  2
ACAD_MLEADERVER
 70
     0
  0
APPID
  2
ACAD_NAV_VCDISPLAY
 70
     0
  0
ENDTAB
  0
TABLE
  2
DIMSTYLE
 70
     1
  0
DIMSTYLE
  2
STANDARD
 70
     0
  3

  4

  5

  6

  7

 40
1.0
 41
0.18
 42
0.0625
 43
0.38
 44
0.18
 45
0.0
 46
0.0
 47
0.0
 48
0.0
140
0.18
141
0.09
142
0.0
143
25.399999999999999
144
1.0
145
0.0
146
1.0
147
0.09
 71
     0
 72
     0
 73
     1
 74
     1
 75
     0
 76
     0
 77
     0
 78
     0
170
     0
171
     2
172
     0
173
     0
174
     0
175
     0
176
     0
177
     0
178
     0
  0
ENDTAB
  0
ENDSEC
  0
SECTION
  2
BLOCKS
  0
BLOCK
  8
0
  2
$MODEL_SPACE
 70
     0
 10
0.0
 20
0.0
 30
0.0
  3
$MODEL_SPACE
  1

  0
ENDBLK
  5
9
  8
0
  0
BLOCK
 67
     1
  8
0
  2
$PAPER_SPACE
 70
     0
 10
0.0
 20
0.0
 30
0.0
  3
$PAPER_SPACE
  1

  0
ENDBLK
  5
E
 67
     1
  8
0
  0
ENDSEC
  0
SECTION
  2
ENTITIES
  0
LINE
  5
209
  8
0
 10
89.050000000000011
 20
82.158053814386406
 30
0.0
 11
89.050000000000011
 21
66.300002999999947
 31
0.0
  0
LINE
  5
20A
  8
0
 10
89.050000000000011
 20
82.15805381438642
 30
0.0
 11
279.55000000000001
 21
82.158053814386363
 31
0.0
  0
LINE
  5
20B
  8
0
 10
89.050000000000054
 20
66.300002999999947
 30
0.0
 11
279.55000000000001
 21
66.300002999999947
 31
0.0
  0
LINE
  5
262
  8
0
 10
89.050000000000011
 20
56.300002999999947
 30
0.0
 11
89.050000000000011
 21
44.300002999999997
 31
0.0
  0
LINE
  5
263
  8
0
 10
89.050000000000011
 20
56.300002999999947
 30
0.0
 11
279.55000000000001
 21
56.300002999999947
 31
0.0
  0
ARC
  5
270
  8
0
 10
39.188148549249831
 20
59.210611515801702
 30
0.0
 40
19.0
 50
324.94055230536679
 51
350.47616417729643
  0
ARC
  5
271
  8
0
 10
42.270974592806787
 20
56.100002999999951
 30
0.0
 40
0.2
 50
90.0
 51
189.52383582270221
  0
LINE
  5
278
  8
0
 10
42.270974592806787
 20
56.300002999999997
 30
0.0
 11
57.729025407193262
 21
56.300002999999997
 31
0.0
  0
ARC
  5
279
  8
0
 10
57.729025407193262
 20
56.100002999999951
 30
0.0
 40
0.2
 50
350.47616417729768
 51
90.0
  0
ARC
  5
27A
  8
0
 10
55.149999999999658
 20
48.00930363394275
 30
0.0
 40
0.5
 50
144.94055230536441
 51
180.0
  0
ARC
  5
280
  8
0
 10
44.850000000000357
 20
48.00930363394275
 30
0.0
 40
0.5
 50
0.0
 51
35.059447694635558
  0
ARC
  5
281
  8
0
 10
60.811851450750169
 20
59.210611515801702
 30
0.0
 40
19.0
 50
189.5238358227036
 51
215.05944769463321
  0
ARC
  5
282
  8
0
 10
45.550000000000317
 20
44.500002999999992
 30
0.0
 40
0.2
 50
180.0
 51
270.0
  0
LINE
  5
283
  8
0
 10
45.350000000000328
 20
44.500002999999992
 30
0.0
 11
45.350000000000328
 21
48.00930363394275
 31
0.0
  0
LINE
  5
284
  8
0
 10
54.649999999999658
 20
44.500002999999992
 30
0.0
 11
54.649999999999658
 21
48.00930363394275
 31
0.0
  0
ARC
  5
289
  8
0
 10
54.449999999999683
 20
44.500002999999992
 30
0.0
 40
0.2
 50
270.0
 51
0.0
  0
LINE
  5
28A
  8
0
 10
45.550000000000317
 20
44.300002999999997
 30
0.0
 11
54.449999999999683
 21
44.300002999999997
 31
0.0
  0
LINE
  5
28C
  8
1
 10
86.050000000000026
 20
74.229028407193198
 30
0.0
 11
282.55000000000001
 21
74.229028407193198
 31
0.0
  0
LINE
  5
296
  8
1
 10
50.0
 20
59.300002999999997
 30
0.0
 11
50.0
 21
41.300002999999997
 31
0.0
  0
LINE
  5
35C
  8
0
 10
279.55000000000001
 20
82.158053814386363
 30
0.0
 11
279.55000000000001
 21
66.300002999999947
 31
0.0
  0
LINE
  5
360
  8
0
 10
279.55000000000001
 20
48.00930363394275
 30
0.0
 11
89.050000000000011
 21
48.00930363394275
 31
0.0
  0
LINE
  5
361
  8
0
 10
279.55000000000001
 20
44.300002999999997
 30
0.0
 11
89.050000000000011
 21
44.300002999999997
 31
0.0
  0
LINE
  5
362
  8
0
 10
279.55000000000001
 20
56.300002999999947
 30
0.0
 11
279.55000000000001
 21
44.300002999999997
 31
0.0
  0
TEXT
  5
4C6
  8
0
 62
     3
 10
0.0
 20
0.0
 30
0.0
 40
10.0
  1
MBDES06LW
  7
STANDARD1
  0
ENDSEC
  0
EOF
