  0
SECTION
  2
HEADER
  9
$ACADVER
  1
AC1009
  9
$INSBASE
 10
18.462875565318651
 20
199.6341452723257
 30
0.0
  9
$EXTMIN
 10
0.0
 20
-1.4802182810368341
 30
0.0
  9
$EXTMAX
 10
57.013054571795863
 20
56.300001999999949
 30
0.0
  9
$LIMMIN
 10
0.0
 20
0.0
  9
$LIMMAX
 10
12.0
 20
9.0
  9
$ORTHOMODE
 70
     0
  9
$REGENMODE
 70
     1
  9
$FILLMODE
 70
     1
  9
$QTEXTMODE
 70
     0
  9
$MIRRTEXT
 70
     0
  9
$DRAGMODE
 70
     2
  9
$LTSCALE
 40
1.0
  9
$OSMODE
 70
    37
  9
$ATTMODE
 70
     1
  9
$TEXTSIZE
 40
0.2
  9
$TRACEWID
 40
0.05
  9
$TEXTSTYLE
  7
STANDARD
  9
$CLAYER
  8
0
  9
$CELTYPE
  6
BYLAYER
  9
$CECOLOR
 62
   256
  9
$DIMSCALE
 40
1.0
  9
$DIMASZ
 40
1.0
  9
$DIMEXO
 40
2.54
  9
$DIMDLI
 40
0.38
  9
$DIMRND
 40
0.0
  9
$DIMDLE
 40
0.0
  9
$DIMEXE
 40
2.54
  9
$DIMTP
 40
0.0
  9
$DIMTM
 40
0.0
  9
$DIMTXT
 40
3.2000000000000002
  9
$DIMCEN
 40
0.09
  9
$DIMTSZ
 40
0.0
  9
$DIMTOL
 70
     0
  9
$DIMLIM
 70
     0
  9
$DIMTIH
 70
     0
  9
$DIMTOH
 70
     0
  9
$DIMSE1
 70
     0
  9
$DIMSE2
 70
     0
  9
$DIMTAD
 70
     1
  9
$DIMZIN
 70
     0
  9
$DIMBLK
  1

  9
$DIMASO
 70
     1
  9
$DIMSHO
 70
     0
  9
$DIMPOST
  1

  9
$DIMAPOST
  1

  9
$DIMALT
 70
     0
  9
$DIMALTD
 70
     2
  9
$DIMALTF
 40
25.399999999999999
  9
$DIMLFAC
 40
1.0
  9
$DIMTOFL
 70
     0
  9
$DIMTVP
 40
1.0
  9
$DIMTIX
 70
     0
  9
$DIMSOXD
 70
     0
  9
$DIMSAH
 70
     1
  9
$DIMBLK1
  1

  9
$DIMBLK2
  1

  9
$DIMSTYLE
  2
STANDARD
  9
$DIMCLRD
 70
     0
  9
$DIMCLRE
 70
     0
  9
$DIMCLRT
 70
     0
  9
$DIMTFAC
 40
1.0
  9
$DIMGAP
 40
1.6000000000000001
  9
$LUNITS
 70
     2
  9
$LUPREC
 70
     4
  9
$SKETCHINC
 40
0.1
  9
$FILLETRAD
 40
0.0
  9
$AUNITS
 70
     0
  9
$AUPREC
 70
     0
  9
$MENU
  1
.
  9
$ELEVATION
 40
0.0
  9
$PELEVATION
 40
0.0
  9
$THICKNESS
 40
0.0
  9
$LIMCHECK
 70
     0
  9
$BLIPMODE
 70
     0
  9
$CHAMFERA
 40
0.0
  9
$CHAMFERB
 40
0.0
  9
$SKPOLY
 70
     0
  9
$TDCREATE
 40
2453173.4709223039
  9
$TDUPDATE
 40
2458824.5996029861
  9
$TDINDWG
 40
0.3905520833
  9
$TDUSRTIMER
 40
0.3905520833
  9
$USRTIMER
 70
     1
  9
$ANGBASE
 50
0.0
  9
$ANGDIR
 70
     0
  9
$PDMODE
 70
     0
  9
$PDSIZE
 40
0.0
  9
$PLINEWID
 40
0.0
  9
$COORDS
 70
     1
  9
$SPLFRAME
 70
     0
  9
$SPLINETYPE
 70
     6
  9
$SPLINESEGS
 70
     8
  9
$ATTDIA
 70
     0
  9
$ATTREQ
 70
     1
  9
$HANDLING
 70
     1
  9
$HANDSEED
  5
1F2
  9
$SURFTAB1
 70
     6
  9
$SURFTAB2
 70
     6
  9
$SURFTYPE
 70
     6
  9
$SURFU
 70
     6
  9
$SURFV
 70
     6
  9
$UCSNAME
  2

  9
$UCSORG
 10
0.0
 20
0.0
 30
0.0
  9
$UCSXDIR
 10
1.0
 20
0.0
 30
0.0
  9
$UCSYDIR
 10
0.0
 20
1.0
 30
0.0
  9
$PUCSNAME
  2

  9
$PUCSORG
 10
0.0
 20
0.0
 30
0.0
  9
$PUCSXDIR
 10
1.0
 20
0.0
 30
0.0
  9
$PUCSYDIR
 10
0.0
 20
1.0
 30
0.0
  9
$USERI1
 70
     0
  9
$USERI2
 70
     0
  9
$USERI3
 70
     0
  9
$USERI4
 70
     0
  9
$USERI5
 70
     0
  9
$USERR1
 40
0.0
  9
$USERR2
 40
0.0
  9
$USERR3
 40
0.0
  9
$USERR4
 40
0.0
  9
$USERR5
 40
0.0
  9
$WORLDVIEW
 70
     1
  9
$SHADEDGE
 70
     3
  9
$SHADEDIF
 70
    70
  9
$TILEMODE
 70
     1
  9
$MAXACTVP
 70
    64
  9
$PLIMCHECK
 70
     0
  9
$PEXTMIN
 10
1.0000000000000000E+020
 20
1.0000000000000000E+020
 30
1.0000000000000000E+020
  9
$PEXTMAX
 10
-1.0000000000000000E+020
 20
-1.0000000000000000E+020
 30
-1.0000000000000000E+020
  9
$PLIMMIN
 10
0.0
 20
0.0
  9
$PLIMMAX
 10
12.0
 20
9.0
  9
$UNITMODE
 70
     0
  9
$VISRETAIN
 70
     1
  9
$PLINEGEN
 70
     0
  9
$PSLTSCALE
 70
     1
  0
ENDSEC
  0
SECTION
  2
TABLES
  0
TABLE
  2
VPORT
 70
     1
  0
VPORT
  2
*ACTIVE
 70
     0
 10
0.0
 20
0.0
 11
1.0
 21
1.0
 12
28.506527551393759
 22
30.88804449490064
 13
0.0
 23
0.0
 14
1.0
 24
1.0
 15
0.0
 25
0.0
 16
0.0
 26
0.0
 36
1.0
 17
0.0
 27
0.0
 37
0.0
 40
65.216902009360354
 41
2.3366214549938338
 42
50.0
 43
0.0
 44
0.0
 50
0.0
 51
0.0
 71
     0
 72
   100
 73
     1
 74
     1
 75
     0
 76
     0
 77
     0
 78
     0
  0
ENDTAB
  0
TABLE
  2
LTYPE
 70
     4
  0
LTYPE
  2
CONTINUOUS
 70
     0
  3
Solid line
 72
    65
 73
     0
 40
0.0
  0
LTYPE
  2
CENTER
 70
     0
  3
Center ____ _ ____ _ ____ _ ____ _ ____ _ ____
 72
    65
 73
     4
 40
12.0
 49
7.5
 49
-1.5
 49
1.5
 49
-1.5
  0
LTYPE
  2
HIDDEN
 70
     0
  3
Hidden __ __ __ __ __ __ __ __ __ __ __ __ __ _
 72
    65
 73
     2
 40
4.5
 49
3.0
 49
-1.5
  0
LTYPE
  2
PHANTOM2
 70
     0
  3
___ _ _ ___ _ _ ___ _ _ ___ _ _
 72
    65
 73
     6
 40
1.25
 49
0.625
 49
-0.125
 49
0.125
 49
-0.125
 49
0.125
 49
-0.125
  0
ENDTAB
  0
TABLE
  2
LAYER
 70
     4
  0
LAYER
  2
0
 70
     0
 62
     7
  6
CONTINUOUS
  0
LAYER
  2
1
 70
     0
 62
     1
  6
CENTER
  0
LAYER
  2
2
 70
     0
 62
     2
  6
HIDDEN
  0
LAYER
  2
3
 70
     0
 62
     3
  6
CONTINUOUS
  0
ENDTAB
  0
TABLE
  2
STYLE
 70
     2
  0
STYLE
  2
STANDARD
 70
     0
 40
0.0
 41
1.0
 50
0.0
 71
     0
 42
0.2
  3
simplex.shx
  4
bigfont.shx
  0
STYLE
  2
STANDARD1
 70
     0
 40
0.0
 41
1.0
 50
0.0
 71
     0
 42
3.0
  3
txt
  4

  0
ENDTAB
  0
TABLE
  2
VIEW
 70
     0
  0
ENDTAB
  0
TABLE
  2
UCS
 70
     0
  0
ENDTAB
  0
TABLE
  2
APPID
 70
     4
  0
APPID
  2
ACAD
 70
     0
  0
APPID
  2
ACAD_MLEADERVER
 70
     0
  0
APPID
  2
ACAD_NAV_VCDISPLAY
 70
     0
  0
APPID
  2
ACAD_EXEMPT_FROM_CAD_STANDARDS
 70
     0
  0
ENDTAB
  0
TABLE
  2
DIMSTYLE
 70
     1
  0
DIMSTYLE
  2
STANDARD
 70
     0
  3

  4

  5

  6

  7

 40
1.0
 41
0.18
 42
0.0625
 43
0.38
 44
0.18
 45
0.0
 46
0.0
 47
0.0
 48
0.0
140
0.18
141
0.09
142
0.0
143
25.399999999999999
144
1.0
145
0.0
146
1.0
147
0.09
 71
     0
 72
     0
 73
     1
 74
     1
 75
     0
 76
     0
 77
     0
 78
     0
170
     0
171
     2
172
     0
173
     0
174
     0
175
     0
176
     0
177
     0
178
     0
  0
ENDTAB
  0
ENDSEC
  0
SECTION
  2
BLOCKS
  0
BLOCK
  8
0
  2
$MODEL_SPACE
 70
     0
 10
0.0
 20
0.0
 30
0.0
  3
$MODEL_SPACE
  1

  0
ENDBLK
  5
9
  8
0
  0
BLOCK
 67
     1
  8
0
  2
$PAPER_SPACE
 70
     0
 10
0.0
 20
0.0
 30
0.0
  3
$PAPER_SPACE
  1

  0
ENDBLK
  5
E
 67
     1
  8
0
  0
ENDSEC
  0
SECTION
  2
ENTITIES
  0
LINE
  5
28
  8
0
 10
26.900528764186731
 20
46.900001999999937
 30
0.0
 11
29.181068486759269
 21
50.850001999999961
 31
0.0
  0
LINE
  5
29
  8
0
 10
22.33946426229522
 20
46.900001999999937
 30
0.0
 11
26.900528764186731
 21
46.900001999999937
 31
0.0
  0
LINE
  5
2A
  8
0
 10
20.058932509457861
 20
50.850001999999961
 30
0.0
 11
22.33946426229522
 21
46.900001999999937
 31
0.0
  0
LINE
  5
2B
  8
0
 10
22.33946426229522
 20
54.800001999999949
 30
0.0
 11
20.058932509457861
 21
50.850001999999961
 31
0.0
  0
LINE
  5
2C
  8
0
 10
26.900528764186731
 20
54.800001999999949
 30
0.0
 11
22.33946426229522
 21
54.800001999999949
 31
0.0
  0
LINE
  5
2D
  8
0
 10
29.181068486759269
 20
50.850001999999961
 30
0.0
 11
26.900528764186731
 21
54.800001999999949
 31
0.0
  0
LINE
  5
2E
  8
2
 10
22.220000000000081
 20
31.599998999999968
 30
0.0
 11
22.220000000000081
 21
31.100001999999961
 31
0.0
  0
LINE
  5
2F
  8
2
 10
27.020000000000099
 20
31.599998999999968
 30
0.0
 11
27.020000000000099
 21
31.100001999999961
 31
0.0
  0
LINE
  5
30
  8
2
 10
45.413055571795887
 20
48.450114395964611
 30
0.0
 11
45.913055571795887
 21
48.450114395964647
 31
0.0
  0
LINE
  5
31
  8
2
 10
45.413055571795887
 20
53.25011439596463
 30
0.0
 11
45.913055571795887
 21
53.25011439596463
 31
0.0
  0
LINE
  5
32
  8
1
 10
24.620000000000118
 20
35.400001999999937
 30
0.0
 11
24.620000000000118
 21
29.600001999999961
 31
0.0
  0
LINE
  5
35
  8
1
 10
25.00000000000011
 20
36.099998999999968
 30
0.0
 11
25.0
 21
20.0
 31
0.0
  0
LINE
  5
36
  8
0
 10
22.999996200000108
 20
22.399998999999919
 30
0.0
 11
22.999996200000108
 21
31.100001999999961
 31
0.0
  0
LINE
  5
37
  8
0
 10
26.999996200000059
 20
22.39999899999998
 30
0.0
 11
26.999996200000059
 21
31.100001999999961
 31
0.0
  0
LINE
  5
38
  8
0
 10
26.19999619999999
 20
21.599998999999968
 30
0.0
 11
23.79999620000007
 21
21.599998999999968
 31
0.0
  0
LINE
  5
39
  8
0
 10
26.999996200000059
 20
22.39999899999998
 30
0.0
 11
26.19999619999999
 21
21.599998999999968
 31
0.0
  0
LINE
  5
3A
  8
0
 10
22.999996200000108
 20
22.399998999999919
 30
0.0
 11
26.999996200000059
 21
22.39999899999998
 31
0.0
  0
LINE
  5
3B
  8
2
 10
26.999883804035392
 20
31.099998999999968
 30
0.0
 11
22.999883804035392
 21
31.099998999999968
 31
0.0
  0
LINE
  5
3C
  8
3
 10
26.620996199998672
 20
31.09999899999994
 30
0.0
 11
26.620996199998672
 21
22.020998999998572
 31
0.0
  0
LINE
  5
3E
  8
2
 10
26.620883804034008
 20
31.099998999999968
 30
0.0
 11
26.90955893862883
 21
31.599998999999968
 31
0.0
  0
LINE
  5
3F
  8
2
 10
23.378883804036771
 20
31.099998999999968
 30
0.0
 11
23.090208669441949
 21
31.599998999999968
 31
0.0
  0
LINE
  5
40
  8
3
 10
23.378996200001438
 20
31.099998999999968
 30
0.0
 11
23.378996200001438
 21
22.020998999998572
 31
0.0
  0
LINE
  5
41
  8
0
 10
22.999996200000059
 20
22.39999899999998
 30
0.0
 11
23.79999620000007
 21
21.599998999999968
 31
0.0
  0
LINE
  5
42
  8
0
 10
21.87002914400307
 20
34.599998999999968
 30
0.0
 11
27.37002914400307
 21
34.599998999999968
 31
0.0
  0
LINE
  5
43
  8
0
 10
27.37002914400307
 20
34.599998999999968
 30
0.0
 11
27.37002914400307
 21
33.900001999999979
 31
0.0
  0
LINE
  5
44
  8
0
 10
21.87002914400307
 20
33.900001999999979
 30
0.0
 11
21.87002914400307
 21
34.599998999999968
 31
0.0
  0
LINE
  5
45
  8
2
 10
21.870029144003009
 20
31.599998999999968
 30
0.0
 11
21.87002914400307
 21
33.900001999999979
 31
0.0
  0
LINE
  5
46
  8
2
 10
21.870029144003009
 20
31.599998999999968
 30
0.0
 11
27.37002914400302
 21
31.599998999999968
 31
0.0
  0
LINE
  5
47
  8
2
 10
27.37002914400302
 20
31.599998999999968
 30
0.0
 11
27.37002914400307
 21
33.900001999999979
 31
0.0
  0
LINE
  5
48
  8
0
 10
22.33946426229522
 20
33.900002000000001
 30
0.0
 11
22.33946426229522
 21
31.100001999999961
 31
0.0
  0
LINE
  5
49
  8
0
 10
26.900528764186792
 20
33.900001999999979
 30
0.0
 11
26.900528764186731
 21
31.100001999999929
 31
0.0
  0
LINE
  5
4A
  8
0
 10
20.05899740124687
 20
31.100001999999961
 30
0.0
 11
29.181068486759269
 21
31.100001999999961
 31
0.0
  0
LINE
  5
4B
  8
0
 10
20.05899740124687
 20
33.900001999999979
 30
0.0
 11
29.181068486759269
 21
33.900001999999979
 31
0.0
  0
LINE
  5
4C
  8
0
 10
29.181068486759269
 20
33.900002000000001
 30
0.0
 11
29.181068486759269
 21
31.100001999999961
 31
0.0
  0
LINE
  5
4D
  8
0
 10
20.05899740124687
 20
33.900002000000001
 30
0.0
 11
20.05899740124687
 21
31.100001999999961
 31
0.0
  0
LINE
  5
4E
  8
0
 10
42.413055571795887
 20
48.100110595964622
 30
0.0
 11
42.413055571795887
 21
53.600110595964622
 31
0.0
  0
LINE
  5
4F
  8
0
 10
54.61305557179594
 20
48.850110595964679
 30
0.0
 11
45.913055571795887
 21
48.850110595964679
 31
0.0
  0
LINE
  5
50
  8
0
 10
54.613055571795819
 20
52.850110595964651
 30
0.0
 11
45.913055571795887
 21
52.850110595964651
 31
0.0
  0
LINE
  5
51
  8
0
 10
55.413055571795887
 20
52.050110595964611
 30
0.0
 11
55.413055571795887
 21
49.650110595964627
 31
0.0
  0
LINE
  5
52
  8
0
 10
54.613055571795883
 20
52.850110595964622
 30
0.0
 11
55.413055571795887
 21
52.050110595964611
 31
0.0
  0
LINE
  5
53
  8
0
 10
54.61305557179594
 20
48.850110595964679
 30
0.0
 11
54.613055571795819
 21
52.850110595964622
 31
0.0
  0
LINE
  5
54
  8
2
 10
45.913055571795887
 20
52.850110595964622
 30
0.0
 11
45.913055571795887
 21
48.850110595964622
 31
0.0
  0
LINE
  5
55
  8
3
 10
45.913055571795887
 20
52.471110595963239
 30
0.0
 11
54.992055571797273
 21
52.471110595963239
 31
0.0
  0
LINE
  5
56
  8
2
 10
45.913055571795887
 20
52.471110595963239
 30
0.0
 11
45.413055571795887
 21
52.759785730558058
 31
0.0
  0
LINE
  5
57
  8
2
 10
45.913055571795887
 20
49.229110595965999
 30
0.0
 11
45.413055571795887
 21
48.94043546137118
 31
0.0
  0
LINE
  5
58
  8
3
 10
45.913055571795887
 20
49.229110595965999
 30
0.0
 11
54.992055571797273
 21
49.229110595965999
 31
0.0
  0
LINE
  5
59
  8
0
 10
54.613055571795883
 20
48.850110595964622
 30
0.0
 11
55.413055571795887
 21
49.650110595964627
 31
0.0
  0
LINE
  5
5A
  8
0
 10
43.11305257179589
 20
50.850226791929352
 30
0.0
 11
45.913055571795887
 21
50.850114395964617
 31
0.0
  0
LINE
  5
5B
  8
0
 10
43.11305257179589
 20
46.900001999999922
 30
0.0
 11
45.913055571795887
 21
46.900001999999922
 31
0.0
  0
LINE
  5
5C
  8
0
 10
43.11305257179589
 20
54.800001999999921
 30
0.0
 11
45.913055571795887
 21
54.800001999999949
 31
0.0
  0
LINE
  5
5D
  8
1
 10
25.00000000000011
 20
53.841808395964648
 30
0.0
 11
25.000000000000121
 21
47.841808395964648
 31
0.0
  0
CIRCLE
  5
5E
  8
0
 10
24.620000000000118
 20
50.850114395964653
 30
0.0
 40
2.7499962
  0
LINE
  5
5F
  8
0
 10
42.413055571795887
 20
53.600110595964622
 30
0.0
 11
43.11305257179589
 21
53.600110595964622
 31
0.0
  0
LINE
  5
60
  8
0
 10
43.11305257179589
 20
48.100110595964622
 30
0.0
 11
42.413055571795887
 21
48.100110595964622
 31
0.0
  0
LINE
  5
61
  8
2
 10
45.413055571795887
 20
48.100110595964622
 30
0.0
 11
43.11305257179589
 21
48.100110595964622
 31
0.0
  0
LINE
  5
62
  8
2
 10
45.413055571795887
 20
48.100110595964622
 30
0.0
 11
45.413055571795887
 21
53.600110595964622
 31
0.0
  0
LINE
  5
63
  8
2
 10
45.413055571795887
 20
53.600110595964622
 30
0.0
 11
43.11305257179589
 21
53.600110595964622
 31
0.0
  0
LINE
  5
64
  8
1
 10
40.913055571795887
 20
50.850114395964653
 30
0.0
 11
57.013054571795863
 21
50.850114395964617
 31
0.0
  0
LINE
  5
65
  8
0
 10
43.11305257179589
 20
46.900001999999922
 30
0.0
 11
43.11305257179589
 21
54.800001999999893
 31
0.0
  0
LINE
  5
66
  8
0
 10
45.913055571795887
 20
46.900001999999922
 30
0.0
 11
45.913055571795887
 21
54.800001999999893
 31
0.0
  0
LINE
  5
67
  8
0
 10
26.710626000000111
 20
50.841818395964651
 30
0.0
 11
25.844596000000141
 21
52.341808395964648
 31
0.0
  0
LINE
  5
68
  8
0
 10
25.844606000000109
 20
49.341818395964651
 30
0.0
 11
26.710636000000139
 21
50.841814395964661
 31
0.0
  0
LINE
  5
69
  8
0
 10
23.24651600000016
 20
50.841818395964651
 30
0.0
 11
24.112546000000119
 21
49.34181539596463
 31
0.0
  0
LINE
  5
6A
  8
0
 10
24.112556000000161
 20
52.341818395964651
 30
0.0
 11
23.246536000000159
 21
50.841818395964651
 31
0.0
  0
LINE
  5
6B
  8
0
 10
24.112566000000129
 20
49.341808395964641
 30
0.0
 11
25.844606000000109
 21
49.341808395964641
 31
0.0
  0
LINE
  5
6C
  8
0
 10
24.112556000000161
 20
52.341808395964648
 30
0.0
 11
25.844596000000141
 21
52.341808395964648
 31
0.0
  0
LINE
  5
6D
  8
1
 10
30.913055571795901
 20
50.850114395964653
 30
0.0
 11
18.326946937436389
 21
50.850114395964653
 31
0.0
  0
LINE
  5
6E
  8
1
 10
24.620000000000118
 20
56.300001999999949
 30
0.0
 11
24.620000000000118
 21
45.400001999999937
 31
0.0
  0
LINE
  5
92
  8
2
 10
45.913055571795887
 20
52.850110595964651
 30
0.0
 11
45.413055571795887
 21
52.850110595964651
 31
0.0
  0
LINE
  5
93
  8
2
 10
45.913055571795887
 20
48.850110595964622
 30
0.0
 11
45.413055571795887
 21
48.850110595964622
 31
0.0
  0
LINE
  5
94
  8
2
 10
26.999883804035392
 20
31.099998999999968
 30
0.0
 11
26.999883804035399
 21
31.599998999999968
 31
0.0
  0
LINE
  5
95
  8
2
 10
22.999883804035392
 20
31.099998999999968
 30
0.0
 11
22.999883804035399
 21
31.599998999999968
 31
0.0
  0
TEXT
  5
141
  8
0
 62
     3
 10
0.0
 20
0.0
 30
0.0
 40
5.0
  1
MBFC04-SUS
  7
STANDARD1
  0
ENDSEC
  0
EOF
