  0
SECTION
  2
HEADER
  9
$ACADVER
  1
AC1009
  9
$INSBASE
 10
0.0
 20
0.0
 30
0.0
  9
$EXTMIN
 10
0.0
 20
-1.4802182810368341
 30
0.0
  9
$EXTMAX
 10
76.8597410277427
 20
74.399979949558656
 30
0.0
  9
$LIMMIN
 10
0.0
 20
0.0
  9
$LIMMAX
 10
12.0
 20
9.0
  9
$ORTHOMODE
 70
     1
  9
$REGENMODE
 70
     1
  9
$FILLMODE
 70
     1
  9
$QTEXTMODE
 70
     0
  9
$MIRRTEXT
 70
     0
  9
$DRAGMODE
 70
     2
  9
$LTSCALE
 40
1.0
  9
$OSMODE
 70
    37
  9
$ATTMODE
 70
     1
  9
$TEXTSIZE
 40
0.2
  9
$TRACEWID
 40
0.05
  9
$TEXTSTYLE
  7
STANDARD
  9
$CLAYER
  8
0
  9
$CELTYPE
  6
BYLAYER
  9
$CECOLOR
 62
   256
  9
$DIMSCALE
 40
1.0
  9
$DIMASZ
 40
1.0
  9
$DIMEXO
 40
2.54
  9
$DIMDLI
 40
0.38
  9
$DIMRND
 40
0.0
  9
$DIMDLE
 40
0.0
  9
$DIMEXE
 40
2.54
  9
$DIMTP
 40
0.0
  9
$DIMTM
 40
0.0
  9
$DIMTXT
 40
3.2000000000000002
  9
$DIMCEN
 40
0.09
  9
$DIMTSZ
 40
0.0
  9
$DIMTOL
 70
     0
  9
$DIMLIM
 70
     0
  9
$DIMTIH
 70
     0
  9
$DIMTOH
 70
     0
  9
$DIMSE1
 70
     0
  9
$DIMSE2
 70
     0
  9
$DIMTAD
 70
     1
  9
$DIMZIN
 70
     8
  9
$DIMBLK
  1

  9
$DIMASO
 70
     1
  9
$DIMSHO
 70
     0
  9
$DIMPOST
  1

  9
$DIMAPOST
  1

  9
$DIMALT
 70
     0
  9
$DIMALTD
 70
     2
  9
$DIMALTF
 40
25.399999999999999
  9
$DIMLFAC
 40
1.0
  9
$DIMTOFL
 70
     0
  9
$DIMTVP
 40
1.0
  9
$DIMTIX
 70
     0
  9
$DIMSOXD
 70
     0
  9
$DIMSAH
 70
     0
  9
$DIMBLK1
  1

  9
$DIMBLK2
  1

  9
$DIMSTYLE
  2
STANDARD
  9
$DIMCLRD
 70
     0
  9
$DIMCLRE
 70
     0
  9
$DIMCLRT
 70
     0
  9
$DIMTFAC
 40
1.0
  9
$DIMGAP
 40
1.6000000000000001
  9
$LUNITS
 70
     2
  9
$LUPREC
 70
     2
  9
$SKETCHINC
 40
0.1
  9
$FILLETRAD
 40
0.0
  9
$AUNITS
 70
     0
  9
$AUPREC
 70
     0
  9
$MENU
  1
.
  9
$ELEVATION
 40
0.0
  9
$PELEVATION
 40
0.0
  9
$THICKNESS
 40
0.0
  9
$LIMCHECK
 70
     0
  9
$BLIPMODE
 70
     0
  9
$CHAMFERA
 40
0.0
  9
$CHAMFERB
 40
0.0
  9
$SKPOLY
 70
     0
  9
$TDCREATE
 40
2453173.4709223039
  9
$TDUPDATE
 40
2459278.6596531831
  9
$TDINDWG
 40
0.3984855903
  9
$TDUSRTIMER
 40
0.3984855903
  9
$USRTIMER
 70
     1
  9
$ANGBASE
 50
0.0
  9
$ANGDIR
 70
     0
  9
$PDMODE
 70
     0
  9
$PDSIZE
 40
0.0
  9
$PLINEWID
 40
0.0
  9
$COORDS
 70
     1
  9
$SPLFRAME
 70
     0
  9
$SPLINETYPE
 70
     6
  9
$SPLINESEGS
 70
     8
  9
$ATTDIA
 70
     0
  9
$ATTREQ
 70
     1
  9
$HANDLING
 70
     1
  9
$HANDSEED
  5
305
  9
$SURFTAB1
 70
     6
  9
$SURFTAB2
 70
     6
  9
$SURFTYPE
 70
     6
  9
$SURFU
 70
     6
  9
$SURFV
 70
     6
  9
$UCSNAME
  2

  9
$UCSORG
 10
0.0
 20
0.0
 30
0.0
  9
$UCSXDIR
 10
1.0
 20
0.0
 30
0.0
  9
$UCSYDIR
 10
0.0
 20
1.0
 30
0.0
  9
$PUCSNAME
  2

  9
$PUCSORG
 10
0.0
 20
0.0
 30
0.0
  9
$PUCSXDIR
 10
1.0
 20
0.0
 30
0.0
  9
$PUCSYDIR
 10
0.0
 20
1.0
 30
0.0
  9
$USERI1
 70
     0
  9
$USERI2
 70
     0
  9
$USERI3
 70
     0
  9
$USERI4
 70
     0
  9
$USERI5
 70
     0
  9
$USERR1
 40
0.0
  9
$USERR2
 40
0.0
  9
$USERR3
 40
0.0
  9
$USERR4
 40
0.0
  9
$USERR5
 40
0.0
  9
$WORLDVIEW
 70
     1
  9
$SHADEDGE
 70
     3
  9
$SHADEDIF
 70
    70
  9
$TILEMODE
 70
     1
  9
$MAXACTVP
 70
    64
  9
$PLIMCHECK
 70
     0
  9
$PEXTMIN
 10
1.0000000000000000E+020
 20
1.0000000000000000E+020
 30
1.0000000000000000E+020
  9
$PEXTMAX
 10
-1.0000000000000000E+020
 20
-1.0000000000000000E+020
 30
-1.0000000000000000E+020
  9
$PLIMMIN
 10
0.0
 20
0.0
  9
$PLIMMAX
 10
12.0
 20
9.0
  9
$UNITMODE
 70
     0
  9
$VISRETAIN
 70
     1
  9
$PLINEGEN
 70
     0
  9
$PSLTSCALE
 70
     1
  0
ENDSEC
  0
SECTION
  2
TABLES
  0
TABLE
  2
VPORT
 70
     1
  0
VPORT
  2
*ACTIVE
 70
     0
 10
0.0
 20
0.0
 11
1.0
 21
1.0
 12
130.0978792822186
 22
50.0
 13
0.0
 23
0.0
 14
1.0
 24
1.0
 15
0.0
 25
0.0
 16
0.0
 26
0.0
 36
1.0
 17
0.0
 27
0.0
 37
0.0
 40
100.0
 41
2.6019575856443722
 42
50.0
 43
0.0
 44
0.0
 50
0.0
 51
0.0
 71
     0
 72
   100
 73
     1
 74
     1
 75
     0
 76
     0
 77
     0
 78
     0
  0
ENDTAB
  0
TABLE
  2
LTYPE
 70
     4
  0
LTYPE
  2
CONTINUOUS
 70
     0
  3
Solid line
 72
    65
 73
     0
 40
0.0
  0
LTYPE
  2
CENTER
 70
     0
  3
Center ____ _ ____ _ ____ _ ____ _ ____ _ ____
 72
    65
 73
     4
 40
12.0
 49
7.5
 49
-1.5
 49
1.5
 49
-1.5
  0
LTYPE
  2
HIDDEN
 70
     0
  3
Hidden __ __ __ __ __ __ __ __ __ __ __ __ __ _
 72
    65
 73
     2
 40
4.5
 49
3.0
 49
-1.5
  0
LTYPE
  2
PHANTOM2
 70
     0
  3
___ _ _ ___ _ _ ___ _ _ ___ _ _
 72
    65
 73
     6
 40
1.25
 49
0.625
 49
-0.125
 49
0.125
 49
-0.125
 49
0.125
 49
-0.125
  0
ENDTAB
  0
TABLE
  2
LAYER
 70
     4
  0
LAYER
  2
0
 70
     0
 62
     7
  6
CONTINUOUS
  0
LAYER
  2
1
 70
     0
 62
     1
  6
CENTER
  0
LAYER
  2
2
 70
     0
 62
     2
  6
HIDDEN
  0
LAYER
  2
3
 70
     0
 62
     3
  6
CONTINUOUS
  0
ENDTAB
  0
TABLE
  2
STYLE
 70
     2
  0
STYLE
  2
STANDARD
 70
     0
 40
0.0
 41
1.0
 50
0.0
 71
     0
 42
0.2
  3
simplex.shx
  4
bigfont.shx
  0
STYLE
  2
STANDARD1
 70
     0
 40
0.0
 41
1.0
 50
0.0
 71
     0
 42
3.0
  3
txt
  4

  0
ENDTAB
  0
TABLE
  2
VIEW
 70
     0
  0
ENDTAB
  0
TABLE
  2
UCS
 70
     0
  0
ENDTAB
  0
TABLE
  2
APPID
 70
     6
  0
APPID
  2
ACAD
 70
     0
  0
APPID
  2
ACAD_MLEADERVER
 70
     0
  0
APPID
  2
ACAD_EXEMPT_FROM_CAD_STANDARDS
 70
     0
  0
APPID
  2
ACAD_NAV_VCDISPLAY
 70
     0
  0
APPID
  2
ACAD_DSTYLE_DIMJAG
 70
     0
  0
APPID
  2
ACAD_DSTYLE_DIMTALN
 70
     0
  0
ENDTAB
  0
TABLE
  2
DIMSTYLE
 70
     1
  0
DIMSTYLE
  2
STANDARD
 70
     0
  3

  4

  5

  6

  7

 40
1.0
 41
0.18
 42
0.0625
 43
0.38
 44
0.18
 45
0.0
 46
0.0
 47
0.0
 48
0.0
140
0.18
141
0.09
142
0.0
143
25.399999999999999
144
1.0
145
0.0
146
1.0
147
0.09
 71
     0
 72
     0
 73
     1
 74
     1
 75
     0
 76
     0
 77
     0
 78
     0
170
     0
171
     2
172
     0
173
     0
174
     0
175
     0
176
     0
177
     0
178
     0
  0
ENDTAB
  0
ENDSEC
  0
SECTION
  2
BLOCKS
  0
BLOCK
  8
0
  2
$MODEL_SPACE
 70
     0
 10
0.0
 20
0.0
 30
0.0
  3
$MODEL_SPACE
  1

  0
ENDBLK
  5
9
  8
0
  0
BLOCK
 67
     1
  8
0
  2
$PAPER_SPACE
 70
     0
 10
0.0
 20
0.0
 30
0.0
  3
$PAPER_SPACE
  1

  0
ENDBLK
  5
E
 67
     1
  8
0
  0
ENDSEC
  0
SECTION
  2
ENTITIES
  0
LINE
  5
28
  8
0
 10
33.769806021437553
 20
56.0
 30
0.0
 11
38.3597410277427
 21
63.949989974779328
 31
0.0
  0
LINE
  5
29
  8
0
 10
24.589935006305161
 20
56.0
 30
0.0
 11
33.769806021437553
 21
56.0
 31
0.0
  0
LINE
  5
2A
  8
0
 10
20.0
 20
63.949989974779328
 30
0.0
 11
24.589935006305161
 21
56.0
 31
0.0
  0
LINE
  5
2B
  8
0
 10
24.589935006305161
 20
71.899979949558656
 30
0.0
 11
20.0
 21
63.949989974779328
 31
0.0
  0
LINE
  5
2C
  8
0
 10
33.769806021437553
 20
71.899979949558656
 30
0.0
 11
24.589935006305161
 21
71.899979949558656
 31
0.0
  0
LINE
  5
2D
  8
0
 10
38.3597410277427
 20
63.949989974779328
 30
0.0
 11
33.769806021437553
 21
71.899979949558656
 31
0.0
  0
LINE
  5
2E
  8
0
 10
30.834569511349319
 20
65.949989974779328
 30
0.0
 11
28.525169511349279
 21
65.949989974779328
 31
0.0
  0
LINE
  5
2F
  8
0
 10
31.989269511349249
 20
63.949989974779328
 30
0.0
 11
30.834569511349319
 21
65.949989974779328
 31
0.0
  0
LINE
  5
30
  8
0
 10
30.834569511349319
 20
61.949989974779328
 30
0.0
 11
31.989269511349249
 21
63.949989974779328
 31
0.0
  0
LINE
  5
31
  8
0
 10
28.525169511349279
 20
61.949989974779328
 30
0.0
 11
30.834569511349319
 21
61.949989974779328
 31
0.0
  0
LINE
  5
32
  8
0
 10
27.37045951134931
 20
63.949989974779328
 30
0.0
 11
28.525169511349279
 21
61.949989974779328
 31
0.0
  0
LINE
  5
33
  8
0
 10
28.525169511349279
 20
65.949989974779328
 30
0.0
 11
27.37045951134931
 21
63.949989974779328
 31
0.0
  0
LINE
  5
34
  8
2
 10
25.179870012610309
 20
35.799999999999969
 30
0.0
 11
25.179870012610309
 21
32.000000000000007
 31
0.0
  0
LINE
  5
35
  8
2
 10
33.179870012610309
 20
31.999999999999989
 30
0.0
 11
33.179870012610309
 21
35.799999999999969
 31
0.0
  0
LINE
  5
36
  8
2
 10
32.679870012610309
 20
30.999999999999989
 30
0.0
 11
32.679870012610309
 21
31.999999999999989
 31
0.0
  0
LINE
  5
37
  8
2
 10
26.679870012610309
 20
30.999999999999989
 30
0.0
 11
26.679870012610309
 21
31.999999999999989
 31
0.0
  0
LINE
  5
38
  8
2
 10
63.3597410277427
 20
66.949989974779328
 30
0.0
 11
62.35974102774275
 21
66.949989974779328
 31
0.0
  0
LINE
  5
39
  8
2
 10
63.359741027742757
 20
60.949989974779363
 30
0.0
 11
62.359741027742643
 21
60.949989974779363
 31
0.0
  0
LINE
  5
3A
  8
2
 10
58.559741027742682
 20
59.949989974779321
 30
0.0
 11
62.359741027742643
 21
59.949989974779299
 31
0.0
  0
LINE
  5
3B
  8
2
 10
62.35974102774275
 20
67.949989974779314
 30
0.0
 11
58.559741027742682
 21
67.949989974779314
 31
0.0
  0
LINE
  5
3C
  8
1
 10
29.679870012610309
 20
17.499999999999979
 30
0.0
 11
29.679870012610309
 21
38.499999999999993
 31
0.0
  0
LINE
  5
3F
  8
0
 10
24.589935006305161
 20
35.799999999999997
 30
0.0
 11
24.589935006305161
 21
31.000000000000011
 31
0.0
  0
LINE
  5
40
  8
0
 10
33.769806021437553
 20
35.799999999999997
 30
0.0
 11
33.769806021437553
 21
30.999999999999989
 31
0.0
  0
LINE
  5
41
  8
0
 10
20.0
 20
35.799999999999997
 30
0.0
 11
20.0
 21
31.000000000000011
 31
0.0
  0
LINE
  5
42
  8
0
 10
38.359741027742757
 20
35.799999999999997
 30
0.0
 11
38.359741027742757
 21
30.999999999999989
 31
0.0
  0
LINE
  5
43
  8
0
 10
20.0
 20
31.000000000000011
 30
0.0
 11
38.359741027742757
 21
30.999999999999989
 31
0.0
  0
LINE
  5
44
  8
2
 10
25.379870012610301
 20
30.999999999999989
 30
0.0
 11
25.379870012610301
 21
32.000000000000007
 31
0.0
  0
LINE
  5
45
  8
2
 10
32.97987001261032
 20
30.999999999999989
 30
0.0
 11
32.97987001261032
 21
31.999999999999989
 31
0.0
  0
LINE
  5
46
  8
2
 10
27.22137001261035
 20
30.999999999999989
 30
0.0
 11
26.679870012610419
 21
31.937905512298371
 31
0.0
  0
LINE
  5
47
  8
2
 10
32.138370012610437
 20
30.999999999999989
 30
0.0
 11
32.679870012610309
 21
31.937905512298371
 31
0.0
  0
LINE
  5
48
  8
0
 10
26.679870012610309
 20
31.000000000000039
 30
0.0
 11
32.679870012610309
 21
30.999999999999989
 31
0.0
  0
LINE
  5
49
  8
0
 10
26.679870012610309
 20
21.000000000000011
 30
0.0
 11
32.679870012610309
 21
20.999999999999989
 31
0.0
  0
LINE
  5
4A
  8
0
 10
27.679870012610309
 20
20.000000000000011
 30
0.0
 11
26.679870012610309
 21
21.000000000000011
 31
0.0
  0
LINE
  5
4B
  8
0
 10
32.679870012610309
 20
20.999999999999989
 30
0.0
 11
31.679870012610309
 21
19.999999999999979
 31
0.0
  0
LINE
  5
4C
  8
0
 10
32.679870012610309
 20
30.999999999999989
 30
0.0
 11
32.679870012610309
 21
20.999999999999989
 31
0.0
  0
LINE
  5
4D
  8
3
 10
32.13837001261038
 20
30.999999999999989
 30
0.0
 11
32.13837001261038
 21
20.458500000000061
 31
0.0
  0
LINE
  5
4F
  8
3
 10
27.22137001261024
 20
30.999999999999989
 30
0.0
 11
27.22137001261024
 21
20.458500000000122
 31
0.0
  0
LINE
  5
50
  8
0
 10
26.679870012610309
 20
30.999999999999989
 30
0.0
 11
26.679870012610309
 21
21.000000000000011
 31
0.0
  0
LINE
  5
51
  8
0
 10
31.679870012610309
 20
19.999999999999979
 30
0.0
 11
27.679870012610309
 21
20.000000000000011
 31
0.0
  0
LINE
  5
52
  8
0
 10
33.179870012610309
 20
35.999999999999957
 30
0.0
 11
33.179870012610309
 21
35.799999999999969
 31
0.0
  0
LINE
  5
53
  8
0
 10
25.179870012610309
 20
36.000000000000007
 30
0.0
 11
25.179870012610309
 21
35.799999999999969
 31
0.0
  0
LINE
  5
54
  8
2
 10
33.179870012610309
 20
31.999999999999989
 30
0.0
 11
25.179870012610309
 21
32.000000000000007
 31
0.0
  0
LINE
  5
55
  8
0
 10
33.179870012610309
 20
35.999999999999993
 30
0.0
 11
25.179870012610369
 21
36.000000000000007
 31
0.0
  0
LINE
  5
56
  8
0
 10
58.359741027742757
 20
67.949989974779314
 30
0.0
 11
58.359741027742643
 21
59.949989974779349
 31
0.0
  0
LINE
  5
57
  8
2
 10
62.35974102774275
 20
67.949989974779314
 30
0.0
 11
62.359741027742643
 21
59.949989974779321
 31
0.0
  0
LINE
  5
58
  8
0
 10
58.359741027742643
 20
59.949989974779299
 30
0.0
 11
58.559741027742682
 21
59.949989974779321
 31
0.0
  0
LINE
  5
59
  8
0
 10
58.359741027742757
 20
67.949989974779314
 30
0.0
 11
58.559741027742682
 21
67.949989974779314
 31
0.0
  0
LINE
  5
5A
  8
0
 10
58.559741027742682
 20
63.949989974779299
 30
0.0
 11
63.359741027742643
 21
63.949989974779299
 31
0.0
  0
LINE
  5
5B
  8
0
 10
74.3597410277427
 20
65.949989974779285
 30
0.0
 11
74.359741027742643
 21
61.949989974779328
 31
0.0
  0
LINE
  5
5C
  8
0
 10
63.359741027742757
 20
60.949989974779363
 30
0.0
 11
73.359741027742643
 21
60.949989974779328
 31
0.0
  0
LINE
  5
5D
  8
3
 10
63.3597410277427
 20
61.491489974779263
 30
0.0
 11
73.901241027742572
 21
61.491489974779221
 31
0.0
  0
LINE
  5
5E
  8
3
 10
63.3597410277427
 20
66.4084899747794
 30
0.0
 11
73.901241027742628
 21
66.4084899747794
 31
0.0
  0
LINE
  5
5F
  8
0
 10
63.3597410277427
 20
66.949989974779328
 30
0.0
 11
73.3597410277427
 21
66.949989974779299
 31
0.0
  0
LINE
  5
60
  8
0
 10
73.3597410277427
 20
66.949989974779299
 30
0.0
 11
74.3597410277427
 21
65.949989974779285
 31
0.0
  0
LINE
  5
61
  8
0
 10
74.359741027742643
 20
61.949989974779328
 30
0.0
 11
73.359741027742643
 21
60.949989974779328
 31
0.0
  0
LINE
  5
62
  8
0
 10
73.359741027742643
 20
60.949989974779328
 30
0.0
 11
73.359741027742757
 21
66.949989974779299
 31
0.0
  0
LINE
  5
63
  8
0
 10
63.359741027742643
 20
60.949989974779328
 30
0.0
 11
63.3597410277427
 21
66.949989974779328
 31
0.0
  0
LINE
  5
64
  8
2
 10
63.3597410277427
 20
66.408489974779414
 30
0.0
 11
62.421835515444279
 21
66.949989974779328
 31
0.0
  0
LINE
  5
65
  8
2
 10
63.3597410277427
 20
61.491489974779313
 30
0.0
 11
62.421835515444279
 21
60.949989974779378
 31
0.0
  0
CIRCLE
  5
67
  8
0
 10
29.179870012610309
 20
63.949989974779328
 30
0.0
 40
4.0
  0
LINE
  5
68
  8
0
 10
63.3597410277427
 20
56.0
 30
0.0
 11
63.3597410277427
 21
71.899979949558627
 31
0.0
  0
LINE
  5
69
  8
0
 10
58.559741027742682
 20
56.0
 30
0.0
 11
63.3597410277427
 21
56.0
 31
0.0
  0
LINE
  5
6A
  8
0
 10
58.559741027742682
 20
71.899979949558585
 30
0.0
 11
63.3597410277427
 21
71.899979949558627
 31
0.0
  0
LINE
  5
6B
  8
2
 10
63.3597410277427
 20
67.749989974779339
 30
0.0
 11
62.3597410277427
 21
67.749989974779339
 31
0.0
  0
LINE
  5
6C
  8
2
 10
63.3597410277427
 20
60.149989974779309
 30
0.0
 11
62.359741027742643
 21
60.149989974779281
 31
0.0
  0
LINE
  5
6D
  8
1
 10
76.8597410277427
 20
63.949989974779328
 30
0.0
 11
55.8597410277427
 21
63.949989974779328
 31
0.0
  0
LINE
  5
6E
  8
0
 10
58.559741027742682
 20
56.0
 30
0.0
 11
58.559741027742682
 21
71.899979949558627
 31
0.0
  0
LINE
  5
6F
  8
1
 10
29.179870012610309
 20
53.5
 30
0.0
 11
29.179870012610309
 21
74.399979949558656
 31
0.0
  0
LINE
  5
70
  8
1
 10
17.113247686391102
 20
63.949989974779328
 30
0.0
 11
41.246493341351588
 21
63.949989974779328
 31
0.0
  0
LINE
  5
71
  8
1
 10
29.179870012610309
 20
28.499999999999989
 30
0.0
 11
29.179870012610309
 21
38.299999999999997
 31
0.0
  0
LINE
  5
72
  8
0
 10
20.0
 20
35.799999999999997
 30
0.0
 11
38.359741027742757
 21
35.799999999999997
 31
0.0
  0
TEXT
  5
170
  8
0
 62
     3
 10
0.0
 20
0.0
 30
0.0
 40
5.0
  1
MBFC06
  7
STANDARD1
  0
LINE
  5
227
  8
1
 10
29.679870012610309
 20
68.449989974779328
 30
0.0
 11
29.679870012610309
 21
59.449989974779328
 31
0.0
  0
ENDSEC
  0
EOF
