  0
SECTION
  2
HEADER
  9
$ACADVER
  1
AC1009
  9
$INSBASE
 10
0.0
 20
0.0
 30
0.0
  9
$EXTMIN
 10
0.0
 20
-1.4802182810368341
 30
0.0
  9
$EXTMAX
 10
105.2801672367181
 20
105.399980009704
 30
0.0
  9
$LIMMIN
 10
0.0
 20
0.0
  9
$LIMMAX
 10
12.0
 20
9.0
  9
$ORTHOMODE
 70
     1
  9
$REGENMODE
 70
     1
  9
$FILLMODE
 70
     1
  9
$QTEXTMODE
 70
     0
  9
$MIRRTEXT
 70
     0
  9
$DRAGMODE
 70
     2
  9
$LTSCALE
 40
1.0
  9
$OSMODE
 70
  3071
  9
$ATTMODE
 70
     1
  9
$TEXTSIZE
 40
0.2
  9
$TRACEWID
 40
0.05
  9
$TEXTSTYLE
  7
STANDARD
  9
$CLAYER
  8
0
  9
$CELTYPE
  6
BYLAYER
  9
$CECOLOR
 62
   256
  9
$DIMSCALE
 40
1.0
  9
$DIMASZ
 40
1.0
  9
$DIMEXO
 40
2.54
  9
$DIMDLI
 40
0.38
  9
$DIMRND
 40
0.0
  9
$DIMDLE
 40
0.0
  9
$DIMEXE
 40
2.54
  9
$DIMTP
 40
0.0
  9
$DIMTM
 40
0.0
  9
$DIMTXT
 40
3.2000000000000002
  9
$DIMCEN
 40
0.09
  9
$DIMTSZ
 40
0.0
  9
$DIMTOL
 70
     0
  9
$DIMLIM
 70
     0
  9
$DIMTIH
 70
     0
  9
$DIMTOH
 70
     0
  9
$DIMSE1
 70
     0
  9
$DIMSE2
 70
     0
  9
$DIMTAD
 70
     1
  9
$DIMZIN
 70
     0
  9
$DIMBLK
  1

  9
$DIMASO
 70
     1
  9
$DIMSHO
 70
     0
  9
$DIMPOST
  1

  9
$DIMAPOST
  1

  9
$DIMALT
 70
     0
  9
$DIMALTD
 70
     2
  9
$DIMALTF
 40
25.399999999999999
  9
$DIMLFAC
 40
1.0
  9
$DIMTOFL
 70
     0
  9
$DIMTVP
 40
1.0
  9
$DIMTIX
 70
     0
  9
$DIMSOXD
 70
     0
  9
$DIMSAH
 70
     0
  9
$DIMBLK1
  1

  9
$DIMBLK2
  1

  9
$DIMSTYLE
  2
STANDARD
  9
$DIMCLRD
 70
     0
  9
$DIMCLRE
 70
     0
  9
$DIMCLRT
 70
     0
  9
$DIMTFAC
 40
1.0
  9
$DIMGAP
 40
1.6000000000000001
  9
$LUNITS
 70
     2
  9
$LUPREC
 70
     4
  9
$SKETCHINC
 40
0.1
  9
$FILLETRAD
 40
0.0
  9
$AUNITS
 70
     0
  9
$AUPREC
 70
     0
  9
$MENU
  1
.
  9
$ELEVATION
 40
0.0
  9
$PELEVATION
 40
0.0
  9
$THICKNESS
 40
0.0
  9
$LIMCHECK
 70
     0
  9
$BLIPMODE
 70
     0
  9
$CHAMFERA
 40
0.0
  9
$CHAMFERB
 40
0.0
  9
$SKPOLY
 70
     0
  9
$TDCREATE
 40
2453173.4709223039
  9
$TDUPDATE
 40
2456597.634982523
  9
$TDINDWG
 40
0.4990040509
  9
$TDUSRTIMER
 40
0.4990040509
  9
$USRTIMER
 70
     1
  9
$ANGBASE
 50
0.0
  9
$ANGDIR
 70
     0
  9
$PDMODE
 70
     0
  9
$PDSIZE
 40
0.0
  9
$PLINEWID
 40
0.0
  9
$COORDS
 70
     1
  9
$SPLFRAME
 70
     0
  9
$SPLINETYPE
 70
     6
  9
$SPLINESEGS
 70
     8
  9
$ATTDIA
 70
     0
  9
$ATTREQ
 70
     1
  9
$HANDLING
 70
     1
  9
$HANDSEED
  5
777
  9
$SURFTAB1
 70
     6
  9
$SURFTAB2
 70
     6
  9
$SURFTYPE
 70
     6
  9
$SURFU
 70
     6
  9
$SURFV
 70
     6
  9
$UCSNAME
  2

  9
$UCSORG
 10
0.0
 20
0.0
 30
0.0
  9
$UCSXDIR
 10
1.0
 20
0.0
 30
0.0
  9
$UCSYDIR
 10
0.0
 20
1.0
 30
0.0
  9
$PUCSNAME
  2

  9
$PUCSORG
 10
0.0
 20
0.0
 30
0.0
  9
$PUCSXDIR
 10
1.0
 20
0.0
 30
0.0
  9
$PUCSYDIR
 10
0.0
 20
1.0
 30
0.0
  9
$USERI1
 70
     0
  9
$USERI2
 70
     0
  9
$USERI3
 70
     0
  9
$USERI4
 70
     0
  9
$USERI5
 70
     0
  9
$USERR1
 40
0.0
  9
$USERR2
 40
0.0
  9
$USERR3
 40
0.0
  9
$USERR4
 40
0.0
  9
$USERR5
 40
0.0
  9
$WORLDVIEW
 70
     1
  9
$SHADEDGE
 70
     3
  9
$SHADEDIF
 70
    70
  9
$TILEMODE
 70
     1
  9
$MAXACTVP
 70
    64
  9
$PLIMCHECK
 70
     0
  9
$PEXTMIN
 10
1.0000000000000000E+020
 20
1.0000000000000000E+020
 30
1.0000000000000000E+020
  9
$PEXTMAX
 10
-1.0000000000000000E+020
 20
-1.0000000000000000E+020
 30
-1.0000000000000000E+020
  9
$PLIMMIN
 10
0.0
 20
0.0
  9
$PLIMMAX
 10
12.0
 20
9.0
  9
$UNITMODE
 70
     0
  9
$VISRETAIN
 70
     1
  9
$PLINEGEN
 70
     0
  9
$PSLTSCALE
 70
     1
  0
ENDSEC
  0
SECTION
  2
TABLES
  0
TABLE
  2
VPORT
 70
     1
  0
VPORT
  2
*ACTIVE
 70
     0
 10
0.0
 20
0.0
 11
1.0
 21
1.0
 12
52.640083863483582
 22
52.191570717843149
 13
0.0
 23
0.0
 14
1.0
 24
1.0
 15
0.0
 25
0.0
 16
0.0
 26
0.0
 36
1.0
 17
0.0
 27
0.0
 37
0.0
 40
108.5773770310104
 41
2.304913294797688
 42
50.0
 43
0.0
 44
0.0
 50
0.0
 51
0.0
 71
     0
 72
   100
 73
     1
 74
     1
 75
     0
 76
     0
 77
     0
 78
     0
  0
ENDTAB
  0
TABLE
  2
LTYPE
 70
     4
  0
LTYPE
  2
CONTINUOUS
 70
     0
  3
Solid line
 72
    65
 73
     0
 40
0.0
  0
LTYPE
  2
CENTER
 70
     0
  3
Center ____ _ ____ _ ____ _ ____ _ ____ _ ____
 72
    65
 73
     4
 40
12.0
 49
7.5
 49
-1.5
 49
1.5
 49
-1.5
  0
LTYPE
  2
HIDDEN
 70
     0
  3
Hidden __ __ __ __ __ __ __ __ __ __ __ __ __ _
 72
    65
 73
     2
 40
4.5
 49
3.0
 49
-1.5
  0
LTYPE
  2
PHANTOM2
 70
     0
  3
___ _ _ ___ _ _ ___ _ _ ___ _ _
 72
    65
 73
     6
 40
1.25
 49
0.625
 49
-0.125
 49
0.125
 49
-0.125
 49
0.125
 49
-0.125
  0
ENDTAB
  0
TABLE
  2
LAYER
 70
     5
  0
LAYER
  2
0
 70
     0
 62
     7
  6
CONTINUOUS
  0
LAYER
  2
1
 70
     0
 62
     1
  6
CENTER
  0
LAYER
  2
2
 70
     0
 62
     2
  6
HIDDEN
  0
LAYER
  2
3
 70
     0
 62
     3
  6
CONTINUOUS
  0
LAYER
  2
DEFPOINTS
 70
     0
 62
     7
  6
CONTINUOUS
  0
ENDTAB
  0
TABLE
  2
STYLE
 70
     2
  0
STYLE
  2
STANDARD
 70
     0
 40
0.0
 41
1.0
 50
0.0
 71
     0
 42
0.2
  3
simplex.shx
  4
bigfont.shx
  0
STYLE
  2
STANDARD1
 70
     0
 40
0.0
 41
1.0
 50
0.0
 71
     0
 42
3.0
  3
txt
  4

  0
ENDTAB
  0
TABLE
  2
VIEW
 70
     0
  0
ENDTAB
  0
TABLE
  2
UCS
 70
     0
  0
ENDTAB
  0
TABLE
  2
APPID
 70
     6
  0
APPID
  2
ACAD
 70
     0
  0
APPID
  2
ACAD_DSTYLE_DIMJAG
 70
     0
  0
APPID
  2
ACAD_DSTYLE_DIMTALN
 70
     0
  0
APPID
  2
ACAD_EXEMPT_FROM_CAD_STANDARDS
 70
     0
  0
APPID
  2
ACAD_MLEADERVER
 70
     0
  0
APPID
  2
ACAD_NAV_VCDISPLAY
 70
     0
  0
ENDTAB
  0
TABLE
  2
DIMSTYLE
 70
     1
  0
DIMSTYLE
  2
STANDARD
 70
     0
  3

  4

  5

  6

  7

 40
1.0
 41
0.18
 42
0.0625
 43
0.38
 44
0.18
 45
0.0
 46
0.0
 47
0.0
 48
0.0
140
0.18
141
0.09
142
0.0
143
25.399999999999999
144
1.0
145
0.0
146
1.0
147
0.09
 71
     0
 72
     0
 73
     1
 74
     1
 75
     0
 76
     0
 77
     0
 78
     0
170
     0
171
     2
172
     0
173
     0
174
     0
175
     0
176
     0
177
     0
178
     0
  0
ENDTAB
  0
ENDSEC
  0
SECTION
  2
BLOCKS
  0
BLOCK
  8
0
  2
$MODEL_SPACE
 70
     0
 10
0.0
 20
0.0
 30
0.0
  3
$MODEL_SPACE
  1

  0
ENDBLK
  5
9
  8
0
  0
BLOCK
 67
     1
  8
0
  2
$PAPER_SPACE
 70
     0
 10
0.0
 20
0.0
 30
0.0
  3
$PAPER_SPACE
  1

  0
ENDBLK
  5
E
 67
     1
  8
0
  0
ENDSEC
  0
SECTION
  2
ENTITIES
  0
LINE
  5
465
  8
0
 10
55.446710246724933
 20
82.299999999999983
 30
0.0
 11
61.393415496603609
 21
92.599990004852032
 31
0.0
  0
LINE
  5
466
  8
0
 10
43.553290751334323
 20
82.299999999999983
 30
0.0
 11
55.446710246724933
 21
82.299999999999983
 31
0.0
  0
LINE
  5
467
  8
0
 10
37.606584501940802
 20
92.599990004852032
 30
0.0
 11
43.553290751334323
 21
82.299999999999983
 31
0.0
  0
LINE
  5
468
  8
0
 10
43.553290751334323
 20
102.89998000970409
 30
0.0
 11
37.606584501940802
 21
92.599990004852032
 31
0.0
  0
LINE
  5
469
  8
0
 10
55.446710246724933
 20
102.89998000970409
 30
0.0
 11
43.553290751334323
 21
102.89998000970409
 31
0.0
  0
LINE
  5
46A
  8
0
 10
61.393415496603609
 20
92.599990004852032
 30
0.0
 11
55.446710246724933
 21
102.89998000970409
 31
0.0
  0
LINE
  5
46B
  8
0
 10
51.443370000000073
 20
95.099990004852032
 30
0.0
 11
48.556620000000059
 21
95.099990004852032
 31
0.0
  0
LINE
  5
46C
  8
0
 10
52.886750000000013
 20
92.599990004852032
 30
0.0
 11
51.443370000000073
 21
95.099990004852032
 31
0.0
  0
LINE
  5
46D
  8
0
 10
51.443370000000073
 20
90.099990004852032
 30
0.0
 11
52.886750000000013
 21
92.599990004852032
 31
0.0
  0
LINE
  5
46E
  8
0
 10
48.556620000000059
 20
90.099990004852032
 30
0.0
 11
51.443370000000073
 21
90.099990004852032
 31
0.0
  0
LINE
  5
46F
  8
0
 10
47.113249999999987
 20
92.599990004852032
 30
0.0
 11
48.556620000000059
 21
90.099990004852032
 31
0.0
  0
LINE
  5
470
  8
0
 10
48.556620000000059
 20
95.099990004852032
 30
0.0
 11
47.113249999999987
 21
92.599990004852032
 31
0.0
  0
LINE
  5
471
  8
2
 10
46.00000000000005
 20
57.5
 30
0.0
 11
46.00000000000005
 21
58.500000000000028
 31
0.0
  0
LINE
  5
472
  8
2
 10
54.0
 20
57.5
 30
0.0
 11
54.0
 21
58.499999999999972
 31
0.0
  0
LINE
  5
473
  8
2
 10
54.650000000000027
 20
58.499999999999972
 30
0.0
 11
54.650000000000027
 21
63.499999999999972
 31
0.0
  0
LINE
  5
474
  8
2
 10
44.350000000000023
 20
63.50000000000005
 30
0.0
 11
44.350000000000023
 21
58.50000000000005
 31
0.0
  0
LINE
  5
475
  8
2
 10
87.780167236718114
 20
89.276490004851794
 30
0.0
 11
86.780167236718057
 21
88.699139735662285
 31
0.0
  0
LINE
  5
476
  8
2
 10
87.780167236718114
 20
95.923490004852354
 30
0.0
 11
86.780167236718114
 21
96.500840274041778
 31
0.0
  0
LINE
  5
477
  8
2
 10
87.780167236718114
 20
88.59999000485206
 30
0.0
 11
86.780167236718057
 21
88.59999000485206
 31
0.0
  0
LINE
  5
478
  8
2
 10
87.780167236718114
 20
96.599990004852032
 30
0.0
 11
86.780167236718114
 21
96.599990004852032
 31
0.0
  0
LINE
  5
479
  8
2
 10
81.780167236718057
 20
87.449990004852054
 30
0.0
 11
86.780167236718057
 21
87.449990004852026
 31
0.0
  0
LINE
  5
47A
  8
2
 10
81.780167236718114
 20
97.749990004852094
 30
0.0
 11
86.780167236718114
 21
97.749990004852037
 31
0.0
  0
LINE
  5
47B
  8
1
 10
50.0
 20
40.0
 30
0.0
 11
50.0
 21
66.0
 31
0.0
  0
LINE
  5
47C
  8
2
 10
54.650000000000091
 20
63.499999999999972
 30
0.0
 11
44.350000000000023
 21
63.50000000000005
 31
0.0
  0
LINE
  5
47F
  8
2
 10
54.200000000000053
 20
57.5
 30
0.0
 11
54.200000000000053
 21
58.50000000000005
 31
0.0
  0
LINE
  5
480
  8
2
 10
44.800000000000061
 20
57.5
 30
0.0
 11
44.800000000000061
 21
58.50000000000005
 31
0.0
  0
LINE
  5
481
  8
2
 10
54.650000000000027
 20
58.499999999999972
 30
0.0
 11
44.350000000000023
 21
58.50000000000005
 31
0.0
  0
LINE
  5
482
  8
2
 10
46.676499999999919
 20
57.5
 30
0.0
 11
46.099149730810268
 21
58.5
 31
0.0
  0
LINE
  5
483
  8
2
 10
53.323500000000188
 20
57.5
 30
0.0
 11
53.900850269189853
 21
58.5
 31
0.0
  0
LINE
  5
484
  8
2
 10
54.00000000000005
 20
57.499999999999972
 30
0.0
 11
46.0
 21
57.500000000000057
 31
0.0
  0
LINE
  5
485
  8
0
 10
54.00000000000005
 20
43.699999999999932
 30
0.0
 11
46.0
 21
43.700000000000038
 31
0.0
  0
LINE
  5
486
  8
0
 10
47.200000000000053
 20
42.500000000000021
 30
0.0
 11
46.0
 21
43.700000000000038
 31
0.0
  0
LINE
  5
487
  8
0
 10
54.0
 20
43.699999999999989
 30
0.0
 11
52.800000000000068
 21
42.5
 31
0.0
  0
LINE
  5
488
  8
0
 10
54.0
 20
57.5
 30
0.0
 11
54.0
 21
43.699999999999989
 31
0.0
  0
LINE
  5
489
  8
3
 10
53.323500000000188
 20
57.499999999999993
 30
0.0
 11
53.323500000000138
 21
43.023500000000098
 31
0.0
  0
LINE
  5
48A
  8
3
 10
46.676499999999919
 20
57.50000000000005
 30
0.0
 11
46.676499999999919
 21
43.023500000000119
 31
0.0
  0
LINE
  5
48B
  8
0
 10
46.00000000000005
 20
57.5
 30
0.0
 11
46.0
 21
43.700000000000038
 31
0.0
  0
LINE
  5
48C
  8
0
 10
52.800000000000068
 20
42.5
 30
0.0
 11
47.200000000000053
 21
42.500000000000021
 31
0.0
  0
LINE
  5
48D
  8
0
 10
43.553290751334323
 20
63.899999999999999
 30
0.0
 11
43.553290751334323
 21
57.5
 31
0.0
  0
LINE
  5
48E
  8
0
 10
55.446710246724933
 20
63.899999999999999
 30
0.0
 11
55.446710246724933
 21
57.5
 31
0.0
  0
LINE
  5
48F
  8
1
 10
49.5
 20
64.799999999999983
 30
0.0
 11
49.5
 21
55.0
 31
0.0
  0
LINE
  5
490
  8
0
 10
37.606584501940802
 20
57.5
 30
0.0
 11
61.393415496603609
 21
57.5
 31
0.0
  0
LINE
  5
491
  8
0
 10
37.606584501940802
 20
63.899999999999999
 30
0.0
 11
37.606584501940802
 21
57.5
 31
0.0
  0
LINE
  5
492
  8
0
 10
61.393415496603609
 20
63.899999999999999
 30
0.0
 11
61.393415496603609
 21
57.5
 31
0.0
  0
LINE
  5
493
  8
2
 10
81.780167236718114
 20
97.749990004852066
 30
0.0
 11
81.780167236718057
 21
87.449990004852054
 31
0.0
  0
LINE
  5
496
  8
2
 10
87.780167236718114
 20
97.29999000485202
 30
0.0
 11
86.780167236718057
 21
97.29999000485202
 31
0.0
  0
LINE
  5
497
  8
2
 10
87.780167236718114
 20
87.899990004852043
 30
0.0
 11
86.780167236718057
 21
87.899990004852043
 31
0.0
  0
LINE
  5
498
  8
2
 10
86.780167236718114
 20
97.749990004852037
 30
0.0
 11
86.780167236718057
 21
87.449990004852026
 31
0.0
  0
LINE
  5
499
  8
2
 10
87.780167236718114
 20
96.599990004852074
 30
0.0
 11
87.780167236718057
 21
88.599990004852032
 31
0.0
  0
LINE
  5
49A
  8
0
 10
101.5801672367181
 20
96.599990004852074
 30
0.0
 11
101.580167236718
 21
88.599990004852032
 31
0.0
  0
LINE
  5
49B
  8
0
 10
102.780167236718
 20
89.79999000485202
 30
0.0
 11
101.580167236718
 21
88.599990004852032
 31
0.0
  0
LINE
  5
49C
  8
0
 10
101.5801672367181
 20
96.599990004852032
 30
0.0
 11
102.7801672367181
 21
95.399990004852043
 31
0.0
  0
LINE
  5
49D
  8
0
 10
87.780167236718114
 20
96.599990004852032
 30
0.0
 11
101.5801672367181
 21
96.599990004852032
 31
0.0
  0
LINE
  5
49E
  8
3
 10
87.780167236718114
 20
95.923490004852169
 30
0.0
 11
102.256667236718
 21
95.923490004852141
 31
0.0
  0
LINE
  5
49F
  8
3
 10
87.780167236718114
 20
89.276490004851937
 30
0.0
 11
102.2566672367179
 21
89.276490004851937
 31
0.0
  0
LINE
  5
4A0
  8
0
 10
87.780167236718114
 20
88.59999000485206
 30
0.0
 11
101.580167236718
 21
88.599990004852032
 31
0.0
  0
LINE
  5
4A1
  8
0
 10
102.7801672367181
 20
95.399990004852043
 30
0.0
 11
102.780167236718
 21
89.79999000485202
 31
0.0
  0
LINE
  5
4A2
  8
0
 10
81.380167236718094
 20
92.599990004852032
 30
0.0
 11
87.780167236718057
 21
92.599990004852032
 31
0.0
  0
LINE
  5
4A3
  8
0
 10
87.780167236718114
 20
82.299999999999955
 30
0.0
 11
87.780167236718114
 21
102.89998000970409
 31
0.0
  0
LINE
  5
4A4
  8
0
 10
81.380167236718137
 20
82.299999999999983
 30
0.0
 11
87.780167236718114
 21
82.299999999999983
 31
0.0
  0
LINE
  5
4A5
  8
0
 10
81.380167236718137
 20
102.89998000970409
 30
0.0
 11
87.780167236718114
 21
102.89998000970409
 31
0.0
  0
CIRCLE
  5
4A6
  8
0
 10
49.499999938621961
 20
92.599990004852032
 30
0.0
 40
5.1500000000000004
  0
LINE
  5
4A8
  8
1
 10
105.2801672367181
 20
92.599990004852032
 30
0.0
 11
79.280167236718057
 21
92.599990004852032
 31
0.0
  0
LINE
  5
4A9
  8
1
 10
50.0
 20
87.599990004852046
 30
0.0
 11
50.0
 21
97.599990004852046
 31
0.0
  0
LINE
  5
4AA
  8
1
 10
49.5
 20
79.799999999999983
 30
0.0
 11
49.5
 21
105.399980009704
 31
0.0
  0
LINE
  5
4AB
  8
1
 10
34.719832640525802
 20
92.599990004852032
 30
0.0
 11
64.280167236718057
 21
92.599990004852032
 31
0.0
  0
LINE
  5
5F3
  8
0
 10
37.606584501940802
 20
63.899999999999999
 30
0.0
 11
61.393415496603609
 21
63.899999999999999
 31
0.0
  0
LINE
  5
602
  8
0
 10
81.380167236718137
 20
82.299999999999955
 30
0.0
 11
81.380167236718137
 21
102.89998000970409
 31
0.0
  0
TEXT
  5
715
  8
0
 62
     3
 10
0.0
 20
0.0
 30
0.0
 40
5.0
  1
MBFC08-SUS
  7
STANDARD1
  0
ENDSEC
  0
EOF
