  0
SECTION
  2
HEADER
  9
$ACADVER
  1
AC1009
  9
$INSBASE
 10
0.0
 20
0.0
 30
0.0
  9
$EXTMIN
 10
0.0
 20
-1.4802182810368341
 30
0.0
  9
$EXTMAX
 10
97.286830994662836
 20
94.099980009704083
 30
0.0
  9
$LIMMIN
 10
0.0
 20
0.0
  9
$LIMMAX
 10
12.0
 20
9.0
  9
$ORTHOMODE
 70
     1
  9
$REGENMODE
 70
     1
  9
$FILLMODE
 70
     1
  9
$QTEXTMODE
 70
     0
  9
$MIRRTEXT
 70
     0
  9
$DRAGMODE
 70
     2
  9
$LTSCALE
 40
1.0
  9
$OSMODE
 70
    37
  9
$ATTMODE
 70
     1
  9
$TEXTSIZE
 40
0.2
  9
$TRACEWID
 40
0.05
  9
$TEXTSTYLE
  7
STANDARD
  9
$CLAYER
  8
0
  9
$CELTYPE
  6
BYLAYER
  9
$CECOLOR
 62
   256
  9
$DIMSCALE
 40
1.0
  9
$DIMASZ
 40
1.0
  9
$DIMEXO
 40
2.54
  9
$DIMDLI
 40
0.38
  9
$DIMRND
 40
0.0
  9
$DIMDLE
 40
0.0
  9
$DIMEXE
 40
2.54
  9
$DIMTP
 40
0.0
  9
$DIMTM
 40
0.0
  9
$DIMTXT
 40
3.2000000000000002
  9
$DIMCEN
 40
0.09
  9
$DIMTSZ
 40
0.0
  9
$DIMTOL
 70
     0
  9
$DIMLIM
 70
     0
  9
$DIMTIH
 70
     0
  9
$DIMTOH
 70
     0
  9
$DIMSE1
 70
     0
  9
$DIMSE2
 70
     0
  9
$DIMTAD
 70
     1
  9
$DIMZIN
 70
     8
  9
$DIMBLK
  1

  9
$DIMASO
 70
     1
  9
$DIMSHO
 70
     0
  9
$DIMPOST
  1

  9
$DIMAPOST
  1

  9
$DIMALT
 70
     0
  9
$DIMALTD
 70
     2
  9
$DIMALTF
 40
25.399999999999999
  9
$DIMLFAC
 40
1.0
  9
$DIMTOFL
 70
     0
  9
$DIMTVP
 40
1.0
  9
$DIMTIX
 70
     0
  9
$DIMSOXD
 70
     0
  9
$DIMSAH
 70
     0
  9
$DIMBLK1
  1

  9
$DIMBLK2
  1

  9
$DIMSTYLE
  2
STANDARD
  9
$DIMCLRD
 70
     0
  9
$DIMCLRE
 70
     0
  9
$DIMCLRT
 70
     0
  9
$DIMTFAC
 40
1.0
  9
$DIMGAP
 40
1.6000000000000001
  9
$LUNITS
 70
     2
  9
$LUPREC
 70
     2
  9
$SKETCHINC
 40
0.1
  9
$FILLETRAD
 40
0.0
  9
$AUNITS
 70
     0
  9
$AUPREC
 70
     0
  9
$MENU
  1
.
  9
$ELEVATION
 40
0.0
  9
$PELEVATION
 40
0.0
  9
$THICKNESS
 40
0.0
  9
$LIMCHECK
 70
     0
  9
$BLIPMODE
 70
     0
  9
$CHAMFERA
 40
0.0
  9
$CHAMFERB
 40
0.0
  9
$SKPOLY
 70
     0
  9
$TDCREATE
 40
2453173.4709223039
  9
$TDUPDATE
 40
2459278.6596566672
  9
$TDINDWG
 40
0.3925877199
  9
$TDUSRTIMER
 40
0.3925877199
  9
$USRTIMER
 70
     1
  9
$ANGBASE
 50
0.0
  9
$ANGDIR
 70
     0
  9
$PDMODE
 70
     0
  9
$PDSIZE
 40
0.0
  9
$PLINEWID
 40
0.0
  9
$COORDS
 70
     1
  9
$SPLFRAME
 70
     0
  9
$SPLINETYPE
 70
     6
  9
$SPLINESEGS
 70
     8
  9
$ATTDIA
 70
     0
  9
$ATTREQ
 70
     1
  9
$HANDLING
 70
     1
  9
$HANDSEED
  5
268
  9
$SURFTAB1
 70
     6
  9
$SURFTAB2
 70
     6
  9
$SURFTYPE
 70
     6
  9
$SURFU
 70
     6
  9
$SURFV
 70
     6
  9
$UCSNAME
  2

  9
$UCSORG
 10
0.0
 20
0.0
 30
0.0
  9
$UCSXDIR
 10
1.0
 20
0.0
 30
0.0
  9
$UCSYDIR
 10
0.0
 20
1.0
 30
0.0
  9
$PUCSNAME
  2

  9
$PUCSORG
 10
0.0
 20
0.0
 30
0.0
  9
$PUCSXDIR
 10
1.0
 20
0.0
 30
0.0
  9
$PUCSYDIR
 10
0.0
 20
1.0
 30
0.0
  9
$USERI1
 70
     0
  9
$USERI2
 70
     0
  9
$USERI3
 70
     0
  9
$USERI4
 70
     0
  9
$USERI5
 70
     0
  9
$USERR1
 40
0.0
  9
$USERR2
 40
0.0
  9
$USERR3
 40
0.0
  9
$USERR4
 40
0.0
  9
$USERR5
 40
0.0
  9
$WORLDVIEW
 70
     1
  9
$SHADEDGE
 70
     3
  9
$SHADEDIF
 70
    70
  9
$TILEMODE
 70
     1
  9
$MAXACTVP
 70
    64
  9
$PLIMCHECK
 70
     0
  9
$PEXTMIN
 10
1.0000000000000000E+020
 20
1.0000000000000000E+020
 30
1.0000000000000000E+020
  9
$PEXTMAX
 10
-1.0000000000000000E+020
 20
-1.0000000000000000E+020
 30
-1.0000000000000000E+020
  9
$PLIMMIN
 10
0.0
 20
0.0
  9
$PLIMMAX
 10
12.0
 20
9.0
  9
$UNITMODE
 70
     0
  9
$VISRETAIN
 70
     1
  9
$PLINEGEN
 70
     0
  9
$PSLTSCALE
 70
     1
  0
ENDSEC
  0
SECTION
  2
TABLES
  0
TABLE
  2
VPORT
 70
     1
  0
VPORT
  2
*ACTIVE
 70
     0
 10
0.0
 20
0.0
 11
1.0
 21
1.0
 12
195.14681892332791
 22
75.0
 13
0.0
 23
0.0
 14
1.0
 24
1.0
 15
0.0
 25
0.0
 16
0.0
 26
0.0
 36
1.0
 17
0.0
 27
0.0
 37
0.0
 40
150.0
 41
2.6019575856443709
 42
50.0
 43
0.0
 44
0.0
 50
0.0
 51
0.0
 71
     0
 72
   100
 73
     1
 74
     1
 75
     0
 76
     0
 77
     0
 78
     0
  0
ENDTAB
  0
TABLE
  2
LTYPE
 70
     4
  0
LTYPE
  2
CONTINUOUS
 70
     0
  3
Solid line
 72
    65
 73
     0
 40
0.0
  0
LTYPE
  2
CENTER
 70
     0
  3
Center ____ _ ____ _ ____ _ ____ _ ____ _ ____
 72
    65
 73
     4
 40
12.0
 49
7.5
 49
-1.5
 49
1.5
 49
-1.5
  0
LTYPE
  2
HIDDEN
 70
     0
  3
Hidden __ __ __ __ __ __ __ __ __ __ __ __ __ _
 72
    65
 73
     2
 40
4.5
 49
3.0
 49
-1.5
  0
LTYPE
  2
PHANTOM2
 70
     0
  3
___ _ _ ___ _ _ ___ _ _ ___ _ _
 72
    65
 73
     6
 40
1.25
 49
0.625
 49
-0.125
 49
0.125
 49
-0.125
 49
0.125
 49
-0.125
  0
ENDTAB
  0
TABLE
  2
LAYER
 70
     4
  0
LAYER
  2
0
 70
     0
 62
     7
  6
CONTINUOUS
  0
LAYER
  2
1
 70
     0
 62
     1
  6
CENTER
  0
LAYER
  2
2
 70
     0
 62
     2
  6
HIDDEN
  0
LAYER
  2
3
 70
     0
 62
     3
  6
CONTINUOUS
  0
ENDTAB
  0
TABLE
  2
STYLE
 70
     2
  0
STYLE
  2
STANDARD
 70
     0
 40
0.0
 41
1.0
 50
0.0
 71
     0
 42
0.2
  3
simplex.shx
  4
bigfont.shx
  0
STYLE
  2
STANDARD1
 70
     0
 40
0.0
 41
1.0
 50
0.0
 71
     0
 42
3.0
  3
txt
  4

  0
ENDTAB
  0
TABLE
  2
VIEW
 70
     0
  0
ENDTAB
  0
TABLE
  2
UCS
 70
     0
  0
ENDTAB
  0
TABLE
  2
APPID
 70
     6
  0
APPID
  2
ACAD
 70
     0
  0
APPID
  2
ACAD_MLEADERVER
 70
     0
  0
APPID
  2
ACAD_EXEMPT_FROM_CAD_STANDARDS
 70
     0
  0
APPID
  2
ACAD_DSTYLE_DIMJAG
 70
     0
  0
APPID
  2
ACAD_DSTYLE_DIMTALN
 70
     0
  0
APPID
  2
ACAD_NAV_VCDISPLAY
 70
     0
  0
ENDTAB
  0
TABLE
  2
DIMSTYLE
 70
     1
  0
DIMSTYLE
  2
STANDARD
 70
     0
  3

  4

  5

  6

  7

 40
1.0
 41
0.18
 42
0.0625
 43
0.38
 44
0.18
 45
0.0
 46
0.0
 47
0.0
 48
0.0
140
0.18
141
0.09
142
0.0
143
25.399999999999999
144
1.0
145
0.0
146
1.0
147
0.09
 71
     0
 72
     0
 73
     1
 74
     1
 75
     0
 76
     0
 77
     0
 78
     0
170
     0
171
     2
172
     0
173
     0
174
     0
175
     0
176
     0
177
     0
178
     0
  0
ENDTAB
  0
ENDSEC
  0
SECTION
  2
BLOCKS
  0
BLOCK
  8
0
  2
$MODEL_SPACE
 70
     0
 10
0.0
 20
0.0
 30
0.0
  3
$MODEL_SPACE
  1

  0
ENDBLK
  5
9
  8
0
  0
BLOCK
 67
     1
  8
0
  2
$PAPER_SPACE
 70
     0
 10
0.0
 20
0.0
 30
0.0
  3
$PAPER_SPACE
  1

  0
ENDBLK
  5
E
 67
     1
  8
0
  0
ENDSEC
  0
SECTION
  2
ENTITIES
  0
LINE
  5
28
  8
0
 10
42.840125744784118
 20
70.999999999999986
 30
0.0
 11
48.786830994662807
 21
81.299990004852035
 31
0.0
  0
LINE
  5
29
  8
0
 10
30.946706249393522
 20
70.999999999999986
 30
0.0
 11
42.840125744784118
 21
70.999999999999986
 31
0.0
  0
LINE
  5
2A
  8
0
 10
25.0
 20
81.299990004852035
 30
0.0
 11
30.946706249393522
 21
70.999999999999986
 31
0.0
  0
LINE
  5
2B
  8
0
 10
30.946706249393522
 20
91.599980009704083
 30
0.0
 11
25.0
 21
81.299990004852035
 31
0.0
  0
LINE
  5
2C
  8
0
 10
42.840125744784118
 20
91.599980009704083
 30
0.0
 11
30.946706249393522
 21
91.599980009704083
 31
0.0
  0
LINE
  5
2D
  8
0
 10
48.786830994662807
 20
81.299990004852035
 30
0.0
 11
42.840125744784118
 21
91.599980009704083
 31
0.0
  0
LINE
  5
2E
  8
0
 10
38.836785559437352
 20
83.799990004852035
 30
0.0
 11
35.950035559437339
 21
83.799990004852035
 31
0.0
  0
LINE
  5
2F
  8
0
 10
40.280165559437279
 20
81.299990004852035
 30
0.0
 11
38.836785559437352
 21
83.799990004852035
 31
0.0
  0
LINE
  5
30
  8
0
 10
38.836785559437352
 20
78.799990004852035
 30
0.0
 11
40.280165559437279
 21
81.299990004852035
 31
0.0
  0
LINE
  5
31
  8
0
 10
35.950035559437339
 20
78.799990004852035
 30
0.0
 11
38.836785559437352
 21
78.799990004852035
 31
0.0
  0
LINE
  5
32
  8
0
 10
34.506665559437302
 20
81.299990004852035
 30
0.0
 11
35.950035559437339
 21
78.799990004852035
 31
0.0
  0
LINE
  5
33
  8
0
 10
35.950035559437339
 20
83.799990004852035
 30
0.0
 11
34.506665559437302
 21
81.299990004852035
 31
0.0
  0
LINE
  5
36
  8
2
 10
33.393415498059262
 20
39.999999999999993
 30
0.0
 11
33.393415498059262
 21
41.000000000000007
 31
0.0
  0
LINE
  5
37
  8
2
 10
41.393415498059191
 20
39.999999999999993
 30
0.0
 11
41.393415498059191
 21
40.999999999999957
 31
0.0
  0
LINE
  5
38
  8
2
 10
42.043415498059233
 20
40.999999999999957
 30
0.0
 11
42.043415498059233
 21
44.599999999999987
 31
0.0
  0
LINE
  5
39
  8
2
 10
31.743415498059228
 20
44.599999999999987
 30
0.0
 11
31.743415498059228
 21
41.000000000000043
 31
0.0
  0
LINE
  5
3A
  8
2
 10
79.786830994662836
 20
77.976490004851783
 30
0.0
 11
78.786830994662779
 21
77.399139735662288
 31
0.0
  0
LINE
  5
3B
  8
2
 10
79.786830994662836
 20
84.623490004852357
 30
0.0
 11
78.786830994662836
 21
85.200840274041795
 31
0.0
  0
LINE
  5
3C
  8
2
 10
79.786830994662836
 20
77.299990004852063
 30
0.0
 11
78.786830994662779
 21
77.299990004852063
 31
0.0
  0
LINE
  5
3D
  8
2
 10
79.786830994662836
 20
85.299990004852035
 30
0.0
 11
78.786830994662836
 21
85.299990004852035
 31
0.0
  0
LINE
  5
3E
  8
2
 10
75.186830994662841
 20
76.149990004852043
 30
0.0
 11
78.786830994662779
 21
76.149990004852029
 31
0.0
  0
LINE
  5
3F
  8
2
 10
75.186830994662841
 20
86.449990004852054
 30
0.0
 11
78.786830994662836
 21
86.449990004852054
 31
0.0
  0
LINE
  5
40
  8
1
 10
37.393415498059198
 20
22.499999999999989
 30
0.0
 11
37.393415498059198
 21
48.499999999999979
 31
0.0
  0
LINE
  5
43
  8
0
 10
42.043415498059289
 20
45.999999999999957
 30
0.0
 11
31.74341549805925
 21
46.000000000000043
 31
0.0
  0
LINE
  5
44
  8
0
 10
31.743415498059228
 20
46.000000000000043
 30
0.0
 11
31.743415498059228
 21
44.599999999999987
 31
0.0
  0
LINE
  5
45
  8
0
 10
42.043415498059233
 20
45.999999999999957
 30
0.0
 11
42.043415498059233
 21
44.599999999999987
 31
0.0
  0
LINE
  5
46
  8
2
 10
41.593415498059237
 20
39.999999999999993
 30
0.0
 11
41.593415498059237
 21
41.000000000000043
 31
0.0
  0
LINE
  5
47
  8
2
 10
32.193415498059238
 20
39.999999999999993
 30
0.0
 11
32.193415498059238
 21
41.000000000000043
 31
0.0
  0
LINE
  5
48
  8
2
 10
42.043415498059233
 20
40.999999999999957
 30
0.0
 11
31.743415498059228
 21
41.000000000000043
 31
0.0
  0
LINE
  5
49
  8
2
 10
34.069915498059153
 20
39.999999999999993
 30
0.0
 11
33.492565228869502
 21
40.999999999999979
 31
0.0
  0
LINE
  5
4B
  8
2
 10
40.716915498059393
 20
39.999999999999993
 30
0.0
 11
41.294265767249037
 21
40.999999999999979
 31
0.0
  0
LINE
  5
4C
  8
2
 10
41.393415498059262
 20
39.999999999999957
 30
0.0
 11
33.393415498059227
 21
40.000000000000043
 31
0.0
  0
LINE
  5
4D
  8
0
 10
41.393415498059262
 20
26.199999999999921
 30
0.0
 11
33.393415498059227
 21
26.200000000000031
 31
0.0
  0
LINE
  5
4E
  8
0
 10
34.593415498059251
 20
25.000000000000021
 30
0.0
 11
33.393415498059227
 21
26.200000000000031
 31
0.0
  0
LINE
  5
4F
  8
0
 10
41.393415498059191
 20
26.199999999999971
 30
0.0
 11
40.19341549805926
 21
24.999999999999989
 31
0.0
  0
LINE
  5
50
  8
0
 10
41.393415498059191
 20
39.999999999999993
 30
0.0
 11
41.393415498059191
 21
26.199999999999971
 31
0.0
  0
LINE
  5
51
  8
3
 10
40.7169154980594
 20
39.999999999999972
 30
0.0
 11
40.716915498059329
 21
25.523500000000091
 31
0.0
  0
LINE
  5
52
  8
3
 10
34.069915498059153
 20
40.000000000000028
 30
0.0
 11
34.069915498059153
 21
25.523500000000109
 31
0.0
  0
LINE
  5
53
  8
0
 10
33.393415498059262
 20
39.999999999999993
 30
0.0
 11
33.393415498059227
 21
26.200000000000031
 31
0.0
  0
LINE
  5
54
  8
0
 10
40.19341549805926
 20
24.999999999999989
 30
0.0
 11
34.593415498059251
 21
25.000000000000021
 31
0.0
  0
LINE
  5
55
  8
0
 10
30.946706249393522
 20
44.599999999999987
 30
0.0
 11
30.946706249393522
 21
39.999999999999993
 31
0.0
  0
LINE
  5
56
  8
0
 10
42.840125744784118
 20
44.599999999999987
 30
0.0
 11
42.840125744784118
 21
39.999999999999993
 31
0.0
  0
LINE
  5
57
  8
1
 10
36.893415498059213
 20
47.09999999999998
 30
0.0
 11
36.893415498059198
 21
37.499999999999993
 31
0.0
  0
LINE
  5
58
  8
0
 10
25.0
 20
39.999999999999993
 30
0.0
 11
48.786830994662807
 21
39.999999999999993
 31
0.0
  0
LINE
  5
59
  8
0
 10
25.0
 20
44.599999999999987
 30
0.0
 11
25.0
 21
39.999999999999993
 31
0.0
  0
LINE
  5
5A
  8
0
 10
48.786830994662807
 20
44.599999999999987
 30
0.0
 11
48.786830994662807
 21
39.999999999999993
 31
0.0
  0
LINE
  5
5B
  8
0
 10
73.786830994662836
 20
86.449990004852054
 30
0.0
 11
73.786830994662779
 21
76.149990004852043
 31
0.0
  0
LINE
  5
5C
  8
0
 10
73.786830994662779
 20
76.149990004852029
 30
0.0
 11
75.186830994662841
 21
76.149990004852043
 31
0.0
  0
LINE
  5
5D
  8
0
 10
73.786830994662836
 20
86.449990004852012
 30
0.0
 11
75.186830994662841
 21
86.449990004852054
 31
0.0
  0
LINE
  5
5E
  8
2
 10
79.786830994662836
 20
85.999990004852023
 30
0.0
 11
78.786830994662779
 21
85.999990004852023
 31
0.0
  0
LINE
  5
5F
  8
2
 10
79.786830994662836
 20
76.599990004852046
 30
0.0
 11
78.786830994662779
 21
76.599990004852046
 31
0.0
  0
LINE
  5
60
  8
2
 10
78.786830994662836
 20
86.449990004852054
 30
0.0
 11
78.786830994662779
 21
76.149990004852029
 31
0.0
  0
LINE
  5
63
  8
2
 10
79.786830994662836
 20
85.299990004852063
 30
0.0
 11
79.786830994662779
 21
77.299990004852035
 31
0.0
  0
LINE
  5
64
  8
0
 10
93.586830994662847
 20
85.299990004852063
 30
0.0
 11
93.58683099466279
 21
77.299990004852035
 31
0.0
  0
LINE
  5
65
  8
0
 10
94.786830994662779
 20
78.499990004852023
 30
0.0
 11
93.58683099466279
 21
77.299990004852035
 31
0.0
  0
LINE
  5
66
  8
0
 10
93.586830994662847
 20
85.299990004852035
 30
0.0
 11
94.786830994662836
 21
84.099990004852046
 31
0.0
  0
LINE
  5
67
  8
0
 10
79.786830994662836
 20
85.299990004852035
 30
0.0
 11
93.586830994662847
 21
85.299990004852035
 31
0.0
  0
LINE
  5
68
  8
3
 10
79.786830994662836
 20
84.623490004852158
 30
0.0
 11
94.263330994662709
 21
84.623490004852144
 31
0.0
  0
LINE
  5
69
  8
3
 10
79.786830994662836
 20
77.976490004851954
 30
0.0
 11
94.263330994662653
 21
77.976490004851954
 31
0.0
  0
LINE
  5
6A
  8
0
 10
79.786830994662836
 20
77.299990004852063
 30
0.0
 11
93.58683099466279
 21
77.299990004852035
 31
0.0
  0
LINE
  5
6B
  8
0
 10
94.786830994662836
 20
84.099990004852046
 30
0.0
 11
94.786830994662779
 21
78.499990004852023
 31
0.0
  0
LINE
  5
6C
  8
0
 10
74.986830994662824
 20
81.299990004852035
 30
0.0
 11
79.786830994662779
 21
81.299990004852035
 31
0.0
  0
LINE
  5
6D
  8
0
 10
79.786830994662836
 20
70.999999999999957
 30
0.0
 11
79.786830994662836
 21
91.599980009704083
 31
0.0
  0
LINE
  5
6E
  8
0
 10
75.186830994662841
 20
70.999999999999986
 30
0.0
 11
79.786830994662836
 21
70.999999999999986
 31
0.0
  0
LINE
  5
6F
  8
0
 10
75.186830994662841
 20
91.599980009704112
 30
0.0
 11
79.786830994662836
 21
91.599980009704112
 31
0.0
  0
CIRCLE
  5
70
  8
0
 10
36.89341543668116
 20
81.299990004852035
 30
0.0
 40
5.1500000000000004
  0
LINE
  5
71
  8
0
 10
75.186830994662841
 20
70.999999999999957
 30
0.0
 11
75.186830994662841
 21
91.599980009704083
 31
0.0
  0
LINE
  5
72
  8
1
 10
97.286830994662836
 20
81.299990004852035
 30
0.0
 11
71.286830994662779
 21
81.299990004852035
 31
0.0
  0
LINE
  5
74
  8
1
 10
36.893415498059198
 20
68.499999999999986
 30
0.0
 11
36.893415498059198
 21
94.099980009704083
 31
0.0
  0
LINE
  5
75
  8
1
 10
22.113248138584989
 20
81.299990004852035
 30
0.0
 11
51.673582734777249
 21
81.299990004852035
 31
0.0
  0
LINE
  5
76
  8
0
 10
25.0
 20
44.599999999999987
 30
0.0
 11
48.786830994662807
 21
44.599999999999987
 31
0.0
  0
TEXT
  5
191
  8
0
 62
     3
 10
0.0
 20
0.0
 30
0.0
 40
5.0
  1
MBFC08
  7
STANDARD1
  0
LINE
  5
1D8
  8
1
 10
37.393415498059198
 20
86.299990004852035
 30
0.0
 11
37.393415498059198
 21
76.299990004852035
 31
0.0
  0
ENDSEC
  0
EOF
