  0
SECTION
  2
HEADER
  9
$ACADVER
  1
AC1009
  9
$INSBASE
 10
0.0
 20
0.0
 30
0.0
  9
$EXTMIN
 10
0.0
 20
-1.4802182810368341
 30
0.0
  9
$EXTMAX
 10
41.1459754433833567
 20
46.7716221409871196
 30
0.0
  9
$LIMMIN
 10
0.0
 20
0.0
  9
$LIMMAX
 10
187.5
 20
135.0
  9
$ORTHOMODE
 70
     1
  9
$REGENMODE
 70
     1
  9
$FILLMODE
 70
     1
  9
$QTEXTMODE
 70
     0
  9
$MIRRTEXT
 70
     0
  9
$DRAGMODE
 70
     2
  9
$LTSCALE
 40
5.0
  9
$OSMODE
 70
    37
  9
$ATTMODE
 70
     1
  9
$TEXTSIZE
 40
0.06
  9
$TRACEWID
 40
0.05
  9
$TEXTSTYLE
  7
STANDARD
  9
$CLAYER
  8
0
  9
$CELTYPE
  6
BYLAYER
  9
$CECOLOR
 62
   256
  9
$DIMSCALE
 40
0.5
  9
$DIMASZ
 40
3.0
  9
$DIMEXO
 40
2.0
  9
$DIMDLI
 40
10.0
  9
$DIMRND
 40
0.0
  9
$DIMDLE
 40
0.0
  9
$DIMEXE
 40
2.0
  9
$DIMTP
 40
0.0
  9
$DIMTM
 40
0.0
  9
$DIMTXT
 40
3.0
  9
$DIMCEN
 40
0.0
  9
$DIMTSZ
 40
0.0
  9
$DIMTOL
 70
     0
  9
$DIMLIM
 70
     0
  9
$DIMTIH
 70
     0
  9
$DIMTOH
 70
     0
  9
$DIMSE1
 70
     0
  9
$DIMSE2
 70
     0
  9
$DIMTAD
 70
     1
  9
$DIMZIN
 70
     8
  9
$DIMBLK
  1

  9
$DIMASO
 70
     0
  9
$DIMSHO
 70
     0
  9
$DIMPOST
  1

  9
$DIMAPOST
  1

  9
$DIMALT
 70
     0
  9
$DIMALTD
 70
     2
  9
$DIMALTF
 40
25.3999999999999986
  9
$DIMLFAC
 40
1.0
  9
$DIMTOFL
 70
     1
  9
$DIMTVP
 40
1.6000000000000001
  9
$DIMTIX
 70
     1
  9
$DIMSOXD
 70
     0
  9
$DIMSAH
 70
     0
  9
$DIMBLK1
  1

  9
$DIMBLK2
  1

  9
$DIMSTYLE
  2
STANDARD
  9
$DIMCLRD
 70
     0
  9
$DIMCLRE
 70
     0
  9
$DIMCLRT
 70
     0
  9
$DIMTFAC
 40
1.0
  9
$DIMGAP
 40
1.0
  9
$LUNITS
 70
     2
  9
$LUPREC
 70
     1
  9
$SKETCHINC
 40
0.1
  9
$FILLETRAD
 40
1.3
  9
$AUNITS
 70
     0
  9
$AUPREC
 70
     0
  9
$MENU
  1
E:\r13\win\SUPPORT\ACAD
  9
$ELEVATION
 40
0.0
  9
$PELEVATION
 40
0.0
  9
$THICKNESS
 40
0.0
  9
$LIMCHECK
 70
     0
  9
$BLIPMODE
 70
     0
  9
$CHAMFERA
 40
0.0
  9
$CHAMFERB
 40
0.0
  9
$SKPOLY
 70
     0
  9
$TDCREATE
 40
2449840.5914699072018266
  9
$TDUPDATE
 40
2460571.6584259262308478
  9
$TDINDWG
 40
4.2794544443999998
  9
$TDUSRTIMER
 40
4.2794544443999998
  9
$USRTIMER
 70
     1
  9
$ANGBASE
 50
0.0
  9
$ANGDIR
 70
     0
  9
$PDMODE
 70
     0
  9
$PDSIZE
 40
0.0
  9
$PLINEWID
 40
0.0
  9
$COORDS
 70
     1
  9
$SPLFRAME
 70
     0
  9
$SPLINETYPE
 70
     6
  9
$SPLINESEGS
 70
     8
  9
$ATTDIA
 70
     1
  9
$ATTREQ
 70
     1
  9
$HANDLING
 70
     1
  9
$HANDSEED
  5
13970
  9
$SURFTAB1
 70
     6
  9
$SURFTAB2
 70
     6
  9
$SURFTYPE
 70
     6
  9
$SURFU
 70
     6
  9
$SURFV
 70
     6
  9
$UCSNAME
  2

  9
$UCSORG
 10
0.0
 20
0.0
 30
0.0
  9
$UCSXDIR
 10
1.0
 20
0.0
 30
0.0
  9
$UCSYDIR
 10
0.0
 20
1.0
 30
0.0
  9
$PUCSNAME
  2

  9
$PUCSORG
 10
0.0
 20
0.0
 30
0.0
  9
$PUCSXDIR
 10
1.0
 20
0.0
 30
0.0
  9
$PUCSYDIR
 10
0.0
 20
1.0
 30
0.0
  9
$USERI1
 70
     3
  9
$USERI2
 70
     1
  9
$USERI3
 70
     0
  9
$USERI4
 70
     0
  9
$USERI5
 70
     0
  9
$USERR1
 40
0.5
  9
$USERR2
 40
3.0
  9
$USERR3
 40
3.0
  9
$USERR4
 40
3.0
  9
$USERR5
 40
10.0
  9
$WORLDVIEW
 70
     1
  9
$SHADEDGE
 70
     3
  9
$SHADEDIF
 70
    70
  9
$TILEMODE
 70
     1
  9
$MAXACTVP
 70
    16
  9
$PLIMCHECK
 70
     0
  9
$PEXTMIN
 10
1.0000000000000000E+20
 20
1.0000000000000000E+20
 30
1.0000000000000000E+20
  9
$PEXTMAX
 10
-1.0000000000000000E+20
 20
-1.0000000000000000E+20
 30
-1.0000000000000000E+20
  9
$PLIMMIN
 10
0.0
 20
0.0
  9
$PLIMMAX
 10
12.0
 20
9.0
  9
$UNITMODE
 70
     0
  9
$VISRETAIN
 70
     0
  9
$PLINEGEN
 70
     0
  9
$PSLTSCALE
 70
     0
  0
ENDSEC
  0
SECTION
  2
TABLES
  0
TABLE
  2
VPORT
 70
     1
  0
VPORT
  2
*ACTIVE
 70
     0
 10
0.0
 20
0.0
 11
1.0
 21
1.0
 12
234.8522167487685124
 22
100.0
 13
0.0
 23
0.0
 14
5.0
 24
5.0
 15
10.0
 25
10.0
 16
0.0
 26
0.0
 36
1.0
 17
0.0
 27
0.0
 37
0.0
 40
200.0
 41
2.3485221674876842
 42
50.0
 43
0.0
 44
0.0
 50
0.0
 51
0.0
 71
     0
 72
   100
 73
     1
 74
     0
 75
     0
 76
     0
 77
     0
 78
     0
  0
ENDTAB
  0
TABLE
  2
LTYPE
 70
     3
  0
LTYPE
  2
CONTINUOUS
 70
     0
  3
Solid Line
 72
    65
 73
     0
 40
0.0
  0
LTYPE
  2
CENTER
 70
     0
  3
____ _ ____ _ ____ _ ____ _ ____ _ ____ _ ____
 72
    65
 73
     4
 40
2.0
 49
1.25
 49
-0.25
 49
0.25
 49
-0.25
  0
LTYPE
  2
HIDDEN
 70
     0
  3
_ _ _ _ _ _ _ _ _ _ _ _ _ _ _ _ _ _ _ _ _ _ _
 72
    65
 73
     2
 40
0.375
 49
0.25
 49
-0.125
  0
ENDTAB
  0
TABLE
  2
LAYER
 70
     5
  0
LAYER
  2
0
 70
     0
 62
     7
  6
CONTINUOUS
  0
LAYER
  2
1
 70
     0
 62
     1
  6
CENTER
  0
LAYER
  2
2
 70
     0
 62
     2
  6
HIDDEN
  0
LAYER
  2
3
 70
     0
 62
     3
  6
CONTINUOUS
  0
LAYER
  2
DEFPOINTS
 70
     0
 62
     7
  6
CONTINUOUS
  0
ENDTAB
  0
TABLE
  2
STYLE
 70
     2
  0
STYLE
  2
STANDARD
 70
     0
 40
0.0
 41
1.0
 50
0.0
 71
     0
 42
0.06
  3
TXT
  4
BIGFONT
  0
STYLE
  2
STANDARD1
 70
     0
 40
0.0
 41
1.0
 50
0.0
 71
     0
 42
3.0
  3
txt
  4

  0
ENDTAB
  0
TABLE
  2
VIEW
 70
     3
  0
VIEW
  2
OLE1
 70
     0
 40
24.5142578976623291
 10
44.9015294731158932
 20
103.2517766929000942
 41
34.1724540607814475
 11
0.0
 21
0.0
 31
1.0
 12
0.0
 22
0.0
 32
0.0
 42
50.0
 43
0.0
 44
0.0
 50
0.0
 71
     0
  0
VIEW
  2
OLE2
 70
     0
 40
111.825171625205499
 10
23.1533063595359891
 20
84.7537422159464313
 41
155.8823667497491954
 11
0.0
 21
0.0
 31
1.0
 12
0.0
 22
0.0
 32
0.0
 42
50.0
 43
0.0
 44
0.0
 50
0.0
 71
     0
  0
VIEW
  2
OLE3
 70
     0
 40
74.6081995201193422
 10
-293.6253890471612067
 20
-23.1741890046973786
 41
90.1635770262446101
 11
0.0
 21
0.0
 31
1.0
 12
0.0
 22
0.0
 32
0.0
 42
50.0
 43
0.0
 44
0.0
 50
0.0
 71
     0
  0
ENDTAB
  0
TABLE
  2
UCS
 70
     0
  0
ENDTAB
  0
TABLE
  2
APPID
 70
    42
  0
APPID
  2
ACAD
 70
     0
  0
APPID
  2
ACAD_PSEXT
 70
     0
  0
APPID
  2
ACAD_DSTYLE_DIMJAG
 70
     0
  0
APPID
  2
ACAD_DSTYLE_DIMTALN
 70
     0
  0
APPID
  2
ACAD_EXEMPT_FROM_CAD_STANDARDS
 70
     0
  0
APPID
  2
ACAD_MLEADERVER
 70
     0
  0
APPID
  2
DCO15
 70
     0
  0
APPID
  2
GENIUS_GENOREF_13
 70
     0
  0
APPID
  2
GENIUS_GENOENT_13
 70
     0
  0
APPID
  2
GENIUS_GENBH_13
 70
     0
  0
APPID
  2
GENIUS_GENOBJ_13
 70
     0
  0
APPID
  2
GENIUS_GENODEF_13
 70
     0
  0
APPID
  2
GENIUS_GENOLIS_13
 70
     0
  0
APPID
  2
GENIUS_GENOBJ-NBEHI-BHF_13
 70
     0
  0
APPID
  2
GENIUS_GENOBJ-NBEHI-BHB_13
 70
     0
  0
APPID
  2
GENIUS_GENOBJ-F-PART_13
 70
     0
  0
APPID
  2
GENIUS_GEFSTDP_13
 70
     0
  0
APPID
  2
GENIUS_GENOBJ-N-RSSYM_13
 70
     0
  0
APPID
  2
GENIUS_GENSYMENT_13
 70
     0
  0
APPID
  2
GENIUS_GENOBJ-N-TIT_13
 70
     0
  0
APPID
  2
GENIUS_GENTITLE_13
 70
     0
  0
APPID
  2
GENIUS_GENZVEED_13
 70
     0
  0
APPID
  2
GENIUS_GENOBJ-N-LEADER_13
 70
     0
  0
APPID
  2
GENIUS_GENOBJ-N-FIL_13
 70
     0
  0
APPID
  2
GENIUS_GENOBJ-N-SEC_13
 70
     0
  0
APPID
  2
GENIUS_GENOBJ-N-CRS_13
 70
     0
  0
APPID
  2
GENIUS_GENOBJ-N-ZOO_13
 70
     0
  0
APPID
  2
GENIUS_GENZOO_13
 70
     0
  0
APPID
  2
GENIUS_GENOBJ-F-TOL_13
 70
     0
  0
APPID
  2
GENIUS_GENFIL_13
 70
     0
  0
APPID
  2
GENIUS_GENOBJ-N-CHA_13
 70
     0
  0
APPID
  2
_CALL_MAC$
 70
     0
  0
APPID
  2
ASM_BASE
 70
     0
  0
APPID
  2
ASM_EXPLO_VER_2_00
 70
     0
  0
APPID
  2
ASM_CADM_VER_12_00
 70
     0
  0
APPID
  2
ASM_BASEFORO
 70
     0
  0
APPID
  2
ASM_BASETRAVI
 70
     0
  0
APPID
  2
ASM_BASETRAVI1
 70
     0
  0
APPID
  2
ASM_GRUPPI
 70
     0
  0
APPID
  2
ASM_CADM_ALBERO
 70
     0
  0
APPID
  2
ASM_GOLE
 70
     0
  0
APPID
  2
ACAD_NAV_VCDISPLAY
 70
     0
  0
ENDTAB
  0
TABLE
  2
DIMSTYLE
 70
     1
  0
DIMSTYLE
  2
STANDARD
 70
     0
  3

  4

  5

  6

  7

 40
1.0
 41
0.18
 42
0.0625
 43
0.38
 44
0.18
 45
0.0
 46
0.0
 47
0.0
 48
0.0
140
0.18
141
0.09
142
0.0
143
25.3999999999999986
144
1.0
145
0.0
146
1.0
147
0.1
 71
     0
 72
     0
 73
     0
 74
     0
 75
     0
 76
     0
 77
     1
 78
     0
170
     0
171
     2
172
     0
173
     0
174
     0
175
     0
176
     0
177
     0
178
     0
  0
ENDTAB
  0
ENDSEC
  0
SECTION
  2
BLOCKS
  0
BLOCK
  8
0
  2
$MODEL_SPACE
 70
     0
 10
0.0
 20
0.0
 30
0.0
  3
$MODEL_SPACE
  1

  0
ENDBLK
  5
E6
  8
0
  0
BLOCK
 67
     1
  8
0
  2
$PAPER_SPACE
 70
     0
 10
0.0
 20
0.0
 30
0.0
  3
$PAPER_SPACE
  1

  0
ENDBLK
  5
E4
 67
     1
  8
0
  0
ENDSEC
  0
SECTION
  2
ENTITIES
  0
TEXT
  5
13847
  8
0
 62
     3
 10
0.0
 20
0.0
 30
0.0
 40
5.0
  1
MBSC025TC
  7
STANDARD1
  0
ARC
  5
138BF
  8
0
 10
19.2044482630135391
 20
22.2231828649549392
 30
0.0
 40
0.189653333333348
 50
0.0
 51
90.0
  0
ARC
  5
138C0
  8
0
 10
14.9355549296801602
 20
22.2231828649549392
 30
0.0
 40
0.189653333333348
 50
90.0
 51
180.0
  0
LINE
  5
138C1
  8
0
 10
19.3941015963468999
 20
21.6751109952940588
 30
0.0
 11
19.3941015963468999
 21
22.2231828649549392
 31
0.0
  0
LINE
  5
138C2
  8
0
 10
13.2701710654255791
 20
22.0357354798816196
 30
0.0
 11
13.3105836762576306
 21
20.986789960562561
 31
0.0
  0
ARC
  5
138C3
  8
0
 10
13.4986015961247308
 20
22.0445361982881387
 30
0.0
 40
0.2286000000000035
 50
84.9003599581835857
 51
182.2063371085152141
  0
LINE
  5
138C4
  8
0
 10
21.1417417712865507
 20
21.4977874670372913
 30
0.0
 11
13.51892140190483
 21
22.2722313135037702
 31
0.0
  0
ARC
  5
138C5
  8
0
 10
21.1289215963467996
 20
21.3714361982881407
 30
0.0
 40
0.1270000000000084
 50
29.9783689484157208
 51
84.2063371085160242
  0
LINE
  5
138C6
  8
0
 10
22.5657996217067307
 20
19.07731786727296
 30
0.0
 11
21.2389307881387595
 21
21.4348946707035317
 31
0.0
  0
ARC
  5
138C7
  8
0
 10
21.2496977531793583
 20
18.3162661958778905
 30
0.0
 40
1.520303842945393
 50
260.6270515847099887
 51
30.0391623874319684
  0
LINE
  5
138C8
  8
0
 10
14.7705289994853501
 20
17.7498900039429088
 30
0.0
 11
21.0021008494622414
 21
16.8162596798439701
 31
0.0
  0
ARC
  5
138C9
  8
0
 10
14.9135415963468105
 20
18.7044361982881604
 30
0.0
 40
0.9652000000000013
 50
187.4647094309696058
 51
261.4791750094422014
  0
LINE
  5
138CA
  8
0
 10
13.7805436997989492
 20
19.9971459578179598
 30
0.0
 11
13.9565215995889904
 21
18.5790417574005211
 31
0.0
  0
ARC
  5
138CB
  8
0
 10
12.0163811369106401
 20
19.7657930258514511
 30
0.0
 40
1.7792677503473651
 50
7.4711552796962959
 51
43.3328604941849207
  0
LINE
  5
138CC
  8
0
 10
19.2044482630135391
 20
22.4128361982881508
 30
0.0
 11
14.9355549296801602
 21
22.4128361982881508
 31
0.0
  0
LINE
  5
138CD
  8
0
 10
19.3941015963468999
 20
22.2231828649549392
 30
0.0
 11
14.7459015963468101
 21
22.2231828649549392
 31
0.0
  0
LINE
  5
138CE
  8
2
 10
14.4030015963468205
 20
19.5680361982881301
 30
0.0
 11
20.4990015963468295
 21
19.5680361982881301
 31
0.0
  0
LINE
  5
138CF
  8
2
 10
14.4030015963468205
 20
22.1815307232068903
 30
0.0
 11
14.4030015963468205
 21
19.5680361982881301
 31
0.0
  0
LINE
  5
138D0
  8
2
 10
20.4990015963468295
 20
19.5680361982881301
 30
0.0
 11
20.4990015963468295
 21
21.5630028112522893
 31
0.0
  0
LINE
  5
138D1
  8
2
 10
19.2925015963468205
 20
17.0723962924341492
 30
0.0
 11
19.2925015963468205
 21
19.5680361982881301
 31
0.0
  0
LINE
  5
138D2
  8
2
 10
15.6095015963468295
 20
19.5680361982881301
 30
0.0
 11
15.6095015963468295
 21
17.6241929444568903
 31
0.0
  0
LINE
  5
138D3
  8
2
 10
19.3941015963468999
 20
19.5680361982881301
 30
0.0
 11
19.3941015963468999
 21
21.6751109952940588
 31
0.0
  0
LINE
  5
138D4
  8
2
 10
14.7459015963468101
 20
22.1467385281594282
 30
0.0
 11
14.7459015963468101
 21
19.5680361982881301
 31
0.0
  0
LINE
  5
138D5
  8
0
 10
13.2700015961247004
 20
46.7716221409871196
 30
0.0
 11
13.2700015961247004
 21
37.2716221409871196
 31
0.0
  0
LINE
  5
138D6
  8
0
 10
22.7700015961247608
 20
37.2716221409871196
 30
0.0
 11
22.7700015961248212
 21
46.7716221409871196
 31
0.0
  0
LINE
  5
138D7
  8
0
 10
17.0685569343178791
 20
40.8684805831369715
 30
0.0
 11
16.0685569343179395
 21
41.4458308523263881
 31
0.0
  0
LINE
  5
138D8
  8
0
 10
18.0685569343179395
 20
41.4458308523263881
 30
0.0
 11
17.0685569343178791
 21
40.8684805831369715
 31
0.0
  0
LINE
  5
138D9
  8
0
 10
18.0685569343179395
 20
42.6005313907052994
 30
0.0
 11
18.0685569343179395
 21
41.4458308523263881
 31
0.0
  0
LINE
  5
138DA
  8
0
 10
17.0685569343178791
 20
43.177881659894723
 30
0.0
 11
18.0685569343179395
 21
42.6005313907052994
 31
0.0
  0
LINE
  5
138DB
  8
0
 10
16.0685569343179395
 20
42.6005313907052994
 30
0.0
 11
17.0685569343178791
 21
43.177881659894723
 31
0.0
  0
LINE
  5
138DC
  8
0
 10
16.0685569343179395
 20
41.4458308523263881
 30
0.0
 11
16.0685569343179395
 21
42.6005313907052994
 31
0.0
  0
CIRCLE
  5
138DD
  8
0
 10
17.0699895814414013
 20
42.0216221409871196
 30
0.0
 40
2.3241048709076209
  0
ARC
  5
138DE
  8
0
 10
17.8319911784607186
 20
42.0216221409871196
 30
0.0
 40
2.6670055895661098
 50
270.0
 51
90.0
  0
LINE
  5
138DF
  8
0
 10
17.0699895814414013
 20
44.6886277305532289
 30
0.0
 11
17.8319911784607186
 21
44.6886277305532289
 31
0.0
  0
ARC
  5
138E0
  8
0
 10
17.0699895814414013
 20
42.0216221409871196
 30
0.0
 40
2.6670055895661098
 50
90.0
 51
270.0
  0
LINE
  5
138E1
  8
0
 10
17.8319911784607186
 20
39.3546165514209818
 30
0.0
 11
17.0699895814414013
 21
39.3546165514209818
 31
0.0
  0
LINE
  5
138E2
  8
0
 10
13.2700015961247004
 20
46.7716221409871196
 30
0.0
 11
22.7700015961247004
 21
46.7716221409871196
 31
0.0
  0
LINE
  5
138E3
  8
0
 10
13.2700015961247004
 20
37.2716221409871196
 30
0.0
 11
22.7700015961247608
 21
37.2716221409871196
 31
0.0
  0
LINE
  5
138E4
  8
2
 10
15.8200015961248202
 20
16.044557798719211
 30
0.0
 11
15.8200015961248202
 21
19.5680361982880413
 31
0.0
  0
LINE
  5
138E5
  8
2
 10
16.0700015961248184
 20
16.044557798719211
 30
0.0
 11
16.0700015961246017
 21
19.5680361982880413
 31
0.0
  0
LINE
  5
138E6
  8
2
 10
18.0700015961245413
 20
16.044557798719211
 30
0.0
 11
18.0700015961246017
 21
19.5680361982880413
 31
0.0
  0
LINE
  5
138E7
  8
2
 10
18.3200015961246017
 20
16.044557798719211
 30
0.0
 11
18.3200015961246017
 21
19.5680361982880413
 31
0.0
  0
LINE
  5
138E8
  8
0
 10
17.8200015961247082
 20
11.5680361982880999
 30
0.0
 11
16.3200015961247082
 21
11.5680361982881497
 31
0.0
  0
LINE
  5
138E9
  8
0
 10
18.3200015961246514
 20
16.044557798719211
 30
0.0
 11
18.3200015961247082
 21
12.0680361982879791
 31
0.0
  0
LINE
  5
138EA
  8
0
 10
15.8200015961248202
 20
16.044557798719211
 30
0.0
 11
15.82000159612471
 21
12.0680361982880999
 31
0.0
  0
LINE
  5
138EB
  8
3
 10
18.0700015961247082
 20
11.8180361982879294
 30
0.0
 11
18.0700015961246514
 21
16.044557798719211
 31
0.0
  0
LINE
  5
138EC
  8
3
 10
16.0700015961247082
 20
11.8180361982882101
 30
0.0
 11
16.0700015961247082
 21
16.044557798719211
 31
0.0
  0
LINE
  5
138ED
  8
0
 10
15.82000159612471
 20
12.0680361982881497
 30
0.0
 11
16.3200015961247082
 21
11.5680361982881497
 31
0.0
  0
LINE
  5
138EE
  8
0
 10
18.3200015961247082
 20
12.0680361982880999
 30
0.0
 11
17.8200015961247082
 21
11.5680361982880999
 31
0.0
  0
LINE
  5
138EF
  8
0
 10
15.82000159612471
 20
12.0680361982881497
 30
0.0
 11
18.3200015961247082
 21
12.0680361982880999
 31
0.0
  0
LINE
  5
138F0
  8
1
 10
17.0700015961242002
 20
9.9411862982881303
 30
0.0
 11
17.0700015961247082
 21
24.03968609828814
 31
0.0
  0
LINE
  5
138F1
  8
1
 10
11.2914015961246701
 20
42.0216221409871196
 30
0.0
 11
24.7486015961247894
 21
42.0216221409871196
 31
0.0
  0
LINE
  5
138F2
  8
1
 10
17.0700015963606084
 20
38.3216221409471984
 30
0.0
 11
17.0700015963606084
 21
45.7216221409472325
 31
0.0
  0
LINE
  5
138F3
  8
0
 10
14.7459015963468101
 20
22.1467385281594282
 30
0.0
 11
14.7459015963468101
 21
22.2231828649549392
 31
0.0
  0
LINE
  5
138F4
  8
1
 10
17.4509903799510617
 20
38.3216221409471984
 30
0.0
 11
17.4509903799510617
 21
45.7216221409472325
 31
0.0
  0
ARC
  5
138F5
  8
0
 10
18.9115015961249284
 20
16.8700577987192091
 30
0.0
 40
0.8255000000000023
 50
270.0
 51
9.5860423609142806
  0
LINE
  5
138F6
  8
0
 10
18.9115015961249284
 20
16.044557798719211
 30
0.0
 11
15.2285015961249393
 21
16.044557798719211
 31
0.0
  0
ARC
  5
138F7
  8
0
 10
15.2285015961249393
 20
16.8700577987192091
 30
0.0
 40
0.8255000000000052
 50
95.1058349468417248
 51
270.0
  0
LINE
  5
138F8
  8
1
 10
17.4510015963606406
 20
23.2663648559839409
 30
0.0
 11
17.4510015963606406
 21
16.478015805912289
 31
0.0
  0
ARC
  5
138F9
  8
2
 10
17.8319921966886987
 20
42.0216221409871196
 30
0.0
 40
1.460493823081781
 50
270.0
 51
90.0
  0
LINE
  5
138FA
  8
2
 10
17.069995419428551
 20
43.4821159640689032
 30
0.0
 11
17.8319921966886987
 21
43.4821159640689032
 31
0.0
  0
ARC
  5
138FB
  8
2
 10
17.0699954194286114
 20
42.0216221409871196
 30
0.0
 40
1.460493823081781
 50
90.0
 51
270.0
  0
LINE
  5
138FC
  8
2
 10
17.8319921966886987
 20
40.561128317905343
 30
0.0
 11
17.069995419428551
 21
40.561128317905343
 31
0.0
  0
ENDSEC
  0
EOF
