  0
SECTION
  2
HEADER
  9
$ACADVER
  1
AC1009
  9
$INSBASE
 10
0.0
 20
0.0
 30
0.0
  9
$EXTMIN
 10
0.0
 20
-2.960436562073669
 30
0.0
  9
$EXTMAX
 10
283.30970399398018
 20
198.53504780094269
 30
0.0
  9
$LIMMIN
 10
0.0
 20
0.0
  9
$LIMMAX
 10
192.5
 20
135.0
  9
$ORTHOMODE
 70
     0
  9
$REGENMODE
 70
     1
  9
$FILLMODE
 70
     1
  9
$QTEXTMODE
 70
     0
  9
$MIRRTEXT
 70
     0
  9
$DRAGMODE
 70
     2
  9
$LTSCALE
 40
5.0
  9
$OSMODE
 70
  3071
  9
$ATTMODE
 70
     1
  9
$TEXTSIZE
 40
0.2
  9
$TRACEWID
 40
0.05
  9
$TEXTSTYLE
  7
STANDARD
  9
$CLAYER
  8
0
  9
$CELTYPE
  6
BYLAYER
  9
$CECOLOR
 62
   256
  9
$DIMSCALE
 40
0.5
  9
$DIMASZ
 40
3.0
  9
$DIMEXO
 40
1.0
  9
$DIMDLI
 40
6.0
  9
$DIMRND
 40
0.0
  9
$DIMDLE
 40
0.0
  9
$DIMEXE
 40
1.0
  9
$DIMTP
 40
495.0
  9
$DIMTM
 40
0.0
  9
$DIMTXT
 40
3.0
  9
$DIMCEN
 40
0.0
  9
$DIMTSZ
 40
0.0
  9
$DIMTOL
 70
     0
  9
$DIMLIM
 70
     0
  9
$DIMTIH
 70
     0
  9
$DIMTOH
 70
     0
  9
$DIMSE1
 70
     0
  9
$DIMSE2
 70
     0
  9
$DIMTAD
 70
     1
  9
$DIMZIN
 70
     0
  9
$DIMBLK
  1

  9
$DIMASO
 70
     0
  9
$DIMSHO
 70
     0
  9
$DIMPOST
  1

  9
$DIMAPOST
  1

  9
$DIMALT
 70
     0
  9
$DIMALTD
 70
     2
  9
$DIMALTF
 40
25.399999999999999
  9
$DIMLFAC
 40
1.0
  9
$DIMTOFL
 70
     1
  9
$DIMTVP
 40
0.0
  9
$DIMTIX
 70
     1
  9
$DIMSOXD
 70
     0
  9
$DIMSAH
 70
     0
  9
$DIMBLK1
  1

  9
$DIMBLK2
  1

  9
$DIMSTYLE
  2
STANDARD
  9
$DIMCLRD
 70
     0
  9
$DIMCLRE
 70
     0
  9
$DIMCLRT
 70
     4
  9
$DIMTFAC
 40
1.0
  9
$DIMGAP
 40
1.0
  9
$LUNITS
 70
     2
  9
$LUPREC
 70
     4
  9
$SKETCHINC
 40
0.1
  9
$FILLETRAD
 40
0.0
  9
$AUNITS
 70
     0
  9
$AUPREC
 70
     0
  9
$MENU
  1
E:\r13\win\SUPPORT\ACAD
  9
$ELEVATION
 40
0.0
  9
$PELEVATION
 40
0.0
  9
$THICKNESS
 40
0.0
  9
$LIMCHECK
 70
     0
  9
$BLIPMODE
 70
     0
  9
$CHAMFERA
 40
0.5
  9
$CHAMFERB
 40
0.5
  9
$SKPOLY
 70
     0
  9
$TDCREATE
 40
2450647.4165519681
  9
$TDUPDATE
 40
2456597.6352988309
  9
$TDINDWG
 40
0.0108995023
  9
$TDUSRTIMER
 40
0.0108995023
  9
$USRTIMER
 70
     1
  9
$ANGBASE
 50
0.0
  9
$ANGDIR
 70
     0
  9
$PDMODE
 70
     0
  9
$PDSIZE
 40
0.0
  9
$PLINEWID
 40
0.0
  9
$COORDS
 70
     1
  9
$SPLFRAME
 70
     0
  9
$SPLINETYPE
 70
     6
  9
$SPLINESEGS
 70
     8
  9
$ATTDIA
 70
     0
  9
$ATTREQ
 70
     1
  9
$HANDLING
 70
     1
  9
$HANDSEED
  5
1651
  9
$SURFTAB1
 70
     6
  9
$SURFTAB2
 70
     6
  9
$SURFTYPE
 70
     6
  9
$SURFU
 70
     6
  9
$SURFV
 70
     6
  9
$UCSNAME
  2

  9
$UCSORG
 10
0.0
 20
0.0
 30
0.0
  9
$UCSXDIR
 10
1.0
 20
0.0
 30
0.0
  9
$UCSYDIR
 10
0.0
 20
1.0
 30
0.0
  9
$PUCSNAME
  2

  9
$PUCSORG
 10
0.0
 20
0.0
 30
0.0
  9
$PUCSXDIR
 10
1.0
 20
0.0
 30
0.0
  9
$PUCSYDIR
 10
0.0
 20
1.0
 30
0.0
  9
$USERI1
 70
     3
  9
$USERI2
 70
     1
  9
$USERI3
 70
     0
  9
$USERI4
 70
     0
  9
$USERI5
 70
     0
  9
$USERR1
 40
0.5
  9
$USERR2
 40
3.0
  9
$USERR3
 40
3.0
  9
$USERR4
 40
3.0
  9
$USERR5
 40
10.0
  9
$WORLDVIEW
 70
     1
  9
$SHADEDGE
 70
     3
  9
$SHADEDIF
 70
    70
  9
$TILEMODE
 70
     1
  9
$MAXACTVP
 70
    16
  9
$PLIMCHECK
 70
     0
  9
$PEXTMIN
 10
1.0000000000000000E+020
 20
1.0000000000000000E+020
 30
1.0000000000000000E+020
  9
$PEXTMAX
 10
-1.0000000000000000E+020
 20
-1.0000000000000000E+020
 30
-1.0000000000000000E+020
  9
$PLIMMIN
 10
0.0
 20
0.0
  9
$PLIMMAX
 10
12.0
 20
9.0
  9
$UNITMODE
 70
     0
  9
$VISRETAIN
 70
     0
  9
$PLINEGEN
 70
     0
  9
$PSLTSCALE
 70
     0
  0
ENDSEC
  0
SECTION
  2
TABLES
  0
TABLE
  2
VPORT
 70
     1
  0
VPORT
  2
*ACTIVE
 70
     0
 10
0.0
 20
0.0
 11
1.0
 21
1.0
 12
141.65485265662201
 22
98.219359098527278
 13
0.0
 23
0.0
 14
2.5
 24
2.5
 15
10.0
 25
10.0
 16
0.0
 26
0.0
 36
1.0
 17
0.0
 27
0.0
 37
0.0
 40
204.70474320461821
 41
2.304913294797688
 42
50.0
 43
0.0
 44
0.0
 50
0.0
 51
0.0
 71
     0
 72
   100
 73
     1
 74
     0
 75
     0
 76
     0
 77
     0
 78
     0
  0
ENDTAB
  0
TABLE
  2
LTYPE
 70
     4
  0
LTYPE
  2
CONTINUOUS
 70
     0
  3
Solid Line
 72
    65
 73
     0
 40
0.0
  0
LTYPE
  2
CENTER
 70
     0
  3
____ _ ____ _ ____ _ ____ _ ____ _ ____ _ ____
 72
    65
 73
     4
 40
2.0
 49
1.25
 49
-0.25
 49
0.25
 49
-0.25
  0
LTYPE
  2
HIDDEN
 70
     0
  3
_ _ _ _ _ _ _ _ _ _ _ _ _ _ _ _ _ _ _ _ _ _ _
 72
    65
 73
     2
 40
0.375
 49
0.25
 49
-0.125
  0
LTYPE
  2
PHANTOM2
 70
     0
  3
___ _ _ ___ _ _ ___ _ _ ___ _ _
 72
    65
 73
     6
 40
1.25
 49
0.625
 49
-0.125
 49
0.125
 49
-0.125
 49
0.125
 49
-0.125
  0
ENDTAB
  0
TABLE
  2
LAYER
 70
     4
  0
LAYER
  2
0
 70
     0
 62
     7
  6
CONTINUOUS
  0
LAYER
  2
1
 70
     0
 62
     1
  6
CENTER
  0
LAYER
  2
2
 70
     0
 62
     2
  6
HIDDEN
  0
LAYER
  2
3
 70
     0
 62
     3
  6
CONTINUOUS
  0
ENDTAB
  0
TABLE
  2
STYLE
 70
     2
  0
STYLE
  2
STANDARD
 70
     0
 40
0.0
 41
1.0
 50
0.0
 71
     0
 42
0.2
  3
SIMPLEX
  4
BIGFONT
  0
STYLE
  2
STANDARD1
 70
     0
 40
0.0
 41
1.0
 50
0.0
 71
     0
 42
3.0
  3
txt
  4

  0
ENDTAB
  0
TABLE
  2
VIEW
 70
     0
  0
ENDTAB
  0
TABLE
  2
UCS
 70
     0
  0
ENDTAB
  0
TABLE
  2
APPID
 70
     3
  0
APPID
  2
ACAD
 70
     0
  0
APPID
  2
ACAD_MLEADERVER
 70
     0
  0
APPID
  2
ACAD_NAV_VCDISPLAY
 70
     0
  0
ENDTAB
  0
TABLE
  2
DIMSTYLE
 70
     1
  0
DIMSTYLE
  2
STANDARD
 70
     0
  3

  4

  5

  6

  7

 40
1.0
 41
0.18
 42
0.0625
 43
0.38
 44
0.18
 45
0.0
 46
0.0
 47
0.0
 48
0.0
140
0.18
141
0.09
142
0.0
143
25.399999999999999
144
1.0
145
0.0
146
1.0
147
0.09
 71
     0
 72
     0
 73
     1
 74
     1
 75
     0
 76
     0
 77
     0
 78
     0
170
     0
171
     2
172
     0
173
     0
174
     0
175
     0
176
     0
177
     0
178
     0
  0
ENDTAB
  0
ENDSEC
  0
SECTION
  2
BLOCKS
  0
BLOCK
  8
0
  2
$MODEL_SPACE
 70
     0
 10
0.0
 20
0.0
 30
0.0
  3
$MODEL_SPACE
  1

  0
ENDBLK
  5
329
  8
0
  0
BLOCK
 67
     1
  8
0
  2
$PAPER_SPACE
 70
     0
 10
0.0
 20
0.0
 30
0.0
  3
$PAPER_SPACE
  1

  0
ENDBLK
  5
327
 67
     1
  8
0
  0
ENDSEC
  0
SECTION
  2
ENTITIES
  0
ARC
  5
132E
  8
0
 10
148.41441472884651
 20
93.728754640243096
 30
0.0
 40
1.2703048999999991
 50
55.237581370951439
 51
60.563663904427081
  0
LINE
  5
1428
  8
2
 10
168.1387039939803
 20
95.671992915093824
 30
0.0
 11
168.1387039939803
 21
84.671992915093725
 31
0.0
  0
LINE
  5
1429
  8
2
 10
71.759703993979997
 20
86.594845627247423
 30
0.0
 11
71.759703993979997
 21
89.271992915094188
 31
0.0
  0
LINE
  5
142A
  8
2
 10
72.301203993980025
 20
86.594845627247423
 30
0.0
 11
72.301203993980025
 21
89.271992915094188
 31
0.0
  0
LINE
  5
142B
  8
2
 10
77.218203993980396
 20
86.594845627247423
 30
0.0
 11
77.218203993980396
 21
89.271992915094188
 31
0.0
  0
LINE
  5
142C
  8
2
 10
77.759703993980452
 20
86.594845627247423
 30
0.0
 11
77.759703993980452
 21
89.271992915094188
 31
0.0
  0
ARC
  5
142D
  8
0
 10
79.009703993980452
 20
85.921992915094052
 30
0.0
 40
1.25
 50
147.43322490994029
 51
32.566775090059679
  0
ARC
  5
142E
  8
2
 10
70.509703993980452
 20
85.921992915094052
 30
0.0
 40
1.25
 50
32.566775090059679
 51
147.43322490994029
  0
LINE
  5
142F
  8
0
 10
84.309703993980634
 20
93.891415746158714
 30
0.0
 11
65.209703993980483
 21
93.891415746158714
 31
0.0
  0
LINE
  5
1430
  8
0
 10
84.309703993980179
 20
86.594845627247423
 30
0.0
 11
65.209703993980483
 21
86.594845627247537
 31
0.0
  0
LINE
  5
1431
  8
0
 10
84.309703993980406
 20
94.835064143314057
 30
0.0
 11
65.209703993980483
 21
94.835064143314057
 31
0.0
  0
LINE
  5
1432
  8
0
 10
71.759703993980224
 20
84.671992915094165
 30
0.0
 11
71.759703993980224
 21
86.594845627247423
 31
0.0
  0
LINE
  5
1433
  8
3
 10
72.301203993980266
 20
84.671992915094052
 30
0.0
 11
72.301203993980494
 21
86.594845627247423
 31
0.0
  0
LINE
  5
1434
  8
3
 10
77.218203993980396
 20
84.671992915094052
 30
0.0
 11
77.218203993980396
 21
86.594845627247423
 31
0.0
  0
LINE
  5
1435
  8
0
 10
77.759703993980452
 20
84.671992915094052
 30
0.0
 11
77.759703993980452
 21
86.594845627247423
 31
0.0
  0
LINE
  5
1436
  8
0
 10
89.768646041596526
 20
58.071992915094029
 30
0.0
 11
97.768646041596526
 21
58.071992915094029
 31
0.0
  0
LINE
  5
1437
  8
0
 10
96.568646041596494
 20
56.871992915093983
 30
0.0
 11
97.768646041596526
 21
58.071992915094029
 31
0.0
  0
LINE
  5
1438
  8
0
 10
89.768646041596526
 20
58.071992915094029
 30
0.0
 11
90.968646041596571
 21
56.871992915093983
 31
0.0
  0
LINE
  5
1439
  8
0
 10
89.768646041596526
 20
70.571992915093915
 30
0.0
 11
89.768646041596526
 21
58.071992915094029
 31
0.0
  0
LINE
  5
143A
  8
3
 10
90.445146041596558
 20
70.571992915093915
 30
0.0
 11
90.445146041596558
 21
57.395492915093989
 31
0.0
  0
LINE
  5
143B
  8
3
 10
97.092146041596948
 20
70.571992915093915
 30
0.0
 11
97.09214604159672
 21
57.395492915094231
 31
0.0
  0
LINE
  5
143C
  8
0
 10
97.768646041596526
 20
70.571992915093915
 30
0.0
 11
97.768646041596526
 21
58.071992915094029
 31
0.0
  0
LINE
  5
143D
  8
0
 10
90.968646041596571
 20
56.871992915093983
 30
0.0
 11
96.568646041596494
 21
56.871992915093983
 31
0.0
  0
LINE
  5
143E
  8
2
 10
100.2686460415965
 20
94.371992915093983
 30
0.0
 11
99.40262063781222
 21
94.871992915093983
 31
0.0
  0
LINE
  5
143F
  8
2
 10
87.268646041596526
 20
94.371992915093983
 30
0.0
 11
88.134671445381059
 21
94.871992915093983
 31
0.0
  0
LINE
  5
1440
  8
2
 10
100.2686460415965
 20
94.371992915093983
 30
0.0
 11
87.268646041596526
 21
94.371992915093983
 31
0.0
  0
LINE
  5
1441
  8
2
 10
99.40262063781222
 20
94.871992915093983
 30
0.0
 11
88.134671445381059
 21
94.871992915093983
 31
0.0
  0
LINE
  5
1442
  8
2
 10
100.2686460415965
 20
86.871992915093983
 30
0.0
 11
100.2686460415965
 21
95.671992915094052
 31
0.0
  0
LINE
  5
1443
  8
2
 10
87.268646041596526
 20
86.871992915093983
 30
0.0
 11
100.2686460415965
 21
86.871992915093983
 31
0.0
  0
LINE
  5
1444
  8
2
 10
87.268646041596284
 20
95.671992915094052
 30
0.0
 11
87.268646041596526
 21
86.871992915093983
 31
0.0
  0
LINE
  5
1445
  8
0
 10
103.30970399398041
 20
95.671992915093938
 30
0.0
 11
46.20970399398049
 21
95.671992915093938
 31
0.0
  0
LINE
  5
1446
  8
0
 10
103.30970399398041
 20
95.671992915093938
 30
0.0
 11
103.30970399398061
 21
70.571992915093915
 31
0.0
  0
LINE
  5
1447
  8
0
 10
46.20970399398049
 20
95.671992915093938
 30
0.0
 11
46.209703993980717
 21
70.571992915093915
 31
0.0
  0
LINE
  5
1448
  8
0
 10
103.30970399398061
 20
70.571992915093915
 30
0.0
 11
46.209703993980717
 21
70.571992915093915
 31
0.0
  0
LINE
  5
1449
  8
1
 10
74.759703993980452
 20
101.0357311945678
 30
0.0
 11
74.759703993980452
 21
62.985996017889541
 31
0.0
  0
LINE
  5
144A
  8
1
 10
55.70970399398049
 20
99.87199291509387
 30
0.0
 11
55.70970399398049
 21
51.87199291509404
 31
0.0
  0
LINE
  5
144B
  8
1
 10
93.809703993980406
 20
99.87199291509387
 30
0.0
 11
93.809703993980406
 21
51.87199291509404
 31
0.0
  0
LINE
  5
144C
  8
2
 10
49.168646041596162
 20
95.671992915094052
 30
0.0
 11
49.168646041596389
 21
86.871992915093983
 31
0.0
  0
LINE
  5
144D
  8
2
 10
49.168646041596389
 20
86.871992915093983
 30
0.0
 11
62.168646041596382
 21
86.871992915093983
 31
0.0
  0
LINE
  5
144E
  8
2
 10
62.168646041596382
 20
86.871992915093983
 30
0.0
 11
62.168646041596162
 21
95.671992915094052
 31
0.0
  0
LINE
  5
144F
  8
2
 10
61.302620637812083
 20
94.871992915093983
 30
0.0
 11
50.034671445380923
 21
94.871992915093983
 31
0.0
  0
LINE
  5
1450
  8
2
 10
62.168646041596382
 20
94.371992915093983
 30
0.0
 11
49.168646041596389
 21
94.371992915093983
 31
0.0
  0
LINE
  5
1451
  8
2
 10
49.168646041596389
 20
94.371992915093983
 30
0.0
 11
50.034671445380923
 21
94.871992915093983
 31
0.0
  0
LINE
  5
1452
  8
2
 10
62.168646041596382
 20
94.371992915093983
 30
0.0
 11
61.302620637812083
 21
94.871992915093983
 31
0.0
  0
LINE
  5
1453
  8
0
 10
52.868646041596428
 20
56.871992915093983
 30
0.0
 11
58.468646041596337
 21
56.871992915093983
 31
0.0
  0
LINE
  5
1454
  8
0
 10
59.668646041596382
 20
70.571992915093915
 30
0.0
 11
59.668646041596382
 21
58.071992915094029
 31
0.0
  0
LINE
  5
1455
  8
3
 10
58.992146041596811
 20
70.571992915093915
 30
0.0
 11
58.992146041596577
 21
57.395492915094231
 31
0.0
  0
LINE
  5
1456
  8
3
 10
52.345146041596422
 20
70.571992915093915
 30
0.0
 11
52.345146041596422
 21
57.395492915093989
 31
0.0
  0
LINE
  5
1457
  8
0
 10
51.668646041596162
 20
70.571992915093915
 30
0.0
 11
51.668646041596389
 21
58.071992915094029
 31
0.0
  0
LINE
  5
1458
  8
0
 10
51.668646041596389
 20
58.071992915094029
 30
0.0
 11
52.868646041596428
 21
56.871992915093983
 31
0.0
  0
LINE
  5
1459
  8
0
 10
58.468646041596337
 20
56.871992915093983
 30
0.0
 11
59.668646041596382
 21
58.071992915094029
 31
0.0
  0
LINE
  5
145A
  8
0
 10
51.668646041596389
 20
58.071992915094029
 30
0.0
 11
59.668646041596382
 21
58.071992915094029
 31
0.0
  0
LINE
  5
145B
  8
2
 10
97.768646041596526
 20
70.571992915093915
 30
0.0
 11
97.768646041596526
 21
86.871992915093983
 31
0.0
  0
LINE
  5
145C
  8
2
 10
97.092146041596948
 20
70.571992915093915
 30
0.0
 11
97.092146041596948
 21
86.871992915093983
 31
0.0
  0
LINE
  5
145D
  8
2
 10
90.445146041596558
 20
70.571992915093915
 30
0.0
 11
90.445146041596558
 21
86.871992915093983
 31
0.0
  0
LINE
  5
145E
  8
2
 10
89.768646041596526
 20
70.571992915093915
 30
0.0
 11
89.768646041596526
 21
86.871992915093983
 31
0.0
  0
LINE
  5
145F
  8
2
 10
51.668646041596389
 20
70.571992915093915
 30
0.0
 11
51.668646041596389
 21
86.871992915093983
 31
0.0
  0
LINE
  5
1460
  8
2
 10
52.345146041596422
 20
70.571992915093915
 30
0.0
 11
52.345146041596422
 21
86.871992915093983
 31
0.0
  0
LINE
  5
1461
  8
2
 10
58.992146041596811
 20
70.571992915093915
 30
0.0
 11
58.992146041596811
 21
86.871992915093983
 31
0.0
  0
LINE
  5
1462
  8
2
 10
59.668646041596382
 20
70.571992915093915
 30
0.0
 11
59.668646041596382
 21
86.871992915093983
 31
0.0
  0
LINE
  5
1463
  8
0
 10
84.759703993980224
 20
84.671992915094052
 30
0.0
 11
64.759703993980452
 21
84.671992915094052
 31
0.0
  0
LINE
  5
1464
  8
0
 10
64.759703993980452
 20
95.671992915093938
 30
0.0
 11
64.759703993980452
 21
84.671992915094052
 31
0.0
  0
LINE
  5
1465
  8
0
 10
84.759703993980224
 20
95.671992915093938
 30
0.0
 11
84.759703993980452
 21
84.671992915094052
 31
0.0
  0
LINE
  5
1466
  8
0
 10
84.309703993980406
 20
95.497475794135525
 30
0.0
 11
65.209703993980042
 21
95.497475794135767
 31
0.0
  0
LINE
  5
1467
  8
2
 10
70.452524317007942
 20
95.271992915094174
 30
0.0
 11
69.759703993980224
 21
94.871992915094097
 31
0.0
  0
ARC
  5
1468
  8
0
 10
70.509703993979997
 20
85.921992915094052
 30
0.0
 40
1.25
 50
147.43322490994029
 51
32.566775090059679
  0
ARC
  5
1469
  8
2
 10
79.009703993979997
 20
85.921992915094052
 30
0.0
 40
1.25
 50
32.566775090059679
 51
147.43322490994029
  0
LINE
  5
146A
  8
2
 10
79.066883670952961
 20
95.271992915094174
 30
0.0
 11
70.452524317007942
 21
95.271992915094174
 31
0.0
  0
LINE
  5
146B
  8
2
 10
72.301203993980266
 20
70.571992915093915
 30
0.0
 11
72.301203993980266
 21
84.671992915094165
 31
0.0
  0
LINE
  5
146C
  8
2
 10
71.759703993980224
 20
70.571992915093915
 30
0.0
 11
71.759703993980224
 21
84.671992915094165
 31
0.0
  0
LINE
  5
146D
  8
2
 10
77.218203993980396
 20
70.571992915093915
 30
0.0
 11
77.218203993980396
 21
84.671992915094165
 31
0.0
  0
LINE
  5
146E
  8
2
 10
77.759703993979997
 20
70.571992915093915
 30
0.0
 11
77.759703993980452
 21
84.671992915094165
 31
0.0
  0
LINE
  5
146F
  8
2
 10
69.759703993980224
 20
94.871992915093983
 30
0.0
 11
69.759703993980224
 21
89.271992915094188
 31
0.0
  0
LINE
  5
1470
  8
2
 10
79.759703993980224
 20
94.871992915094097
 30
0.0
 11
69.759703993980224
 21
94.871992915094097
 31
0.0
  0
LINE
  5
1471
  8
2
 10
79.066883670952734
 20
95.271992915094174
 30
0.0
 11
79.759703993980224
 21
94.871992915094097
 31
0.0
  0
LINE
  5
1472
  8
2
 10
69.759703993980224
 20
89.271992915094188
 30
0.0
 11
79.759703993980224
 21
89.271992915094188
 31
0.0
  0
LINE
  5
1473
  8
2
 10
79.759703993980224
 20
89.271992915094188
 30
0.0
 11
79.759703993980224
 21
94.871992915094097
 31
0.0
  0
LINE
  5
1474
  8
2
 10
72.759703993980224
 20
73.271992915094188
 30
0.0
 11
76.759703993980224
 21
73.271992915094188
 31
0.0
  0
LINE
  5
1475
  8
2
 10
71.759703993980224
 20
74.271992915094188
 30
0.0
 11
72.759703993980224
 21
73.271992915094188
 31
0.0
  0
LINE
  5
1476
  8
2
 10
76.759703993980224
 20
73.271992915094188
 30
0.0
 11
77.759703993980224
 21
74.271992915094188
 31
0.0
  0
LINE
  5
1477
  8
2
 10
77.759703993980224
 20
74.271992915094188
 30
0.0
 11
71.759703993980224
 21
74.271992915094074
 31
0.0
  0
LINE
  5
1478
  8
0
 10
65.20970399398027
 20
95.497475794135767
 30
0.0
 11
65.20970399398027
 21
84.671992915094052
 31
0.0
  0
LINE
  5
1479
  8
0
 10
84.309703993980634
 20
95.497475794135525
 30
0.0
 11
84.309703993980406
 21
84.671992915094052
 31
0.0
  0
LINE
  5
147A
  8
2
 10
149.1387039939799
 20
94.892796397040925
 30
0.0
 11
150.1860217193933
 21
95.497475794135525
 31
0.0
  0
LINE
  5
147B
  8
2
 10
245.20970399398001
 20
95.497475794135326
 30
0.0
 11
245.2097039939803
 21
84.671992915093824
 31
0.0
  0
LINE
  5
147C
  8
2
 10
264.30970399398041
 20
95.497475794135525
 30
0.0
 11
264.30970399398041
 21
84.671992915093824
 31
0.0
  0
LINE
  5
147D
  8
2
 10
251.75970399398051
 20
74.271992915093961
 30
0.0
 11
257.75970399398051
 21
74.271992915093847
 31
0.0
  0
LINE
  5
147E
  8
2
 10
252.75970399398039
 20
73.271992915093961
 30
0.0
 11
251.75970399398051
 21
74.271992915093961
 31
0.0
  0
LINE
  5
147F
  8
2
 10
257.75970399398051
 20
74.271992915093961
 30
0.0
 11
256.75970399398039
 21
73.271992915093961
 31
0.0
  0
LINE
  5
1480
  8
2
 10
256.75970399398039
 20
73.271992915093961
 30
0.0
 11
252.75970399398039
 21
73.271992915093961
 31
0.0
  0
LINE
  5
1481
  8
2
 10
249.75970399398051
 20
89.271992915093961
 30
0.0
 11
249.75970399398051
 21
94.87199291509387
 31
0.0
  0
LINE
  5
1482
  8
2
 10
259.75970399398051
 20
89.271992915093961
 30
0.0
 11
249.75970399398051
 21
89.271992915093961
 31
0.0
  0
LINE
  5
1483
  8
2
 10
250.45252431700791
 20
95.271992915093946
 30
0.0
 11
249.75970399398051
 21
94.87199291509387
 31
0.0
  0
LINE
  5
1484
  8
2
 10
249.75970399398051
 20
94.87199291509387
 30
0.0
 11
259.75970399398051
 21
94.87199291509387
 31
0.0
  0
LINE
  5
1485
  8
2
 10
259.75970399398051
 20
94.871992915093756
 30
0.0
 11
259.75970399398051
 21
89.271992915093961
 31
0.0
  0
LINE
  5
1486
  8
2
 10
251.75970399398071
 20
70.571992915093688
 30
0.0
 11
251.75970399398051
 21
89.271992915093961
 31
0.0
  0
LINE
  5
1487
  8
2
 10
252.30120399398029
 20
70.571992915093688
 30
0.0
 11
252.30120399398029
 21
89.271992915093961
 31
0.0
  0
LINE
  5
1488
  8
2
 10
257.75970399398051
 20
70.571992915093688
 30
0.0
 11
257.75970399398051
 21
89.271992915093961
 31
0.0
  0
LINE
  5
1489
  8
2
 10
257.21820399398041
 20
70.571992915093688
 30
0.0
 11
257.21820399398041
 21
89.271992915093961
 31
0.0
  0
LINE
  5
148A
  8
2
 10
250.45252431700769
 20
95.271992915093946
 30
0.0
 11
259.06688367095268
 21
95.271992915093946
 31
0.0
  0
CIRCLE
  5
148B
  8
2
 10
250.50970399398071
 20
85.921992915093824
 30
0.0
 40
1.25
  0
CIRCLE
  5
148C
  8
2
 10
259.00970399398068
 20
85.921992915093824
 30
0.0
 40
1.25
  0
LINE
  5
148D
  8
2
 10
259.06688367095268
 20
95.271992915093946
 30
0.0
 11
259.75970399398051
 21
94.87199291509387
 31
0.0
  0
LINE
  5
148E
  8
2
 10
245.2097039939803
 20
95.497475794135326
 30
0.0
 11
264.30970399398069
 21
95.497475794135525
 31
0.0
  0
LINE
  5
148F
  8
2
 10
244.75970399398039
 20
95.671992915093711
 30
0.0
 11
244.7597039939802
 21
84.671992915093824
 31
0.0
  0
LINE
  5
1490
  8
2
 10
264.75970399398022
 20
95.671992915093711
 30
0.0
 11
264.75970399398022
 21
84.671992915093824
 31
0.0
  0
LINE
  5
1491
  8
2
 10
244.75970399398039
 20
84.671992915093824
 30
0.0
 11
264.75970399398022
 21
84.671992915093824
 31
0.0
  0
LINE
  5
1492
  8
2
 10
160.94588367095241
 20
95.271992915093946
 30
0.0
 11
161.6387039939803
 21
94.87199291509387
 31
0.0
  0
CIRCLE
  5
1493
  8
2
 10
160.88870399398061
 20
85.921992915093924
 30
0.0
 40
1.25
  0
CIRCLE
  5
1494
  8
2
 10
152.38870399398061
 20
85.921992915093924
 30
0.0
 40
1.25
  0
ARC
  5
1495
  8
2
 10
148.4144081035837
 20
93.728750815093804
 30
0.0
 40
1.2703048999999991
 50
7.2662074569255948
 51
55.237581370951439
  0
LINE
  5
1496
  8
2
 10
152.33152431700759
 20
95.271992915093946
 30
0.0
 11
160.94588367095261
 21
95.271992915093946
 31
0.0
  0
LINE
  5
1497
  8
2
 10
269.85076194636429
 20
70.571992915093688
 30
0.0
 11
269.85076194636429
 21
86.871992915093756
 31
0.0
  0
LINE
  5
1498
  8
2
 10
270.52726194636381
 20
70.571992915093688
 30
0.0
 11
270.52726194636381
 21
86.871992915093756
 31
0.0
  0
LINE
  5
1499
  8
2
 10
277.17426194636431
 20
70.571992915093688
 30
0.0
 11
277.17426194636431
 21
86.871992915093756
 31
0.0
  0
LINE
  5
149A
  8
2
 10
277.85076194636429
 20
70.571992915093688
 30
0.0
 11
277.85076194636429
 21
86.871992915093756
 31
0.0
  0
LINE
  5
149B
  8
2
 10
239.75076194636421
 20
70.571992915093688
 30
0.0
 11
239.75076194636421
 21
86.871992915093756
 31
0.0
  0
LINE
  5
149C
  8
2
 10
239.07426194636409
 20
70.571992915093688
 30
0.0
 11
239.07426194636409
 21
86.871992915093756
 31
0.0
  0
LINE
  5
149D
  8
2
 10
232.4272619463637
 20
70.571992915093688
 30
0.0
 11
232.4272619463637
 21
86.871992915093756
 31
0.0
  0
LINE
  5
149E
  8
2
 10
231.75076194636421
 20
70.571992915093688
 30
0.0
 11
231.75076194636421
 21
86.871992915093756
 31
0.0
  0
LINE
  5
149F
  8
0
 10
277.85076194636429
 20
58.071992915093801
 30
0.0
 11
269.85076194636429
 21
58.071992915093801
 31
0.0
  0
LINE
  5
14A0
  8
0
 10
271.05076194636428
 20
56.871992915093763
 30
0.0
 11
269.85076194636429
 21
58.071992915093801
 31
0.0
  0
LINE
  5
14A1
  8
0
 10
277.85076194636429
 20
58.071992915093801
 30
0.0
 11
276.65076194636418
 21
56.871992915093763
 31
0.0
  0
LINE
  5
14A2
  8
0
 10
277.85076194636451
 20
70.571992915093688
 30
0.0
 11
277.85076194636429
 21
58.071992915093801
 31
0.0
  0
LINE
  5
14A3
  8
3
 10
277.17426194636431
 20
70.571992915093688
 30
0.0
 11
277.17426194636431
 21
57.395492915093762
 31
0.0
  0
LINE
  5
14A4
  8
3
 10
270.52726194636381
 20
70.571992915093688
 30
0.0
 11
270.52726194636409
 21
57.395492915093989
 31
0.0
  0
LINE
  5
14A5
  8
0
 10
269.85076194636429
 20
70.571992915093688
 30
0.0
 11
269.85076194636429
 21
58.071992915093801
 31
0.0
  0
LINE
  5
14A6
  8
0
 10
276.65076194636418
 20
56.871992915093763
 30
0.0
 11
271.05076194636428
 21
56.871992915093763
 31
0.0
  0
LINE
  5
14A7
  8
2
 10
267.35076194636429
 20
94.371992915093756
 30
0.0
 11
268.21678735014859
 21
94.871992915093756
 31
0.0
  0
LINE
  5
14A8
  8
2
 10
280.35076194636429
 20
94.371992915093756
 30
0.0
 11
279.4847365425797
 21
94.871992915093756
 31
0.0
  0
LINE
  5
14A9
  8
2
 10
267.35076194636429
 20
94.371992915093756
 30
0.0
 11
280.35076194636429
 21
94.371992915093756
 31
0.0
  0
LINE
  5
14AA
  8
2
 10
268.21678735014859
 20
94.871992915093756
 30
0.0
 11
279.4847365425797
 21
94.871992915093756
 31
0.0
  0
LINE
  5
14AB
  8
2
 10
267.35076194636429
 20
86.871992915093756
 30
0.0
 11
267.35076194636451
 21
95.671992915093824
 31
0.0
  0
LINE
  5
14AC
  8
2
 10
280.35076194636429
 20
86.871992915093756
 30
0.0
 11
267.35076194636429
 21
86.871992915093756
 31
0.0
  0
LINE
  5
14AD
  8
2
 10
280.35076194636451
 20
95.671992915093824
 30
0.0
 11
280.35076194636429
 21
86.871992915093756
 31
0.0
  0
LINE
  5
14AE
  8
1
 10
235.7097039939803
 20
99.871992915093642
 30
0.0
 11
235.7097039939803
 21
51.871992915093813
 31
0.0
  0
LINE
  5
14AF
  8
1
 10
273.80970399398018
 20
99.871992915093642
 30
0.0
 11
273.80970399398018
 21
51.871992915093813
 31
0.0
  0
LINE
  5
14B0
  8
1
 10
254.7597039939802
 20
101.0357311945675
 30
0.0
 11
254.7597039939802
 21
62.985996017889299
 31
0.0
  0
LINE
  5
14B1
  8
0
 10
226.2097039939801
 20
70.571992915093688
 30
0.0
 11
283.30970399397989
 21
70.571992915093688
 31
0.0
  0
LINE
  5
14B2
  8
0
 10
283.30970399398018
 20
95.671992915093711
 30
0.0
 11
283.30970399397989
 21
70.571992915093688
 31
0.0
  0
LINE
  5
14B3
  8
0
 10
226.2097039939803
 20
95.671992915093711
 30
0.0
 11
226.2097039939801
 21
70.571992915093688
 31
0.0
  0
LINE
  5
14B4
  8
0
 10
226.2097039939803
 20
95.671992915093711
 30
0.0
 11
283.30970399398018
 21
95.671992915093711
 31
0.0
  0
LINE
  5
14B5
  8
2
 10
159.09720399398029
 20
73.730492915093919
 30
0.0
 11
159.09720399398029
 21
89.271992915093961
 31
0.0
  0
LINE
  5
14B6
  8
2
 10
159.6387039939803
 20
74.271992915093847
 30
0.0
 11
159.6387039939803
 21
89.271992915093961
 31
0.0
  0
LINE
  5
14B7
  8
2
 10
154.1802039939802
 20
73.73049291509426
 30
0.0
 11
154.1802039939802
 21
89.271992915093961
 31
0.0
  0
LINE
  5
14B8
  8
2
 10
153.6387039939803
 20
74.271992915093961
 30
0.0
 11
153.6387039939803
 21
89.271992915093961
 31
0.0
  0
LINE
  5
14B9
  8
2
 10
161.6387039939803
 20
94.871992915093756
 30
0.0
 11
161.6387039939803
 21
89.271992915093961
 31
0.0
  0
LINE
  5
14BA
  8
2
 10
151.6387039939803
 20
94.87199291509387
 30
0.0
 11
161.6387039939803
 21
94.87199291509387
 31
0.0
  0
LINE
  5
14BB
  8
2
 10
152.33152431700739
 20
95.271992915093946
 30
0.0
 11
151.6387039939803
 21
94.87199291509387
 31
0.0
  0
LINE
  5
14BC
  8
2
 10
149.67451145727529
 20
93.889418412881582
 30
0.0
 11
150.40000146973571
 21
88.235181033884828
 31
0.0
  0
LINE
  5
14BD
  8
0
 10
149.0387139035837
 20
94.835066115093824
 30
0.0
 11
149.1387039939799
 21
94.892796397040783
 31
0.0
  0
ARC
  5
14BE
  8
2
 10
162.17457873516639
 20
92.82634462058013
 30
0.0
 40
1.5
 50
45.000176478795147
 51
84.454024443977048
  0
LINE
  5
14BF
  8
2
 10
152.01315748948929
 20
86.593918015093763
 30
0.0
 11
164.6372570626009
 21
84.705792775870108
 31
0.0
  0
LINE
  5
14C0
  8
2
 10
163.23523563996341
 20
93.887008059332402
 30
0.0
 11
167.24639859398039
 21
89.875869815093893
 31
0.0
  0
LINE
  5
14C1
  8
2
 10
150.1860217193933
 20
95.497475794135525
 30
0.0
 11
162.31954541346761
 21
94.319323073935038
 31
0.0
  0
LINE
  5
14C2
  8
1
 10
156.63870399398061
 20
70.771992915093961
 30
0.0
 11
156.63870399398061
 21
97.37199291509387
 31
0.0
  0
ARC
  5
14C3
  8
2
 10
152.2897720894895
 20
88.479178015093794
 30
0.0
 40
1.9054572999999999
 50
187.35701999999901
 51
261.46040000000778
  0
ARC
  5
14C4
  8
2
 10
165.08997219398029
 20
87.720724715093866
 30
0.0
 40
3.0487318000000001
 50
261.46040000000778
 51
44.982983999993813
  0
LINE
  5
14C5
  8
2
 10
161.6387039939803
 20
89.271992915093961
 30
0.0
 11
151.6387039939803
 21
89.271992915093961
 31
0.0
  0
LINE
  5
14C6
  8
2
 10
151.6387039939803
 20
89.271992915093961
 30
0.0
 11
151.6387039939803
 21
94.87199291509387
 31
0.0
  0
LINE
  5
14C7
  8
2
 10
158.6387039939803
 20
73.271992915093961
 30
0.0
 11
154.6387039939803
 21
73.271992915093961
 31
0.0
  0
LINE
  5
14C8
  8
2
 10
159.6387039939803
 20
74.271992915093961
 30
0.0
 11
158.6387039939803
 21
73.271992915093961
 31
0.0
  0
LINE
  5
14C9
  8
2
 10
154.6387039939803
 20
73.271992915093961
 30
0.0
 11
153.6387039939803
 21
74.271992915093961
 31
0.0
  0
LINE
  5
14CA
  8
2
 10
153.6387039939803
 20
74.271992915093961
 30
0.0
 11
159.6387039939803
 21
74.271992915093847
 31
0.0
  0
LINE
  5
14CB
  8
0
 10
149.1387039939803
 20
174.53504780094249
 30
0.0
 11
149.1387039939803
 21
193.53504780094269
 31
0.0
  0
LINE
  5
14CC
  8
0
 10
156.6387039939803
 20
170.68480480094249
 30
0.0
 11
157.73870399398049
 21
170.68480480094249
 31
0.0
  0
LINE
  5
14CD
  8
0
 10
157.73870399398049
 20
159.2848048009426
 30
0.0
 11
156.6387039939803
 21
159.2848048009426
 31
0.0
  0
ARC
  5
14CE
  8
0
 10
157.73870399398049
 20
164.9848048009427
 30
0.0
 40
5.6999999999999877
 50
270.0
 51
90.0
  0
ARC
  5
14CF
  8
0
 10
156.6387039939803
 20
164.98480480094261
 30
0.0
 40
5.6999999999999877
 50
90.0
 51
270.0
  0
CIRCLE
  5
14D0
  8
0
 10
156.6387039939803
 20
164.9848048009427
 30
0.0
 40
5.0
  0
LINE
  5
14D1
  8
0
 10
154.1387039939799
 20
166.42818047391651
 30
0.0
 11
154.13870399398061
 21
163.5414291279688
 31
0.0
  0
LINE
  5
14D2
  8
0
 10
156.6387039939803
 20
167.87155614689081
 30
0.0
 11
154.1387039939799
 21
166.42818047391651
 31
0.0
  0
LINE
  5
14D3
  8
0
 10
159.1387039939803
 20
166.42818047391731
 30
0.0
 11
156.6387039939803
 21
167.87155614689081
 31
0.0
  0
LINE
  5
14D4
  8
0
 10
159.1387039939803
 20
163.5414291279688
 30
0.0
 11
159.1387039939803
 21
166.42818047391731
 31
0.0
  0
LINE
  5
14D5
  8
0
 10
156.63870399398061
 20
162.0980534549947
 30
0.0
 11
159.1387039939803
 21
163.5414291279688
 31
0.0
  0
LINE
  5
14D6
  8
0
 10
154.13870399398061
 20
163.5414291279688
 30
0.0
 11
156.63870399398061
 21
162.0980534549947
 31
0.0
  0
CIRCLE
  5
14D7
  8
0
 10
156.6387039939803
 20
164.9848048009427
 30
0.0
 40
4.3071796769724946
  0
LINE
  5
14D8
  8
1
 10
156.6387039939803
 20
157.7848048009426
 30
0.0
 11
156.6387039939803
 21
172.1848048009426
 31
0.0
  0
LINE
  5
14D9
  8
0
 10
149.03870399398039
 20
155.43504780094261
 30
0.0
 11
168.1387039939803
 21
155.43504780094261
 31
0.0
  0
LINE
  5
14DA
  8
0
 10
168.1387039939803
 20
155.4350478009427
 30
0.0
 11
168.1387039939803
 21
174.53504780094261
 31
0.0
  0
LINE
  5
14DB
  8
0
 10
149.03870399398039
 20
155.43504780094261
 30
0.0
 11
149.03870399398039
 21
174.53504780094261
 31
0.0
  0
LINE
  5
14DC
  8
0
 10
149.03870399398039
 20
174.53504780094261
 30
0.0
 11
168.1387039939803
 21
174.53504780094261
 31
0.0
  0
LINE
  5
14DD
  8
0
 10
168.7597039939802
 20
58.071992915093908
 30
0.0
 11
160.7597039939802
 21
58.071992915093908
 31
0.0
  0
LINE
  5
14DE
  8
0
 10
161.9597039939803
 20
56.871992915093863
 30
0.0
 11
160.7597039939802
 21
58.071992915093908
 31
0.0
  0
LINE
  5
14DF
  8
0
 10
168.7597039939802
 20
58.071992915093908
 30
0.0
 11
167.55970399398021
 21
56.871992915093863
 31
0.0
  0
LINE
  5
14E0
  8
0
 10
168.7597039939802
 20
70.571992915093915
 30
0.0
 11
168.7597039939802
 21
58.071992915093908
 31
0.0
  0
LINE
  5
14E1
  8
3
 10
168.08320399398019
 20
70.571992915093915
 30
0.0
 11
168.08320399398019
 21
57.395492915093882
 31
0.0
  0
LINE
  5
14E2
  8
3
 10
161.43620399398
 20
70.571992915093915
 30
0.0
 11
161.43620399398
 21
57.39549291509411
 31
0.0
  0
LINE
  5
14E3
  8
0
 10
160.7597039939802
 20
70.571992915093915
 30
0.0
 11
160.7597039939802
 21
58.071992915093908
 31
0.0
  0
LINE
  5
14E4
  8
0
 10
167.55970399398021
 20
56.871992915093863
 30
0.0
 11
161.9597039939803
 21
56.871992915093863
 31
0.0
  0
LINE
  5
14E5
  8
2
 10
242.25076194636441
 20
95.671992915093824
 30
0.0
 11
242.25076194636421
 21
86.871992915093756
 31
0.0
  0
LINE
  5
14E6
  8
2
 10
242.25076194636421
 20
86.871992915093756
 30
0.0
 11
229.25076194636409
 21
86.871992915093756
 31
0.0
  0
LINE
  5
14E7
  8
2
 10
229.25076194636409
 20
86.871992915093756
 30
0.0
 11
229.25076194636409
 21
95.671992915093824
 31
0.0
  0
LINE
  5
14E8
  8
2
 10
230.1167873501484
 20
94.871992915093756
 30
0.0
 11
241.38473654257959
 21
94.871992915093756
 31
0.0
  0
LINE
  5
14E9
  8
2
 10
229.25076194636409
 20
94.371992915093756
 30
0.0
 11
242.25076194636421
 21
94.371992915093756
 31
0.0
  0
LINE
  5
14EA
  8
2
 10
242.25076194636421
 20
94.371992915093756
 30
0.0
 11
241.38473654257959
 21
94.871992915093756
 31
0.0
  0
LINE
  5
14EB
  8
2
 10
229.25076194636409
 20
94.371992915093756
 30
0.0
 11
230.1167873501484
 21
94.871992915093756
 31
0.0
  0
LINE
  5
14EC
  8
0
 10
238.5507619463641
 20
56.871992915093763
 30
0.0
 11
232.9507619463642
 21
56.871992915093763
 31
0.0
  0
LINE
  5
14ED
  8
0
 10
231.75076194636421
 20
70.571992915093688
 30
0.0
 11
231.75076194636421
 21
58.071992915093801
 31
0.0
  0
LINE
  5
14EE
  8
3
 10
232.4272619463637
 20
70.571992915093688
 30
0.0
 11
232.42726194636401
 21
57.395492915093989
 31
0.0
  0
LINE
  5
14EF
  8
3
 10
239.07426194636409
 20
70.571992915093688
 30
0.0
 11
239.07426194636409
 21
57.395492915093762
 31
0.0
  0
LINE
  5
14F0
  8
0
 10
239.75076194636421
 20
70.571992915093688
 30
0.0
 11
239.75076194636421
 21
58.071992915093801
 31
0.0
  0
LINE
  5
14F1
  8
0
 10
239.75076194636421
 20
58.071992915093801
 30
0.0
 11
238.5507619463641
 21
56.871992915093763
 31
0.0
  0
LINE
  5
14F2
  8
0
 10
232.9507619463642
 20
56.871992915093763
 30
0.0
 11
231.75076194636421
 21
58.071992915093801
 31
0.0
  0
LINE
  5
14F3
  8
0
 10
239.75076194636421
 20
58.071992915093801
 30
0.0
 11
231.75076194636421
 21
58.071992915093801
 31
0.0
  0
LINE
  5
14F4
  8
2
 10
149.1387039939801
 20
84.671992915093924
 30
0.0
 11
168.1387039939803
 21
84.671992915093824
 31
0.0
  0
LINE
  5
14F5
  8
1
 10
164.75970399398039
 20
100.6719929150938
 30
0.0
 11
164.7597039939802
 21
54.371992915093863
 31
0.0
  0
LINE
  5
14F6
  8
0
 10
149.1387039939801
 20
70.571992915093915
 30
0.0
 11
180.38070399398009
 21
70.571992915093801
 31
0.0
  0
LINE
  5
14F7
  8
0
 10
149.1387039939801
 20
95.671992915093938
 30
0.0
 11
180.38070399398009
 21
95.671992915093824
 31
0.0
  0
LINE
  5
14F8
  8
0
 10
149.1387039939801
 20
95.671992915093938
 30
0.0
 11
149.1387039939801
 21
70.571992915093915
 31
0.0
  0
LINE
  5
14F9
  8
0
 10
180.38070399398009
 20
95.671992915093824
 30
0.0
 11
180.38070399397981
 21
70.571992915093801
 31
0.0
  0
ARC
  5
14FA
  8
0
 10
168.03607241502951
 20
172.98504780094251
 30
0.0
 40
2.0026315789473732
 50
272.93760142877329
 51
87.062398571226737
  0
LINE
  5
14FB
  8
0
 10
168.1387039939803
 20
158.9850478009426
 30
0.0
 11
168.1387039939803
 21
170.9850478009426
 31
0.0
  0
ARC
  5
14FC
  8
0
 10
168.03607241502951
 20
156.98504780094251
 30
0.0
 40
2.0026315789473732
 50
272.93760142877329
 51
87.062398571226737
  0
LINE
  5
14FD
  8
0
 10
149.1387039939803
 20
154.9850478009426
 30
0.0
 11
168.13870399398061
 21
154.98504780094291
 31
0.0
  0
LINE
  5
14FE
  8
0
 10
149.1387039939803
 20
174.98504780094251
 30
0.0
 11
168.13870399398061
 21
174.98504780094271
 31
0.0
  0
LINE
  5
14FF
  8
1
 10
155.75970399398039
 20
145.9350478009427
 30
0.0
 11
173.75970399398039
 21
145.9350478009427
 31
0.0
  0
CIRCLE
  5
1500
  8
0
 10
164.75970399398039
 20
145.9350478009429
 30
0.0
 40
5.6339745962155803
  0
LINE
  5
1501
  8
0
 10
166.49175480154901
 20
142.9350478009431
 30
0.0
 11
168.2238056091181
 21
145.9350478009431
 31
0.0
  0
LINE
  5
1502
  8
0
 10
168.2238056091181
 20
145.9350478009431
 30
0.0
 11
166.49175480154901
 21
148.9350478009429
 31
0.0
  0
LINE
  5
1503
  8
0
 10
166.49175480154901
 20
148.9350478009429
 30
0.0
 11
163.0276531864109
 21
148.9350478009429
 31
0.0
  0
LINE
  5
1504
  8
0
 10
163.0276531864109
 20
148.9350478009429
 30
0.0
 11
161.29560237884269
 21
145.9350478009429
 31
0.0
  0
LINE
  5
1505
  8
0
 10
161.29560237884269
 20
145.9350478009429
 30
0.0
 11
163.02765318641181
 21
142.9350478009427
 31
0.0
  0
LINE
  5
1506
  8
0
 10
163.02765318641181
 20
142.9350478009427
 30
0.0
 11
166.49175480154901
 21
142.9350478009431
 31
0.0
  0
CIRCLE
  5
1507
  8
0
 10
164.75970399398039
 20
145.9350478009429
 30
0.0
 40
6.5
  0
CIRCLE
  5
1508
  8
0
 10
164.75970399398039
 20
184.03504780094281
 30
0.0
 40
6.5
  0
LINE
  5
1509
  8
0
 10
163.02765318641181
 20
181.03504780094261
 30
0.0
 11
166.49175480154901
 21
181.035047800943
 31
0.0
  0
LINE
  5
150A
  8
0
 10
161.29560237884269
 20
184.03504780094281
 30
0.0
 11
163.02765318641181
 21
181.03504780094261
 31
0.0
  0
LINE
  5
150B
  8
0
 10
163.0276531864109
 20
187.03504780094281
 30
0.0
 11
161.29560237884269
 21
184.03504780094281
 31
0.0
  0
LINE
  5
150C
  8
0
 10
166.49175480154901
 20
187.03504780094281
 30
0.0
 11
163.0276531864109
 21
187.03504780094281
 31
0.0
  0
LINE
  5
150D
  8
0
 10
168.2238056091181
 20
184.035047800943
 30
0.0
 11
166.49175480154901
 21
187.03504780094281
 31
0.0
  0
LINE
  5
150E
  8
0
 10
166.49175480154901
 20
181.035047800943
 30
0.0
 11
168.2238056091181
 21
184.035047800943
 31
0.0
  0
CIRCLE
  5
150F
  8
0
 10
164.75970399398039
 20
184.03504780094281
 30
0.0
 40
5.6339745962155803
  0
LINE
  5
1510
  8
1
 10
155.75970399398039
 20
184.03504780094261
 30
0.0
 11
173.75970399398039
 21
184.03504780094261
 31
0.0
  0
LINE
  5
1511
  8
1
 10
144.1387039939803
 20
164.9850478009426
 30
0.0
 11
185.38070399398029
 21
164.9850478009426
 31
0.0
  0
LINE
  5
1512
  8
1
 10
164.75970399398039
 20
131.4350478009427
 30
0.0
 11
164.75970399398071
 21
198.53504780094269
 31
0.0
  0
LINE
  5
1513
  8
0
 10
149.1387039939803
 20
193.53504780094269
 30
0.0
 11
180.38070399398029
 21
193.53504780094269
 31
0.0
  0
LINE
  5
1514
  8
0
 10
149.1387039939803
 20
136.4350478009427
 30
0.0
 11
149.1387039939803
 21
155.43504780094261
 31
0.0
  0
LINE
  5
1515
  8
0
 10
180.38070399398029
 20
136.4350478009427
 30
0.0
 11
180.38070399398029
 21
193.53504780094269
 31
0.0
  0
LINE
  5
1516
  8
0
 10
149.1387039939803
 20
136.4350478009427
 30
0.0
 11
180.38070399398029
 21
136.4350478009427
 31
0.0
  0
TEXT
  5
15C3
  8
0
 62
     3
 10
0.0
 20
0.0
 30
0.0
 40
10.0
  1
MBSCS-M08
  7
STANDARD1
  0
ENDSEC
  0
EOF
