  0
SECTION
  2
HEADER
  9
$ACADVER
  1
AC1009
  9
$INSBASE
 10
0.0
 20
0.0
 30
0.0
  9
$EXTMIN
 10
0.0
 20
-2.960436562073669
 30
0.0
  9
$EXTMAX
 10
239.90000000000009
 20
164.5
 30
0.0
  9
$LIMMIN
 10
0.0
 20
0.0
  9
$LIMMAX
 10
12.0
 20
9.0
  9
$ORTHOMODE
 70
     1
  9
$REGENMODE
 70
     1
  9
$FILLMODE
 70
     1
  9
$QTEXTMODE
 70
     0
  9
$MIRRTEXT
 70
     0
  9
$DRAGMODE
 70
     2
  9
$LTSCALE
 40
1.0
  9
$OSMODE
 70
    37
  9
$ATTMODE
 70
     1
  9
$TEXTSIZE
 40
0.2
  9
$TRACEWID
 40
0.05
  9
$TEXTSTYLE
  7
STANDARD
  9
$CLAYER
  8
0
  9
$CELTYPE
  6
BYLAYER
  9
$CECOLOR
 62
   256
  9
$DIMSCALE
 40
1.0
  9
$DIMASZ
 40
1.0
  9
$DIMEXO
 40
2.54
  9
$DIMDLI
 40
0.38
  9
$DIMRND
 40
0.0
  9
$DIMDLE
 40
0.0
  9
$DIMEXE
 40
2.54
  9
$DIMTP
 40
0.0
  9
$DIMTM
 40
0.0
  9
$DIMTXT
 40
3.2000000000000002
  9
$DIMCEN
 40
0.09
  9
$DIMTSZ
 40
0.0
  9
$DIMTOL
 70
     0
  9
$DIMLIM
 70
     0
  9
$DIMTIH
 70
     0
  9
$DIMTOH
 70
     0
  9
$DIMSE1
 70
     0
  9
$DIMSE2
 70
     0
  9
$DIMTAD
 70
     1
  9
$DIMZIN
 70
     8
  9
$DIMBLK
  1

  9
$DIMASO
 70
     1
  9
$DIMSHO
 70
     0
  9
$DIMPOST
  1

  9
$DIMAPOST
  1

  9
$DIMALT
 70
     0
  9
$DIMALTD
 70
     2
  9
$DIMALTF
 40
25.399999999999999
  9
$DIMLFAC
 40
1.0
  9
$DIMTOFL
 70
     0
  9
$DIMTVP
 40
1.0
  9
$DIMTIX
 70
     0
  9
$DIMSOXD
 70
     0
  9
$DIMSAH
 70
     0
  9
$DIMBLK1
  1

  9
$DIMBLK2
  1

  9
$DIMSTYLE
  2
STANDARD
  9
$DIMCLRD
 70
     0
  9
$DIMCLRE
 70
     0
  9
$DIMCLRT
 70
     0
  9
$DIMTFAC
 40
1.0
  9
$DIMGAP
 40
1.6000000000000001
  9
$LUNITS
 70
     2
  9
$LUPREC
 70
     1
  9
$SKETCHINC
 40
0.1
  9
$FILLETRAD
 40
0.5
  9
$AUNITS
 70
     0
  9
$AUPREC
 70
     0
  9
$MENU
  1
.
  9
$ELEVATION
 40
0.0
  9
$PELEVATION
 40
0.0
  9
$THICKNESS
 40
0.0
  9
$LIMCHECK
 70
     0
  9
$BLIPMODE
 70
     0
  9
$CHAMFERA
 40
0.2
  9
$CHAMFERB
 40
0.2
  9
$SKPOLY
 70
     0
  9
$TDCREATE
 40
2453173.4709223039
  9
$TDUPDATE
 40
2458877.4203872229
  9
$TDINDWG
 40
1.9755056713000001
  9
$TDUSRTIMER
 40
1.9755056713000001
  9
$USRTIMER
 70
     1
  9
$ANGBASE
 50
0.0
  9
$ANGDIR
 70
     0
  9
$PDMODE
 70
     0
  9
$PDSIZE
 40
0.0
  9
$PLINEWID
 40
0.0
  9
$COORDS
 70
     1
  9
$SPLFRAME
 70
     0
  9
$SPLINETYPE
 70
     6
  9
$SPLINESEGS
 70
     8
  9
$ATTDIA
 70
     0
  9
$ATTREQ
 70
     1
  9
$HANDLING
 70
     1
  9
$HANDSEED
  5
432
  9
$SURFTAB1
 70
     6
  9
$SURFTAB2
 70
     6
  9
$SURFTYPE
 70
     6
  9
$SURFU
 70
     6
  9
$SURFV
 70
     6
  9
$UCSNAME
  2

  9
$UCSORG
 10
0.0
 20
0.0
 30
0.0
  9
$UCSXDIR
 10
1.0
 20
0.0
 30
0.0
  9
$UCSYDIR
 10
0.0
 20
1.0
 30
0.0
  9
$PUCSNAME
  2

  9
$PUCSORG
 10
0.0
 20
0.0
 30
0.0
  9
$PUCSXDIR
 10
1.0
 20
0.0
 30
0.0
  9
$PUCSYDIR
 10
0.0
 20
1.0
 30
0.0
  9
$USERI1
 70
     0
  9
$USERI2
 70
     0
  9
$USERI3
 70
     0
  9
$USERI4
 70
     0
  9
$USERI5
 70
     0
  9
$USERR1
 40
0.0
  9
$USERR2
 40
0.0
  9
$USERR3
 40
0.0
  9
$USERR4
 40
0.0
  9
$USERR5
 40
0.0
  9
$WORLDVIEW
 70
     1
  9
$SHADEDGE
 70
     3
  9
$SHADEDIF
 70
    70
  9
$TILEMODE
 70
     1
  9
$MAXACTVP
 70
    64
  9
$PLIMCHECK
 70
     0
  9
$PEXTMIN
 10
1.0000000000000000E+020
 20
1.0000000000000000E+020
 30
1.0000000000000000E+020
  9
$PEXTMAX
 10
-1.0000000000000000E+020
 20
-1.0000000000000000E+020
 30
-1.0000000000000000E+020
  9
$PLIMMIN
 10
0.0
 20
0.0
  9
$PLIMMAX
 10
12.0
 20
9.0
  9
$UNITMODE
 70
     0
  9
$VISRETAIN
 70
     1
  9
$PLINEGEN
 70
     0
  9
$PSLTSCALE
 70
     1
  0
ENDSEC
  0
SECTION
  2
TABLES
  0
TABLE
  2
VPORT
 70
     1
  0
VPORT
  2
*ACTIVE
 70
     0
 10
0.0
 20
0.0
 11
1.0
 21
1.0
 12
362.34662576687123
 22
150.0
 13
0.0
 23
0.0
 14
1.0
 24
1.0
 15
0.0
 25
0.0
 16
0.0
 26
0.0
 36
1.0
 17
0.0
 27
0.0
 37
0.0
 40
300.0
 41
2.415644171779141
 42
50.0
 43
0.0
 44
0.0
 50
0.0
 51
0.0
 71
     0
 72
   100
 73
     1
 74
     1
 75
     0
 76
     0
 77
     0
 78
     0
  0
ENDTAB
  0
TABLE
  2
LTYPE
 70
     4
  0
LTYPE
  2
CONTINUOUS
 70
     0
  3
Solid line
 72
    65
 73
     0
 40
0.0
  0
LTYPE
  2
CENTER
 70
     0
  3
Center ____ _ ____ _ ____ _ ____ _ ____ _ ____
 72
    65
 73
     4
 40
12.0
 49
7.5
 49
-1.5
 49
1.5
 49
-1.5
  0
LTYPE
  2
HIDDEN
 70
     0
  3
Hidden __ __ __ __ __ __ __ __ __ __ __ __ __ _
 72
    65
 73
     2
 40
4.5
 49
3.0
 49
-1.5
  0
LTYPE
  2
PHANTOM2
 70
     0
  3
___ _ _ ___ _ _ ___ _ _ ___ _ _
 72
    65
 73
     6
 40
1.25
 49
0.625
 49
-0.125
 49
0.125
 49
-0.125
 49
0.125
 49
-0.125
  0
ENDTAB
  0
TABLE
  2
LAYER
 70
     6
  0
LAYER
  2
0
 70
     0
 62
     7
  6
CONTINUOUS
  0
LAYER
  2
1
 70
     0
 62
     1
  6
CENTER
  0
LAYER
  2
2
 70
     0
 62
     2
  6
HIDDEN
  0
LAYER
  2
3
 70
     0
 62
     3
  6
CONTINUOUS
  0
LAYER
  2
5
 70
     0
 62
     3
  6
PHANTOM2
  0
LAYER
  2
DEFPOINTS
 70
     0
 62
     7
  6
CONTINUOUS
  0
ENDTAB
  0
TABLE
  2
STYLE
 70
     2
  0
STYLE
  2
STANDARD
 70
     0
 40
0.0
 41
1.0
 50
0.0
 71
     0
 42
0.2
  3
simplex.shx
  4
bigfont.shx
  0
STYLE
  2
STANDARD1
 70
     0
 40
0.0
 41
1.0
 50
0.0
 71
     0
 42
3.0
  3
txt
  4

  0
ENDTAB
  0
TABLE
  2
VIEW
 70
     0
  0
ENDTAB
  0
TABLE
  2
UCS
 70
     0
  0
ENDTAB
  0
TABLE
  2
APPID
 70
     6
  0
APPID
  2
ACAD
 70
     0
  0
APPID
  2
ACAD_MLEADERVER
 70
     0
  0
APPID
  2
ACAD_NAV_VCDISPLAY
 70
     0
  0
APPID
  2
ACAD_EXEMPT_FROM_CAD_STANDARDS
 70
     0
  0
APPID
  2
ACAD_DSTYLE_DIMJAG
 70
     0
  0
APPID
  2
ACAD_DSTYLE_DIMTALN
 70
     0
  0
ENDTAB
  0
TABLE
  2
DIMSTYLE
 70
     1
  0
DIMSTYLE
  2
STANDARD
 70
     0
  3

  4

  5

  6

  7

 40
1.0
 41
0.18
 42
0.0625
 43
0.38
 44
0.18
 45
0.0
 46
0.0
 47
0.0
 48
0.0
140
0.18
141
0.09
142
0.0
143
25.399999999999999
144
1.0
145
0.0
146
1.0
147
0.09
 71
     0
 72
     0
 73
     1
 74
     1
 75
     0
 76
     0
 77
     0
 78
     0
170
     0
171
     2
172
     0
173
     0
174
     0
175
     0
176
     0
177
     0
178
     0
  0
ENDTAB
  0
ENDSEC
  0
SECTION
  2
BLOCKS
  0
BLOCK
  8
0
  2
$MODEL_SPACE
 70
     0
 10
0.0
 20
0.0
 30
0.0
  3
$MODEL_SPACE
  1

  0
ENDBLK
  5
9
  8
0
  0
BLOCK
 67
     1
  8
0
  2
$PAPER_SPACE
 70
     0
 10
0.0
 20
0.0
 30
0.0
  3
$PAPER_SPACE
  1

  0
ENDBLK
  5
E
 67
     1
  8
0
  0
ENDSEC
  0
SECTION
  2
ENTITIES
  0
LINE
  5
CC
  8
0
 10
118.88588307349001
 20
82.429122903528764
 30
0.0
 11
143.90000000000009
 21
86.839786616268796
 31
0.0
  0
LINE
  5
CD
  8
0
 10
120.38588307349021
 20
92.441708848694674
 30
0.0
 11
140.56595498879469
 21
96.0
 31
0.0
  0
LINE
  5
CE
  8
0
 10
143.90000000000009
 20
86.839786616268796
 30
0.0
 11
140.56595498879491
 21
96.0
 31
0.0
  0
LINE
  5
CF
  8
0
 10
120.38588307349011
 20
92.441708848694674
 30
0.0
 11
118.88588307349011
 21
91.094096658287143
 31
0.0
  0
LINE
  5
D0
  8
0
 10
118.88588307349011
 20
91.094096658287143
 30
0.0
 11
120.38588307349011
 21
90.275465410005097
 31
0.0
  0
LINE
  5
D1
  8
0
 10
120.38588307349011
 20
90.275465410005097
 30
0.0
 11
118.88588307348989
 21
88.927853219597537
 31
0.0
  0
LINE
  5
D2
  8
0
 10
118.88588307348989
 20
88.927853219597537
 30
0.0
 11
120.38588307349001
 21
88.109221971315435
 31
0.0
  0
LINE
  5
D3
  8
0
 10
120.38588307349001
 20
88.109221971315435
 30
0.0
 11
118.88588307348979
 21
86.761609780907904
 31
0.0
  0
LINE
  5
D4
  8
0
 10
118.88588307348979
 20
86.761609780907904
 30
0.0
 11
120.38588307349001
 21
85.942978532625844
 31
0.0
  0
LINE
  5
D5
  8
0
 10
120.38588307349001
 20
85.942978532625844
 30
0.0
 11
118.88588307348989
 21
84.595366342218341
 31
0.0
  0
LINE
  5
D6
  8
0
 10
118.88588307348989
 20
84.595366342218341
 30
0.0
 11
120.38588307349001
 21
83.776735093936267
 31
0.0
  0
LINE
  5
D7
  8
0
 10
120.38588307349001
 20
83.776735093936267
 30
0.0
 11
118.88588307349001
 21
82.429122903528764
 31
0.0
  0
LINE
  5
D9
  8
2
 10
144.90000000000001
 20
83.0
 30
0.0
 11
144.90000000000001
 21
86.699999999999989
 31
0.0
  0
LINE
  5
DA
  8
2
 10
164.9000000000002
 20
83.0
 30
0.0
 11
164.90000000000009
 21
86.699999999999989
 31
0.0
  0
LINE
  5
DB
  8
0
 10
212.9500000000001
 20
96.0
 30
0.0
 11
238.35000000000019
 21
96.0
 31
0.0
  0
LINE
  5
DD
  8
0
 10
238.35000000000019
 20
96.0
 30
0.0
 11
238.35000000000011
 21
86.699999999999989
 31
0.0
  0
LINE
  5
DE
  8
0
 10
212.9500000000001
 20
96.0
 30
0.0
 11
212.9500000000001
 21
86.699999999999989
 31
0.0
  0
LINE
  5
E0
  8
0
 10
216.49376954351621
 20
94.299999999999955
 30
0.0
 11
234.49376954351629
 21
94.300000000000054
 31
0.0
  0
LINE
  5
E1
  8
0
 10
217.7062051088144
 20
95.0
 30
0.0
 11
233.2813339782181
 21
95.0
 31
0.0
  0
LINE
  5
E2
  8
0
 10
216.49376954351621
 20
86.699999999999989
 30
0.0
 11
216.49376954351621
 21
94.299999999999955
 31
0.0
  0
LINE
  5
E3
  8
0
 10
216.49376954351621
 20
94.300000000000054
 30
0.0
 11
217.7062051088144
 21
95.0
 31
0.0
  0
LINE
  5
E4
  8
0
 10
234.49376954351629
 20
94.299999999999955
 30
0.0
 11
234.49376954351629
 21
86.699999999999989
 31
0.0
  0
LINE
  5
E5
  8
0
 10
234.49376954351629
 20
94.299999999999955
 30
0.0
 11
233.2813339782181
 21
95.0
 31
0.0
  0
LINE
  5
E6
  8
0
 10
239.90000000000009
 20
86.699999999999989
 30
0.0
 11
239.90000000000009
 21
71.0
 31
0.0
  0
LINE
  5
E7
  8
0
 10
211.40000000000009
 20
86.699999999999989
 30
0.0
 11
211.40000000000009
 21
71.0
 31
0.0
  0
LINE
  5
E8
  8
0
 10
239.90000000000009
 20
86.699999999999989
 30
0.0
 11
211.40000000000009
 21
86.699999999999989
 31
0.0
  0
LINE
  5
E9
  8
0
 10
211.40000000000009
 20
71.0
 30
0.0
 11
239.90000000000009
 21
71.0
 31
0.0
  0
LINE
  5
EA
  8
0
 10
219.6500000000002
 20
71.0
 30
0.0
 11
219.65000000000009
 21
66.0
 31
0.0
  0
LINE
  5
EB
  8
3
 10
220.59700000000001
 20
71.0
 30
0.0
 11
220.59700000000009
 21
66.0
 31
0.0
  0
LINE
  5
EC
  8
0
 10
231.65000000000009
 20
71.0
 30
0.0
 11
231.65000000000009
 21
66.0
 31
0.0
  0
LINE
  5
ED
  8
3
 10
230.70300000000009
 20
71.0
 30
0.0
 11
230.70300000000009
 21
66.0
 31
0.0
  0
LINE
  5
EE
  8
0
 10
159.90000000000009
 20
153.13675134594851
 30
0.0
 11
154.90000000000009
 21
156.0235026918956
 31
0.0
  0
LINE
  5
EF
  8
0
 10
154.90000000000009
 20
156.0235026918956
 30
0.0
 11
149.89999999999949
 21
153.13675134594681
 31
0.0
  0
LINE
  5
F0
  8
0
 10
154.9000000000006
 20
144.47649730810321
 30
0.0
 11
159.90000000000009
 21
147.3632486540514
 31
0.0
  0
LINE
  5
F1
  8
0
 10
149.9000000000006
 20
147.3632486540514
 30
0.0
 11
154.9000000000006
 21
144.47649730810321
 31
0.0
  0
LINE
  5
F2
  8
0
 10
163.90000000000009
 20
94.299999999999955
 30
0.0
 11
162.6875644347019
 21
95.0
 31
0.0
  0
LINE
  5
F3
  8
2
 10
163.90000000000009
 20
86.699999999999989
 30
0.0
 11
163.90000000000001
 21
83.0
 31
0.0
  0
LINE
  5
F4
  8
0
 10
163.90000000000009
 20
94.299999999999955
 30
0.0
 11
163.90000000000009
 21
86.699999999999989
 31
0.0
  0
LINE
  5
F5
  8
2
 10
160.90000000000009
 20
71.0
 30
0.0
 11
160.89999999999989
 21
83.0
 31
0.0
  0
LINE
  5
F6
  8
0
 10
171.40000000000009
 20
71.0
 30
0.0
 11
171.40000000000009
 21
86.699999999999989
 31
0.0
  0
LINE
  5
F7
  8
0
 10
145.90000000000009
 20
94.300000000000054
 30
0.0
 11
147.1124355652982
 21
95.0
 31
0.0
  0
LINE
  5
F8
  8
2
 10
145.90000000000009
 20
86.699999999999989
 30
0.0
 11
145.90000000000009
 21
83.0
 31
0.0
  0
LINE
  5
F9
  8
0
 10
145.90000000000009
 20
86.699999999999989
 30
0.0
 11
145.90000000000009
 21
94.299999999999955
 31
0.0
  0
LINE
  5
FA
  8
2
 10
159.95300000000009
 20
71.0
 30
0.0
 11
159.9530000000002
 21
83.0
 31
0.0
  0
LINE
  5
FB
  8
2
 10
149.84700000000001
 20
71.0
 30
0.0
 11
149.84700000000001
 21
83.0
 31
0.0
  0
LINE
  5
FC
  8
2
 10
148.9000000000002
 20
71.0
 30
0.0
 11
148.9000000000002
 21
83.0
 31
0.0
  0
LINE
  5
FD
  8
2
 10
164.90000000000009
 20
83.0
 30
0.0
 11
144.9000000000002
 21
83.0
 31
0.0
  0
LINE
  5
FE
  8
0
 10
147.1124355652982
 20
95.0
 30
0.0
 11
162.6875644347019
 21
95.0
 31
0.0
  0
LINE
  5
FF
  8
0
 10
145.90000000000009
 20
94.299999999999955
 30
0.0
 11
163.90000000000009
 21
94.300000000000054
 31
0.0
  0
LINE
  5
100
  8
0
 10
171.40000000000009
 20
136.0
 30
0.0
 11
171.40000000000009
 21
164.5
 31
0.0
  0
CIRCLE
  5
101
  8
0
 10
154.90000000000009
 20
150.24999999999909
 30
0.0
 40
9.0
  0
LINE
  5
102
  8
0
 10
149.89999999999949
 20
153.13675134594681
 30
0.0
 11
149.9000000000006
 21
147.3632486540514
 31
0.0
  0
LINE
  5
103
  8
0
 10
159.90000000000009
 20
147.3632486540514
 30
0.0
 11
159.90000000000009
 21
153.13675134594851
 31
0.0
  0
CIRCLE
  5
104
  8
0
 10
154.90000000000009
 20
150.24999999999909
 30
0.0
 40
7.7875644347017641
  0
LINE
  5
105
  8
1
 10
154.90000000000009
 20
136.24999999999909
 30
0.0
 11
154.90000000000009
 21
164.24999999999909
 31
0.0
  0
LINE
  5
106
  8
0
 10
121.40000000000011
 20
162.94999999999999
 30
0.0
 11
121.40000000000011
 21
164.5
 31
0.0
  0
LINE
  5
107
  8
0
 10
121.40000000000011
 20
136.0
 30
0.0
 11
121.40000000000011
 21
137.55000000000001
 31
0.0
  0
LINE
  5
108
  8
0
 10
121.40000000000011
 20
82.872429550328349
 30
0.0
 11
121.40000000000011
 21
71.0
 31
0.0
  0
LINE
  5
109
  8
0
 10
171.40000000000009
 20
86.699999999999989
 30
0.0
 11
143.107230704529
 21
86.699999999999989
 31
0.0
  0
LINE
  5
10A
  8
0
 10
121.40000000000011
 20
71.0
 30
0.0
 11
171.40000000000009
 21
71.0
 31
0.0
  0
LINE
  5
10B
  8
0
 10
171.40000000000009
 20
164.5
 30
0.0
 11
121.40000000000011
 21
164.5
 31
0.0
  0
LINE
  5
10C
  8
0
 10
171.40000000000009
 20
136.0
 30
0.0
 11
121.40000000000011
 21
136.0
 31
0.0
  0
LINE
  5
10D
  8
0
 10
236.65000000000009
 20
50.0
 30
0.0
 11
236.65000000000009
 21
58.5
 31
0.0
  0
LINE
  5
10E
  8
0
 10
232.5500000000001
 20
58.5
 30
0.0
 11
232.5500000000001
 21
66.0
 31
0.0
  0
LINE
  5
10F
  8
0
 10
218.74999999999989
 20
58.5
 30
0.0
 11
214.65000000000009
 21
58.5
 31
0.0
  0
LINE
  5
110
  8
0
 10
218.75
 20
58.5
 30
0.0
 11
218.75
 21
66.0
 31
0.0
  0
LINE
  5
111
  8
0
 10
214.65000000000009
 20
50.0
 30
0.0
 11
214.65000000000009
 21
58.5
 31
0.0
  0
LINE
  5
112
  8
0
 10
218.75
 20
66.0
 30
0.0
 11
232.5500000000001
 21
66.0
 31
0.0
  0
LINE
  5
113
  8
2
 10
160.90000000000009
 20
66.0
 30
0.0
 11
160.90000000000009
 21
54.999999999999957
 31
0.0
  0
LINE
  5
114
  8
0
 10
169.40000000000009
 20
66.0
 30
0.0
 11
169.40000000000009
 21
50.0
 31
0.0
  0
LINE
  5
115
  8
2
 10
150.90000000000009
 20
53.0
 30
0.0
 11
148.90000000000009
 21
55.000000000000107
 31
0.0
  0
LINE
  5
116
  8
2
 10
158.90000000000009
 20
53.0
 30
0.0
 11
150.90000000000009
 21
53.0
 31
0.0
  0
LINE
  5
117
  8
2
 10
159.95299999999989
 20
66.0
 30
0.0
 11
159.95300000000009
 21
54.052999999999983
 31
0.0
  0
LINE
  5
118
  8
2
 10
148.90000000000009
 20
66.0
 30
0.0
 11
148.90000000000009
 21
55.000000000000099
 31
0.0
  0
LINE
  5
119
  8
2
 10
149.84700000000021
 20
66.0
 30
0.0
 11
149.84700000000009
 21
54.053000000000118
 31
0.0
  0
LINE
  5
11A
  8
2
 10
158.90000000000009
 20
53.0
 30
0.0
 11
160.90000000000009
 21
54.999999999999893
 31
0.0
  0
LINE
  5
11B
  8
2
 10
160.90000000000009
 20
55.0
 30
0.0
 11
148.90000000000009
 21
55.000000000000107
 31
0.0
  0
LINE
  5
11C
  8
0
 10
140.40000000000009
 20
50.0
 30
0.0
 11
140.40000000000009
 21
66.0
 31
0.0
  0
LINE
  5
11D
  8
0
 10
169.40000000000009
 20
50.0
 30
0.0
 11
140.40000000000009
 21
50.0
 31
0.0
  0
LINE
  5
11E
  8
0
 10
140.40000000000009
 20
66.0
 30
0.0
 11
169.40000000000009
 21
66.0
 31
0.0
  0
LINE
  5
11F
  8
0
 10
169.40000000000009
 20
58.5
 30
0.0
 11
140.40000000000009
 21
58.5
 31
0.0
  0
LINE
  5
120
  8
0
 10
236.65000000000009
 20
58.5
 30
0.0
 11
232.5500000000001
 21
58.5
 31
0.0
  0
LINE
  5
121
  8
0
 10
236.65000000000009
 20
50.0
 30
0.0
 11
214.65000000000009
 21
50.0
 31
0.0
  0
LINE
  5
122
  8
3
 10
149.84700000000001
 20
71.0
 30
0.0
 11
149.84700000000009
 21
66.0
 31
0.0
  0
LINE
  5
123
  8
0
 10
148.9000000000002
 20
71.0
 30
0.0
 11
148.90000000000009
 21
66.0
 31
0.0
  0
LINE
  5
124
  8
3
 10
159.95300000000009
 20
71.0
 30
0.0
 11
159.95300000000009
 21
66.0
 31
0.0
  0
LINE
  5
125
  8
0
 10
160.90000000000009
 20
71.0
 30
0.0
 11
160.90000000000009
 21
66.0
 31
0.0
  0
LINE
  5
126
  8
1
 10
225.65000000000001
 20
45.0
 30
0.0
 11
225.65000000000001
 21
101.0
 31
0.0
  0
LINE
  5
127
  8
1
 10
154.90000000000009
 20
44.999999999999993
 30
0.0
 11
154.90000000000009
 21
100.0
 31
0.0
  0
LINE
  5
128
  8
1
 10
130.10609336487161
 20
141.25
 30
0.0
 11
130.1060933648717
 21
159.25
 31
0.0
  0
CIRCLE
  5
129
  8
0
 10
131.5314167684287
 20
150.25
 30
0.0
 40
8.3000000000000007
  0
LINE
  5
12A
  8
1
 10
176.40000000000001
 20
150.25
 30
0.0
 11
113.88588307349011
 21
150.25
 31
0.0
  0
LINE
  5
12B
  8
0
 10
132.41549836487161
 20
154.25
 30
0.0
 11
134.72489836487159
 21
150.25
 31
0.0
  0
LINE
  5
12C
  8
0
 10
134.72489836487159
 20
150.25
 30
0.0
 11
132.41549836487161
 21
146.25
 31
0.0
  0
LINE
  5
12D
  8
0
 10
132.41549836487161
 20
146.25
 30
0.0
 11
127.7966983648716
 21
146.25
 31
0.0
  0
LINE
  5
12E
  8
0
 10
127.7966983648716
 20
146.25
 30
0.0
 11
125.4872883648716
 21
150.25
 31
0.0
  0
LINE
  5
12F
  8
0
 10
125.4872883648716
 20
150.25
 30
0.0
 11
127.7966983648716
 21
154.25
 31
0.0
  0
LINE
  5
130
  8
0
 10
127.7966983648716
 20
154.25
 30
0.0
 11
132.41549836487161
 21
154.25
 31
0.0
  0
LINE
  5
131
  8
0
 10
143.90000000000009
 20
137.55000000000001
 30
0.0
 11
143.90000000000009
 21
162.94999999999999
 31
0.0
  0
LINE
  5
132
  8
0
 10
118.8858830734904
 20
137.55000000000001
 30
0.0
 11
118.88588307349011
 21
162.94999999999999
 31
0.0
  0
LINE
  5
133
  8
0
 10
143.90000000000009
 20
162.94999999999999
 30
0.0
 11
118.88588307349011
 21
162.94999999999999
 31
0.0
  0
LINE
  5
134
  8
0
 10
143.90000000000009
 20
137.55000000000001
 30
0.0
 11
118.88588307349011
 21
137.55000000000001
 31
0.0
  0
LINE
  5
135
  8
0
 10
140.565954988795
 20
137.55000000000001
 30
0.0
 11
140.56595498879491
 21
162.94999999999999
 31
0.0
  0
LINE
  5
136
  8
1
 10
134.7077745802539
 20
67.550526215201458
 30
0.0
 11
129.2378569837457
 21
98.571970435086044
 31
0.0
  0
LINE
  5
137
  8
2
 10
139.883704658928
 20
91.752933553639807
 30
0.0
 11
123.2314167684287
 21
90.597161101885689
 31
0.0
  0
ARC
  5
138
  8
2
 10
134.2811368090683
 20
87.556359535739432
 30
0.0
 40
7.0
 50
36.834853125425873
 51
83.857589967502037
  0
ARC
  5
139
  8
2
 10
129.31061945987841
 20
87.126816070585264
 30
0.0
 40
7.0
 50
126.1424100324995
 51
150.27988599267161
  0
LINE
  5
13A
  8
2
 10
135.03013712993311
 20
94.516172645252084
 30
0.0
 11
125.1820595998101
 21
92.779690868582634
 31
0.0
  0
LINE
  5
13B
  8
2
 10
139.8837046589282
 20
91.752933553639792
 30
0.0
 11
140.39352312992889
 21
88.861609327748027
 31
0.0
  0
LINE
  5
13C
  8
2
 10
123.2314167684287
 20
90.597161101885689
 30
0.0
 11
124.04571442992621
 21
85.979049578476946
 31
0.0
  0
LINE
  5
13D
  8
2
 10
140.39352312992889
 20
88.861609327748027
 30
0.0
 11
124.04571442992621
 21
85.979049578477003
 31
0.0
  0
LINE
  5
13E
  8
2
 10
129.90030267987049
 20
71.77997226959468
 30
0.0
 11
137.77876470396799
 21
73.169157690930234
 31
0.0
  0
LINE
  5
13F
  8
2
 10
137.14365754498851
 20
88.288570341447155
 30
0.0
 11
139.40108385465859
 21
75.486069552288512
 31
0.0
  0
LINE
  5
140
  8
2
 10
136.55834095821999
 20
86.154510011172164
 30
0.0
 11
138.63291573680681
 21
74.389011785935509
 31
0.0
  0
LINE
  5
141
  8
2
 10
126.6058738062785
 20
84.399621527670064
 30
0.0
 11
128.68044858486519
 21
72.634123302433295
 31
0.0
  0
LINE
  5
142
  8
2
 10
125.32596450884201
 20
86.204792209444008
 30
0.0
 11
127.5833908185121
 21
73.402291420285223
 31
0.0
  0
LINE
  5
143
  8
2
 10
129.90030267987049
 20
71.77997226959468
 30
0.0
 11
127.5833908185121
 21
73.402291420285223
 31
0.0
  0
LINE
  5
144
  8
2
 10
137.77876470396799
 20
73.169157690930234
 30
0.0
 11
139.40108385465859
 21
75.486069552288484
 31
0.0
  0
LINE
  5
145
  8
2
 10
127.5833908185121
 20
73.40229142028528
 30
0.0
 11
139.40108385465859
 21
75.486069552288484
 31
0.0
  0
LINE
  5
146
  8
2
 10
137.49095390032241
 20
86.318954835422687
 30
0.0
 11
125.673260864176
 21
84.235176703419512
 31
0.0
  0
LINE
  5
147
  8
2
 10
126.6058738062785
 20
84.399621527670121
 30
0.0
 11
125.3884340735321
 21
85.850509702937416
 31
0.0
  0
LINE
  5
148
  8
2
 10
136.55834095821999
 20
86.154510011172164
 30
0.0
 11
137.2061271096787
 21
87.934287834940619
 31
0.0
  0
LINE
  5
149
  8
1
 10
133.53934542298799
 20
79.935790617112275
 30
0.0
 11
130.13584114071631
 21
99.238022576151451
 31
0.0
  0
LINE
  5
14A
  8
1
 10
131.09090611788429
 20
136.94999999999999
 30
0.0
 11
131.09090611788449
 21
163.55000000000001
 31
0.0
  0
LINE
  5
155
  8
1
 10
64.250000000000114
 20
45.000000000000043
 30
0.0
 11
64.250000000000114
 21
101.0
 31
0.0
  0
LINE
  5
156
  8
0
 10
53.25
 20
50.000000000000043
 30
0.0
 11
75.25
 21
50.000000000000043
 31
0.0
  0
LINE
  5
157
  8
0
 10
53.25
 20
58.500000000000043
 30
0.0
 11
57.350000000000023
 21
58.500000000000043
 31
0.0
  0
LINE
  5
158
  8
0
 10
71.150000000000091
 20
66.000000000000043
 30
0.0
 11
57.350000000000023
 21
66.000000000000043
 31
0.0
  0
LINE
  5
159
  8
0
 10
75.25
 20
50.000000000000043
 30
0.0
 11
75.25
 21
58.500000000000043
 31
0.0
  0
LINE
  5
15A
  8
0
 10
71.150000000000091
 20
58.500000000000043
 30
0.0
 11
71.150000000000091
 21
66.000000000000043
 31
0.0
  0
LINE
  5
15B
  8
0
 10
71.150000000000205
 20
58.500000000000043
 30
0.0
 11
75.25
 21
58.500000000000043
 31
0.0
  0
LINE
  5
15C
  8
0
 10
57.350000000000023
 20
58.500000000000043
 30
0.0
 11
57.350000000000023
 21
66.000000000000043
 31
0.0
  0
LINE
  5
15D
  8
0
 10
53.25
 20
50.000000000000043
 30
0.0
 11
53.25
 21
58.500000000000043
 31
0.0
  0
LINE
  5
15E
  8
3
 10
59.197000000000003
 20
71.000000000000043
 30
0.0
 11
59.197000000000003
 21
66.000000000000043
 31
0.0
  0
LINE
  5
15F
  8
0
 10
58.25
 20
71.000000000000043
 30
0.0
 11
58.25
 21
66.000000000000043
 31
0.0
  0
LINE
  5
160
  8
3
 10
69.303000000000111
 20
71.000000000000043
 30
0.0
 11
69.302999999999983
 21
66.000000000000043
 31
0.0
  0
LINE
  5
161
  8
0
 10
70.249999999999886
 20
71.000000000000043
 30
0.0
 11
70.25
 21
66.000000000000043
 31
0.0
  0
LINE
  5
162
  8
0
 10
78.5
 20
71.000000000000043
 30
0.0
 11
50.0
 21
71.000000000000043
 31
0.0
  0
LINE
  5
163
  8
0
 10
50.0
 20
86.700000000000031
 30
0.0
 11
51.54999999999994
 21
86.700000000000031
 31
0.0
  0
LINE
  5
164
  8
0
 10
78.5
 20
86.700000000000031
 30
0.0
 11
78.5
 21
71.000000000000043
 31
0.0
  0
LINE
  5
165
  8
0
 10
50.0
 20
86.700000000000031
 30
0.0
 11
50.0
 21
71.000000000000043
 31
0.0
  0
LINE
  5
16D
  8
0
 10
76.949999999999932
 20
96.000000000000043
 30
0.0
 11
76.949999999999932
 21
82.429122903528736
 31
0.0
  0
LINE
  5
16E
  8
0
 10
51.549999999999841
 20
96.000000000000043
 30
0.0
 11
51.550000000000011
 21
82.429122903528736
 31
0.0
  0
LINE
  5
170
  8
0
 10
76.949999999999932
 20
96.000000000000043
 30
0.0
 11
51.549999999999841
 21
96.000000000000043
 31
0.0
  0
LINE
  5
172
  8
0
 10
78.5
 20
82.429122903528736
 30
0.0
 11
50.0
 21
82.429122903528736
 31
0.0
  0
LINE
  5
173
  8
0
 10
76.949999999999932
 20
92.441708848694617
 30
0.0
 11
51.549999999999869
 21
92.441708848694617
 31
0.0
  0
LINE
  5
175
  8
0
 10
76.949999999999918
 20
86.700000000000031
 30
0.0
 11
78.5
 21
86.700000000000031
 31
0.0
  0
LINE
  5
176
  8
3
 10
76.949999999999932
 20
83.776735093935841
 30
0.0
 11
51.54999999999999
 21
83.776735093935514
 31
0.0
  0
LINE
  5
177
  8
3
 10
76.949999999999918
 20
84.595366342217943
 30
0.0
 11
51.549999999999983
 21
84.595366342217631
 31
0.0
  0
LINE
  5
178
  8
3
 10
76.949999999999932
 20
85.942978532625418
 30
0.0
 11
51.549999999999969
 21
85.942978532625105
 31
0.0
  0
LINE
  5
179
  8
3
 10
76.949999999999932
 20
88.109221971315009
 30
0.0
 11
51.54999999999994
 21
88.10922197131471
 31
0.0
  0
LINE
  5
17A
  8
3
 10
76.949999999999918
 20
86.761609780907492
 30
0.0
 11
51.549999999999947
 21
86.761609780907179
 31
0.0
  0
LINE
  5
17C
  8
3
 10
76.949999999999932
 20
88.927853219597154
 30
0.0
 11
51.549999999999933
 21
88.927853219596827
 31
0.0
  0
LINE
  5
17E
  8
3
 10
76.949999999999932
 20
90.275465410004657
 30
0.0
 11
51.549999999999912
 21
90.275465410004358
 31
0.0
  0
LINE
  5
17F
  8
3
 10
76.949999999999932
 20
91.09409665828673
 30
0.0
 11
51.549999999999898
 21
91.094096658286404
 31
0.0
  0
TEXT
  5
235
  8
0
 62
     3
 10
0.0
 20
0.0
 30
0.0
 40
10.0
  1
MBTC14
  7
STANDARD1
  0
LINE
  5
281
  8
5
 10
116.38588307348989
 20
81.988305451757569
 30
0.0
 11
118.88588307349001
 21
82.429122903528736
 31
0.0
  0
LINE
  5
282
  8
5
 10
117.88588307349011
 20
92.000891396923478
 30
0.0
 11
120.38588307349011
 21
92.441708848694631
 31
0.0
  0
LINE
  5
283
  8
5
 10
117.88588307349001
 20
92.000891396923478
 30
0.0
 11
116.38588307349001
 21
90.653279206515947
 31
0.0
  0
LINE
  5
284
  8
5
 10
116.38588307349001
 20
90.653279206515947
 30
0.0
 11
117.88588307349001
 21
89.834647958233887
 31
0.0
  0
LINE
  5
285
  8
5
 10
117.88588307349001
 20
89.834647958233887
 30
0.0
 11
116.38588307348979
 21
88.487035767826356
 31
0.0
  0
LINE
  5
286
  8
5
 10
116.38588307348979
 20
88.487035767826356
 30
0.0
 11
117.88588307348989
 21
87.668404519544254
 31
0.0
  0
LINE
  5
287
  8
5
 10
117.88588307348989
 20
87.668404519544254
 30
0.0
 11
116.38588307348969
 21
86.320792329136708
 31
0.0
  0
LINE
  5
288
  8
5
 10
116.38588307348969
 20
86.320792329136708
 30
0.0
 11
117.88588307348989
 21
85.502161080854634
 31
0.0
  0
LINE
  5
289
  8
5
 10
117.88588307348989
 20
85.502161080854634
 30
0.0
 11
116.38588307348979
 21
84.154548890447145
 31
0.0
  0
LINE
  5
28A
  8
5
 10
116.38588307348979
 20
84.154548890447145
 30
0.0
 11
117.88588307348989
 21
83.335917642165072
 31
0.0
  0
LINE
  5
28B
  8
5
 10
117.88588307348989
 20
83.335917642165072
 30
0.0
 11
116.38588307348989
 21
81.988305451757569
 31
0.0
  0
ENDSEC
  0
EOF
