  0
SECTION
  2
HEADER
  9
$ACADVER
  1
AC1009
  9
$INSBASE
 10
0.0
 20
0.0
 30
0.0
  9
$EXTMIN
 10
0.0
 20
-2.960436562073669
 30
0.0
  9
$EXTMAX
 10
236.93391133326219
 20
101.1163506145823
 30
0.0
  9
$LIMMIN
 10
0.0
 20
0.0
  9
$LIMMAX
 10
12.0
 20
9.0
  9
$ORTHOMODE
 70
     1
  9
$REGENMODE
 70
     1
  9
$FILLMODE
 70
     1
  9
$QTEXTMODE
 70
     0
  9
$MIRRTEXT
 70
     0
  9
$DRAGMODE
 70
     2
  9
$LTSCALE
 40
1.0
  9
$OSMODE
 70
    37
  9
$ATTMODE
 70
     1
  9
$TEXTSIZE
 40
0.2
  9
$TRACEWID
 40
0.05
  9
$TEXTSTYLE
  7
STANDARD
  9
$CLAYER
  8
0
  9
$CELTYPE
  6
BYLAYER
  9
$CECOLOR
 62
   256
  9
$DIMSCALE
 40
1.0
  9
$DIMASZ
 40
1.0
  9
$DIMEXO
 40
2.54
  9
$DIMDLI
 40
0.38
  9
$DIMRND
 40
0.0
  9
$DIMDLE
 40
0.0
  9
$DIMEXE
 40
2.54
  9
$DIMTP
 40
0.0
  9
$DIMTM
 40
0.0
  9
$DIMTXT
 40
3.2000000000000002
  9
$DIMCEN
 40
0.09
  9
$DIMTSZ
 40
0.0
  9
$DIMTOL
 70
     0
  9
$DIMLIM
 70
     0
  9
$DIMTIH
 70
     0
  9
$DIMTOH
 70
     0
  9
$DIMSE1
 70
     0
  9
$DIMSE2
 70
     0
  9
$DIMTAD
 70
     1
  9
$DIMZIN
 70
     0
  9
$DIMBLK
  1

  9
$DIMASO
 70
     1
  9
$DIMSHO
 70
     0
  9
$DIMPOST
  1

  9
$DIMAPOST
  1

  9
$DIMALT
 70
     0
  9
$DIMALTD
 70
     2
  9
$DIMALTF
 40
25.399999999999999
  9
$DIMLFAC
 40
1.0
  9
$DIMTOFL
 70
     0
  9
$DIMTVP
 40
1.0
  9
$DIMTIX
 70
     0
  9
$DIMSOXD
 70
     0
  9
$DIMSAH
 70
     1
  9
$DIMBLK1
  1

  9
$DIMBLK2
  1

  9
$DIMSTYLE
  2
STANDARD
  9
$DIMCLRD
 70
     0
  9
$DIMCLRE
 70
     0
  9
$DIMCLRT
 70
     0
  9
$DIMTFAC
 40
1.0
  9
$DIMGAP
 40
1.6000000000000001
  9
$LUNITS
 70
     2
  9
$LUPREC
 70
     4
  9
$SKETCHINC
 40
0.1
  9
$FILLETRAD
 40
3.0
  9
$AUNITS
 70
     0
  9
$AUPREC
 70
     0
  9
$MENU
  1
.
  9
$ELEVATION
 40
0.0
  9
$PELEVATION
 40
0.0
  9
$THICKNESS
 40
0.0
  9
$LIMCHECK
 70
     0
  9
$BLIPMODE
 70
     0
  9
$CHAMFERA
 40
3.0
  9
$CHAMFERB
 40
4.0
  9
$SKPOLY
 70
     0
  9
$TDCREATE
 40
2453173.4709223039
  9
$TDUPDATE
 40
2456598.723844931
  9
$TDINDWG
 40
2.4257650000000002
  9
$TDUSRTIMER
 40
2456598.0873087961
  9
$USRTIMER
 70
     1
  9
$ANGBASE
 50
0.0
  9
$ANGDIR
 70
     0
  9
$PDMODE
 70
     0
  9
$PDSIZE
 40
0.0
  9
$PLINEWID
 40
0.0
  9
$COORDS
 70
     1
  9
$SPLFRAME
 70
     0
  9
$SPLINETYPE
 70
     6
  9
$SPLINESEGS
 70
     8
  9
$ATTDIA
 70
     0
  9
$ATTREQ
 70
     1
  9
$HANDLING
 70
     1
  9
$HANDSEED
  5
94F
  9
$SURFTAB1
 70
     6
  9
$SURFTAB2
 70
     6
  9
$SURFTYPE
 70
     6
  9
$SURFU
 70
     6
  9
$SURFV
 70
     6
  9
$UCSNAME
  2

  9
$UCSORG
 10
0.0
 20
0.0
 30
0.0
  9
$UCSXDIR
 10
1.0
 20
0.0
 30
0.0
  9
$UCSYDIR
 10
0.0
 20
1.0
 30
0.0
  9
$PUCSNAME
  2

  9
$PUCSORG
 10
0.0
 20
0.0
 30
0.0
  9
$PUCSXDIR
 10
1.0
 20
0.0
 30
0.0
  9
$PUCSYDIR
 10
0.0
 20
1.0
 30
0.0
  9
$USERI1
 70
     0
  9
$USERI2
 70
     0
  9
$USERI3
 70
     0
  9
$USERI4
 70
     0
  9
$USERI5
 70
     0
  9
$USERR1
 40
0.0
  9
$USERR2
 40
0.0
  9
$USERR3
 40
0.0
  9
$USERR4
 40
0.0
  9
$USERR5
 40
0.0
  9
$WORLDVIEW
 70
     1
  9
$SHADEDGE
 70
     3
  9
$SHADEDIF
 70
    70
  9
$TILEMODE
 70
     1
  9
$MAXACTVP
 70
    64
  9
$PLIMCHECK
 70
     0
  9
$PEXTMIN
 10
1.0000000000000000E+020
 20
1.0000000000000000E+020
 30
1.0000000000000000E+020
  9
$PEXTMAX
 10
-1.0000000000000000E+020
 20
-1.0000000000000000E+020
 30
-1.0000000000000000E+020
  9
$PLIMMIN
 10
0.0
 20
0.0
  9
$PLIMMAX
 10
12.0
 20
9.0
  9
$UNITMODE
 70
     0
  9
$VISRETAIN
 70
     1
  9
$PLINEGEN
 70
     0
  9
$PSLTSCALE
 70
     1
  0
ENDSEC
  0
SECTION
  2
TABLES
  0
TABLE
  2
VPORT
 70
     1
  0
VPORT
  2
*ACTIVE
 70
     0
 10
0.0
 20
0.0
 11
1.0
 21
1.0
 12
245.61682536656789
 22
39.63131729293076
 13
0.0
 23
0.0
 14
1.0
 24
1.0
 15
0.0
 25
0.0
 16
0.0
 26
0.0
 36
1.0
 17
0.0
 27
0.0
 37
0.0
 40
314.77557583223921
 41
1.755244755244755
 42
50.0
 43
0.0
 44
0.0
 50
0.0
 51
0.0
 71
    16
 72
   100
 73
     1
 74
     1
 75
     0
 76
     0
 77
     0
 78
     0
  0
ENDTAB
  0
TABLE
  2
LTYPE
 70
     4
  0
LTYPE
  2
CONTINUOUS
 70
     0
  3
Solid line
 72
    65
 73
     0
 40
0.0
  0
LTYPE
  2
CENTER
 70
     0
  3
Center ____ _ ____ _ ____ _ ____ _ ____ _ ____
 72
    65
 73
     4
 40
12.0
 49
7.5
 49
-1.5
 49
1.5
 49
-1.5
  0
LTYPE
  2
HIDDEN
 70
     0
  3
Hidden __ __ __ __ __ __ __ __ __ __ __ __ __ _
 72
    65
 73
     2
 40
4.5
 49
3.0
 49
-1.5
  0
LTYPE
  2
PHANTOM2
 70
     0
  3
___ _ _ ___ _ _ ___ _ _ ___ _ _
 72
    65
 73
     6
 40
1.25
 49
0.625
 49
-0.125
 49
0.125
 49
-0.125
 49
0.125
 49
-0.125
  0
ENDTAB
  0
TABLE
  2
LAYER
 70
     5
  0
LAYER
  2
0
 70
     0
 62
     7
  6
CONTINUOUS
  0
LAYER
  2
1
 70
     0
 62
     1
  6
CENTER
  0
LAYER
  2
2
 70
     0
 62
     2
  6
HIDDEN
  0
LAYER
  2
3
 70
     0
 62
     3
  6
CONTINUOUS
  0
LAYER
  2
DEFPOINTS
 70
     0
 62
     7
  6
CONTINUOUS
  0
ENDTAB
  0
TABLE
  2
STYLE
 70
     2
  0
STYLE
  2
STANDARD
 70
     0
 40
0.0
 41
1.0
 50
0.0
 71
     0
 42
0.2
  3
simplex.shx
  4
bigfont.shx
  0
STYLE
  2
STANDARD1
 70
     0
 40
0.0
 41
1.0
 50
0.0
 71
     0
 42
3.0
  3
txt
  4

  0
ENDTAB
  0
TABLE
  2
VIEW
 70
     0
  0
ENDTAB
  0
TABLE
  2
UCS
 70
     0
  0
ENDTAB
  0
TABLE
  2
APPID
 70
     4
  0
APPID
  2
ACAD
 70
     0
  0
APPID
  2
ACAD_EXEMPT_FROM_CAD_STANDARDS
 70
     0
  0
APPID
  2
ACAD_MLEADERVER
 70
     0
  0
APPID
  2
ACAD_NAV_VCDISPLAY
 70
     0
  0
ENDTAB
  0
TABLE
  2
DIMSTYLE
 70
     1
  0
DIMSTYLE
  2
STANDARD
 70
     0
  3

  4

  5

  6

  7

 40
1.0
 41
0.18
 42
0.0625
 43
0.38
 44
0.18
 45
0.0
 46
0.0
 47
0.0
 48
0.0
140
0.18
141
0.09
142
0.0
143
25.399999999999999
144
1.0
145
0.0
146
1.0
147
0.09
 71
     0
 72
     0
 73
     1
 74
     1
 75
     0
 76
     0
 77
     0
 78
     0
170
     0
171
     2
172
     0
173
     0
174
     0
175
     0
176
     0
177
     0
178
     0
  0
ENDTAB
  0
ENDSEC
  0
SECTION
  2
BLOCKS
  0
BLOCK
  8
0
  2
$MODEL_SPACE
 70
     0
 10
0.0
 20
0.0
 30
0.0
  3
$MODEL_SPACE
  1

  0
ENDBLK
  5
9
  8
0
  0
BLOCK
 67
     1
  8
0
  2
$PAPER_SPACE
 70
     0
 10
0.0
 20
0.0
 30
0.0
  3
$PAPER_SPACE
  1

  0
ENDBLK
  5
E
 67
     1
  8
0
  0
ENDSEC
  0
SECTION
  2
ENTITIES
  0
LINE
  5
469
  8
0
 10
36.098989313922921
 20
43.982986568982362
 30
0.0
 11
36.098989313922957
 21
38.882986568982354
 31
0.0
  0
LINE
  5
46A
  8
3
 10
35.665989313923092
 20
43.982986568982362
 30
0.0
 11
35.665989313923127
 21
38.449986568982581
 31
0.0
  0
LINE
  5
46B
  8
3
 10
31.531989313922651
 20
43.982986568982362
 30
0.0
 11
31.531989313922718
 21
38.449986568982581
 31
0.0
  0
LINE
  5
46C
  8
0
 10
31.098989313922921
 20
43.982986568982362
 30
0.0
 11
31.09898931392296
 21
38.882986568982354
 31
0.0
  0
LINE
  5
46D
  8
1
 10
33.598989313922942
 20
32.982986568982312
 30
0.0
 11
33.598989313922971
 21
58.507986568982354
 31
0.0
  0
LINE
  5
46F
  8
0
 10
70.198560070562181
 20
80.132594524782348
 30
0.0
 11
69.218847797862182
 21
80.812817990482358
 31
0.0
  0
LINE
  5
470
  8
0
 10
69.075163699962175
 20
80.877660594582366
 30
0.0
 11
69.075163699962175
 21
80.854140448282351
 31
0.0
  0
ARC
  5
471
  8
0
 10
69.075175361862236
 20
80.562207359282354
 30
0.0
 40
0.2919330892041092
 50
85.862358648202076
 51
90.002288813398792
  0
ARC
  5
472
  8
0
 10
69.082375952262211
 20
80.605883942482365
 30
0.0
 40
0.2478835710994546
 50
56.595372393598403
 51
86.793994854700031
  0
ARC
  5
473
  8
0
 10
67.799446859962231
 20
80.605883942482365
 30
0.0
 40
0.2478835710991571
 50
93.206005145497883
 51
123.4046276063994
  0
ARC
  5
474
  8
0
 10
67.806647450362206
 20
80.562207359282354
 30
0.0
 40
0.2919330891886051
 50
89.997711186601094
 51
94.137641352099138
  0
LINE
  5
475
  8
0
 10
67.806659112262153
 20
80.877660594582366
 30
0.0
 11
67.806659112262153
 21
80.854140448282351
 31
0.0
  0
LINE
  5
476
  8
0
 10
69.075163699962175
 20
80.854140448282351
 30
0.0
 11
67.806659112262153
 21
80.854140448282351
 31
0.0
  0
LINE
  5
477
  8
0
 10
66.68326288496219
 20
80.132594524782348
 30
0.0
 11
67.662975014362203
 21
80.812817990482358
 31
0.0
  0
POLYLINE
  5
478
  8
0
 66
     1
 10
0.0
 20
0.0
 30
0.0
 70
   128
  0
VERTEX
  5
850
  8
0
 10
27.280543902422949
 20
52.253922887882311
 30
0.0
  0
VERTEX
  5
851
  8
0
 10
26.79392584772296
 20
52.743114216682329
 30
0.0
  0
VERTEX
  5
852
  8
0
 10
26.220260202922962
 20
53.324917458182092
 30
0.0
  0
SEQEND
  5
853
  8
0
  0
LINE
  5
479
  8
0
 10
26.220260202922962
 20
53.324917458182092
 30
0.0
 11
26.296006037821058
 21
53.50798656898229
 31
0.0
  0
POLYLINE
  5
47A
  8
0
 66
     1
 10
0.0
 20
0.0
 30
0.0
 70
   128
  0
VERTEX
  5
854
  8
0
 10
40.766583895022961
 20
80.318296101782437
 30
0.0
  0
VERTEX
  5
855
  8
0
 10
40.881591740122978
 20
80.496488874482395
 30
0.0
  0
VERTEX
  5
856
  8
0
 10
40.977718424922983
 20
80.686412476382429
 30
0.0
  0
SEQEND
  5
857
  8
0
  0
LINE
  5
47B
  8
0
 10
40.977718424922983
 20
80.686412476382429
 30
0.0
 11
40.917451234122971
 21
80.900072573382431
 31
0.0
  0
LINE
  5
47C
  8
0
 10
40.977718424922983
 20
92.496288752782334
 30
0.0
 11
40.917451234122971
 21
92.282628655782332
 31
0.0
  0
POLYLINE
  5
47D
  8
0
 66
     1
 10
0.0
 20
0.0
 30
0.0
 70
   128
  0
VERTEX
  5
858
  8
0
 10
40.766583895022961
 20
92.864405127382327
 30
0.0
  0
VERTEX
  5
859
  8
0
 10
40.881591740122978
 20
92.686212354682354
 30
0.0
  0
VERTEX
  5
85A
  8
0
 10
40.977718424922983
 20
92.496288752782334
 30
0.0
  0
SEQEND
  5
85B
  8
0
  0
LINE
  5
47E
  8
0
 10
26.290198992167461
 20
53.253986568982327
 30
0.0
 11
40.907779635678473
 21
53.253986568982327
 31
0.0
  0
LINE
  5
47F
  8
0
 10
43.123989313923012
 20
44.236986568982381
 30
0.0
 11
24.073989313922969
 21
44.236986568982331
 31
0.0
  0
POLYLINE
  5
480
  8
0
 66
     1
 10
0.0
 20
0.0
 30
0.0
 70
   128
  0
VERTEX
  5
85C
  8
0
 10
26.43139473282298
 20
92.864405127382327
 30
0.0
  0
VERTEX
  5
85D
  8
0
 10
26.31638688772296
 20
92.686212354682354
 30
0.0
  0
VERTEX
  5
85E
  8
0
 10
26.220260202922962
 20
92.496288752782334
 30
0.0
  0
SEQEND
  5
85F
  8
0
  0
LINE
  5
481
  8
0
 10
26.220260202922962
 20
92.496288752782334
 30
0.0
 11
26.280527393722959
 21
92.282628655782332
 31
0.0
  0
CIRCLE
  5
482
  8
0
 10
33.598989313922971
 20
86.591350614582382
 30
0.0
 40
4.25
  0
LINE
  5
483
  8
0
 10
31.59898931392274
 20
87.746051152961456
 30
0.0
 11
31.598989313923202
 21
85.436650076203307
 31
0.0
  0
LINE
  5
484
  8
0
 10
33.598989313922971
 20
88.900751691340986
 30
0.0
 11
31.59898931392274
 21
87.746051152961456
 31
0.0
  0
LINE
  5
485
  8
0
 10
35.598989313922971
 20
87.746051152962139
 30
0.0
 11
33.598989313922971
 21
88.900751691340986
 31
0.0
  0
LINE
  5
486
  8
0
 10
35.598989313922971
 20
85.436650076203307
 30
0.0
 11
35.598989313922971
 21
87.746051152962139
 31
0.0
  0
LINE
  5
487
  8
0
 10
33.598989313923198
 20
84.281949537824005
 30
0.0
 11
35.598989313922971
 21
85.436650076203307
 31
0.0
  0
LINE
  5
488
  8
0
 10
31.598989313923202
 20
85.436650076203307
 30
0.0
 11
33.598989313923198
 21
84.281949537824005
 31
0.0
  0
CIRCLE
  5
489
  8
0
 10
33.598989313922971
 20
86.591350614582382
 30
0.0
 40
3.730384757729325
  0
LINE
  5
48A
  8
2
 10
37.848989313922971
 20
52.707986568982328
 30
0.0
 11
37.848989313922971
 21
48.007986568982339
 31
0.0
  0
LINE
  5
48B
  8
2
 10
37.848989313922971
 20
48.007986568982339
 30
0.0
 11
29.348989313922971
 21
48.007986568982339
 31
0.0
  0
LINE
  5
48C
  8
2
 10
29.348989313922971
 20
48.007986568982339
 30
0.0
 11
29.348989313922971
 21
52.707986568982328
 31
0.0
  0
LINE
  5
48D
  8
2
 10
29.868604556193588
 20
53.007986568982339
 30
0.0
 11
37.329374071652303
 21
53.007986568982339
 31
0.0
  0
LINE
  5
48E
  8
2
 10
37.848989313922971
 20
52.707986568982328
 30
0.0
 11
37.329374071652303
 21
53.007986568982339
 31
0.0
  0
LINE
  5
48F
  8
2
 10
29.348989313922971
 20
52.707986568982392
 30
0.0
 11
29.868604556193588
 21
53.007986568982339
 31
0.0
  0
LINE
  5
490
  8
2
 10
31.098989313922971
 20
48.007986568982339
 30
0.0
 11
31.098989313922971
 21
43.982986568982312
 31
0.0
  0
LINE
  5
491
  8
2
 10
31.53198931392274
 20
45.607986568982369
 30
0.0
 11
31.531989313922711
 21
43.982986568982312
 31
0.0
  0
LINE
  5
492
  8
2
 10
35.665989313923149
 20
45.607986568982369
 30
0.0
 11
35.665989313923149
 21
43.982986568982312
 31
0.0
  0
LINE
  5
493
  8
2
 10
36.098989313922971
 20
48.007986568982339
 30
0.0
 11
36.098989313922971
 21
43.982986568982312
 31
0.0
  0
LINE
  5
494
  8
0
 10
35.198989313922979
 20
37.982986568982312
 30
0.0
 11
31.998989313922991
 21
37.982986568982312
 31
0.0
  0
LINE
  5
495
  8
2
 10
36.098989313922971
 20
45.607986568982369
 30
0.0
 11
31.098989313922971
 21
45.607986568982369
 31
0.0
  0
LINE
  5
496
  8
2
 10
35.665989313923149
 20
45.607986568982369
 30
0.0
 11
36.098989313922971
 21
46.35796456865927
 31
0.0
  0
LINE
  5
497
  8
0
 10
36.098989313923013
 20
38.88298656898229
 30
0.0
 11
35.198989313922979
 21
37.982986568982312
 31
0.0
  0
LINE
  5
498
  8
0
 10
31.998989313922991
 20
37.982986568982312
 30
0.0
 11
31.09898931392301
 21
38.88298656898229
 31
0.0
  0
LINE
  5
499
  8
0
 10
36.098989313923013
 20
38.882986568982354
 30
0.0
 11
31.09898931392301
 21
38.882986568982354
 31
0.0
  0
LINE
  5
49A
  8
2
 10
31.531989313922789
 20
45.607986568982369
 30
0.0
 11
31.098989313922971
 21
46.35796456865927
 31
0.0
  0
CIRCLE
  5
49B
  8
0
 10
33.598989313922971
 20
86.591350614582382
 30
0.0
 40
9.5250000000000004
  0
LINE
  5
49C
  8
1
 10
48.123989313922984
 20
86.591350614582382
 30
0.0
 11
19.073989313922961
 21
86.591350614582382
 31
0.0
  0
LINE
  5
49D
  8
1
 10
33.598989313922971
 20
101.1163506145823
 30
0.0
 11
33.598989313922971
 21
72.066350614582404
 31
0.0
  0
LINE
  5
49E
  8
0
 10
25.59998318332299
 20
48.934378170282343
 30
0.0
 11
25.601988771322969
 21
48.936478900782333
 31
0.0
  0
LINE
  5
49F
  8
0
 10
39.85180872012296
 20
52.110238789882317
 30
0.0
 11
39.858234243122979
 21
52.110238789882317
 31
0.0
  0
LINE
  5
4A0
  8
0
 10
39.85180872012296
 20
50.841734202282339
 30
0.0
 11
39.858234243122979
 21
50.841734202282339
 31
0.0
  0
LINE
  5
4A1
  8
0
 10
27.346148152622959
 20
52.110238789882317
 30
0.0
 11
27.339724567222991
 21
52.110238789882317
 31
0.0
  0
LINE
  5
4A2
  8
0
 10
27.346148152622959
 20
50.841734202282339
 30
0.0
 11
27.339724567222991
 21
50.841734202282339
 31
0.0
  0
LINE
  5
4A3
  8
0
 10
39.858234243122979
 20
52.110238789882317
 30
0.0
 11
39.858378620122949
 21
52.110238789882317
 31
0.0
  0
LINE
  5
4A4
  8
0
 10
39.858234243122979
 20
50.841734202282339
 30
0.0
 11
39.858378620122949
 21
50.841734202282339
 31
0.0
  0
LINE
  5
4A5
  8
0
 10
27.339599986822979
 20
52.110238789882317
 30
0.0
 11
27.33974678732298
 21
52.110238789882317
 31
0.0
  0
LINE
  5
4A6
  8
0
 10
27.339599986822979
 20
50.841734202282339
 30
0.0
 11
27.33974678732298
 21
50.841734202282339
 31
0.0
  0
LINE
  5
4A7
  8
0
 10
37.684371197222958
 20
50.841734202282339
 30
0.0
 11
39.85180872012296
 21
50.841734202282339
 31
0.0
  0
LINE
  5
4A8
  8
0
 10
37.684371197222958
 20
52.110238789882317
 30
0.0
 11
39.85180872012296
 21
52.110238789882317
 31
0.0
  0
LINE
  5
4A9
  8
0
 10
27.346148152622959
 20
52.110238789882317
 30
0.0
 11
29.513607397922978
 21
52.110238789882317
 31
0.0
  0
LINE
  5
4AA
  8
0
 10
27.346148152622959
 20
50.841734202282339
 30
0.0
 11
29.513607397922978
 21
50.841734202282339
 31
0.0
  0
POLYLINE
  5
4AB
  8
0
 66
     1
 10
0.0
 20
0.0
 30
0.0
 70
   128
  0
VERTEX
  5
860
  8
0
 10
40.976488772770061
 20
53.327889388276112
 30
0.0
  0
VERTEX
  5
861
  8
0
 10
40.883402773722977
 20
53.283124428882331
 30
0.0
  0
VERTEX
  5
862
  8
0
 10
40.766585523223
 20
53.253986568982327
 30
0.0
  0
SEQEND
  5
863
  8
0
  0
LINE
  5
4AC
  8
0
 10
26.29600603782109
 20
53.50798656898229
 30
0.0
 11
40.901972590024819
 21
53.507986568982403
 31
0.0
  0
POLYLINE
  5
4AD
  8
0
 66
     1
 10
0.0
 20
0.0
 30
0.0
 70
   128
  0
VERTEX
  5
864
  8
0
 10
26.43139473282298
 20
53.253986568982327
 30
0.0
  0
VERTEX
  5
865
  8
0
 10
26.316386887622969
 20
53.282479962282359
 30
0.0
  0
VERTEX
  5
866
  8
0
 10
26.220328936122971
 20
53.328443345282317
 30
0.0
  0
SEQEND
  5
867
  8
0
  0
POLYLINE
  5
4AE
  8
0
 66
     1
 10
0.0
 20
0.0
 30
0.0
 70
   128
  0
VERTEX
  5
868
  8
0
 10
43.122527429822973
 20
46.665410518082354
 30
0.0
  0
VERTEX
  5
869
  8
0
 10
43.123728302722952
 20
46.663497440782344
 30
0.0
  0
VERTEX
  5
86A
  8
0
 10
43.108242632822957
 20
46.688157991882349
 30
0.0
  0
VERTEX
  5
86B
  8
0
 10
43.068806934922968
 20
46.750788166682348
 30
0.0
  0
VERTEX
  5
86C
  8
0
 10
43.014885353922971
 20
46.836032835382348
 30
0.0
  0
VERTEX
  5
86D
  8
0
 10
42.943626896922979
 20
46.948002875382308
 30
0.0
  0
VERTEX
  5
86E
  8
0
 10
42.854917317422967
 20
47.086330622882372
 30
0.0
  0
VERTEX
  5
86F
  8
0
 10
42.750545995022939
 20
47.24760717708233
 30
0.0
  0
VERTEX
  5
870
  8
0
 10
42.556438276922961
 20
47.543460397982351
 30
0.0
  0
VERTEX
  5
871
  8
0
 10
42.329684110122962
 20
47.882653639182358
 30
0.0
  0
VERTEX
  5
872
  8
0
 10
42.070318509722988
 20
48.262637136382352
 30
0.0
  0
VERTEX
  5
873
  8
0
 10
41.784521143822978
 20
48.672086209682327
 30
0.0
  0
VERTEX
  5
874
  8
0
 10
41.597995444522972
 20
48.934378170282343
 30
0.0
  0
SEQEND
  5
875
  8
0
  0
ARC
  5
4AF
  8
0
 10
40.305709862922981
 20
48.324808105482361
 30
0.0
 40
1.428837880338006
 50
25.25321395950014
 51
77.287532336600862
  0
ARC
  5
4B0
  8
0
 10
41.02303844122298
 20
55.48571085488237
 30
0.0
 40
5.7811470275690429
 50
235.909234206001
 51
266.00369323380067
  0
ARC
  5
4B1
  8
0
 10
37.862000760922967
 20
50.857791517082369
 30
0.0
 40
0.1783538596392304
 50
185.16537065649979
 51
243.59116031100049
  0
LINE
  5
4B2
  8
0
 10
37.684371197222958
 20
50.841734202282339
 30
0.0
 11
37.684371197222958
 21
52.110238789882317
 31
0.0
  0
ARC
  5
4B3
  8
0
 10
37.852398159222957
 20
52.100751164682322
 30
0.0
 40
0.1682946076613748
 50
114.4752376806004
 51
176.7682313519006
  0
ARC
  5
4B4
  8
0
 10
41.023038405322978
 20
47.466262382482341
 30
0.0
 40
5.781146637533281
 50
93.996306679699444
 51
124.09076609120081
  0
LINE
  5
4B5
  8
0
 10
40.766585523223
 20
53.253986568982327
 30
0.0
 11
40.62013775102298
 21
53.233352420582321
 31
0.0
  0
LINE
  5
4B6
  8
0
 10
26.598240149122979
 20
53.233635017282317
 30
0.0
 11
26.43139473282298
 21
53.253986568982327
 31
0.0
  0
ARC
  5
4B7
  8
0
 10
26.217984068622972
 20
47.600289856082377
 30
0.0
 40
5.6461643964768058
 50
55.508620105800311
 51
86.138339110699874
  0
ARC
  5
4B8
  8
0
 10
29.33597768432298
 20
52.094182375982371
 30
0.0
 40
0.1783539278221586
 50
5.1650780873984594
 51
63.590465523199413
  0
LINE
  5
4B9
  8
0
 10
29.513607397922978
 20
52.110238789882317
 30
0.0
 11
29.513607397922978
 21
50.841734202282339
 31
0.0
  0
ARC
  5
4BA
  8
0
 10
29.34558023792297
 20
50.851221080982377
 30
0.0
 40
0.1682947632586751
 50
294.47596749020022
 51
356.76848889930068
  0
ARC
  5
4BB
  8
0
 10
26.217984027122981
 20
55.35168339628234
 30
0.0
 40
5.6461648017814197
 50
273.86166103350052
 51
304.49137952289891
  0
ARC
  5
4BC
  8
0
 10
26.814013664122999
 20
48.441943024682359
 30
0.0
 40
1.294504504867702
 50
99.595090084100107
 51
154.6833477764001
  0
ARC
  5
4BD
  8
0
 10
61.63942515862297
 20
23.073964237882311
 30
0.0
 40
44.357733004562469
 50
144.24117441099961
 51
147.86978914209959
  0
LINE
  5
4BE
  8
0
 10
42.869989313922979
 20
43.982986568982312
 30
0.0
 11
24.327989313922981
 21
43.982986568982312
 31
0.0
  0
LINE
  5
4BF
  8
0
 10
40.977718424922983
 20
53.324917458182092
 30
0.0
 11
40.901972590024883
 21
53.50798656898229
 31
0.0
  0
POLYLINE
  5
4C0
  8
0
 66
     1
 10
0.0
 20
0.0
 30
0.0
 70
   128
  0
VERTEX
  5
876
  8
0
 10
27.28054399652299
 20
50.698050009682341
 30
0.0
  0
VERTEX
  5
877
  8
0
 10
26.48195464022297
 20
49.895236791482318
 30
0.0
  0
VERTEX
  5
878
  8
0
 10
26.128818175452921
 20
49.540236726489347
 30
0.0
  0
SEQEND
  5
879
  8
0
  0
LINE
  5
4C1
  8
0
 10
27.339599986822979
 20
52.110238789882317
 30
0.0
 11
27.339599986822979
 21
50.841734202282339
 31
0.0
  0
LINE
  5
4C2
  8
0
 10
39.858378620122949
 20
50.841734202282339
 30
0.0
 11
39.858378620122949
 21
52.110238789882317
 31
0.0
  0
ARC
  5
4C3
  8
0
 10
40.061977901722962
 20
52.110328680882333
 30
0.0
 40
0.2037450026806686
 50
135.18870075139941
 51
180.02527851160059
  0
ARC
  5
4C4
  8
0
 10
40.061977901722962
 20
50.841644311382368
 30
0.0
 40
0.2037450026806686
 50
179.9747214883993
 51
224.81129924859911
  0
ARC
  5
4C5
  8
0
 10
27.135864087222981
 20
52.110365224482337
 30
0.0
 40
0.2038799656502545
 50
359.96446848090079
 51
44.759167563399721
  0
ARC
  5
4C6
  8
0
 10
27.135864087222981
 20
50.841607767782371
 30
0.0
 40
0.2038799656500074
 50
315.24083243659908
 51
0.0355315190992353
  0
POLYLINE
  5
4C7
  8
0
 66
     1
 10
0.0
 20
0.0
 30
0.0
 70
   128
  0
VERTEX
  5
87A
  8
0
 10
39.917434725422993
 20
52.253922887882311
 30
0.0
  0
VERTEX
  5
87B
  8
0
 10
40.404052780122981
 20
52.743114216682329
 30
0.0
  0
VERTEX
  5
87C
  8
0
 10
40.977718424922983
 20
53.324917458182092
 30
0.0
  0
SEQEND
  5
87D
  8
0
  0
POLYLINE
  5
4C8
  8
0
 66
     1
 10
0.0
 20
0.0
 30
0.0
 70
   128
  0
VERTEX
  5
87E
  8
0
 10
41.090369502485387
 20
49.51891318391165
 30
0.0
  0
VERTEX
  5
87F
  8
0
 10
40.883762755022978
 20
49.726609357482339
 30
0.0
  0
VERTEX
  5
880
  8
0
 10
39.917434631322983
 20
50.698050009682341
 30
0.0
  0
SEQEND
  5
881
  8
0
  0
LINE
  5
4C9
  8
0
 10
24.07398931392299
 20
46.665410518082354
 30
0.0
 11
24.07398931392299
 21
44.236986568982331
 31
0.0
  0
LINE
  5
4CA
  8
0
 10
43.123989313922969
 20
44.236986568982331
 30
0.0
 11
43.123989313922969
 21
46.665410518082354
 31
0.0
  0
LINE
  5
4CB
  8
0
 10
42.869989313922979
 20
43.982986568982312
 30
0.0
 11
43.123989313922969
 21
44.236986568982331
 31
0.0
  0
LINE
  5
4CC
  8
0
 10
24.07398931392299
 20
44.236986568982331
 30
0.0
 11
24.327989313922981
 21
43.982986568982312
 31
0.0
  0
LINE
  5
4CD
  8
0
 10
69.075163699962175
 20
92.328530272182377
 30
0.0
 11
67.806659112262153
 21
92.328530272182377
 31
0.0
  0
LINE
  5
4CE
  8
0
 10
67.806659112262153
 20
92.328530272182377
 30
0.0
 11
67.806659112262153
 21
95.195726222382334
 31
0.0
  0
LINE
  5
4CF
  8
0
 10
69.075163699962175
 20
92.328530272182377
 30
0.0
 11
69.075163699962175
 21
95.195726222382334
 31
0.0
  0
LINE
  5
4D0
  8
0
 10
67.806659112262153
 20
77.986974991282352
 30
0.0
 11
67.806659112262153
 21
80.854147741982388
 31
0.0
  0
LINE
  5
4D1
  8
0
 10
69.075163699962175
 20
77.986974991282352
 30
0.0
 11
69.075163699962175
 21
80.854147741982388
 31
0.0
  0
LINE
  5
4D2
  8
0
 10
67.806659112262153
 20
80.877660594582366
 30
0.0
 11
67.806659112262153
 21
92.305010125882333
 31
0.0
  0
LINE
  5
4D3
  8
0
 10
69.075163699962175
 20
80.877660594582366
 30
0.0
 11
69.075163699962175
 21
92.305010125882333
 31
0.0
  0
LINE
  5
4D4
  8
0
 10
67.806659112262153
 20
92.305010125882333
 30
0.0
 11
67.806659112262153
 21
92.328530272182377
 31
0.0
  0
ARC
  5
4D5
  8
0
 10
67.806647450362206
 20
92.620463361182374
 30
0.0
 40
0.2919330891886051
 50
265.86235864790081
 51
270.00228881339899
  0
ARC
  5
4D6
  8
0
 10
67.799446859962231
 20
92.576786777982363
 30
0.0
 40
0.2478835710991571
 50
236.5953723936006
 51
266.79399485450222
  0
ARC
  5
4D7
  8
0
 10
69.082375952262211
 20
92.576786777982363
 30
0.0
 40
0.2478835710994546
 50
273.20600514530003
 51
303.40462760640162
  0
ARC
  5
4D8
  8
0
 10
69.075175361862236
 20
92.620463361182374
 30
0.0
 40
0.2919330892041092
 50
269.99771118660118
 51
274.1376413517981
  0
LINE
  5
4D9
  8
0
 10
69.075163699962175
 20
92.305010125882333
 30
0.0
 11
69.075163699962175
 21
92.328530272182377
 31
0.0
  0
POLYLINE
  5
4DA
  8
0
 66
     1
 10
0.0
 20
0.0
 30
0.0
 70
   128
  0
VERTEX
  5
882
  8
0
 10
67.170001407568179
 20
87.895217300882337
 30
0.0
  0
VERTEX
  5
883
  8
0
 10
67.170074215468162
 20
86.594257784582325
 30
0.0
  0
VERTEX
  5
884
  8
0
 10
67.170001407568179
 20
85.287483928382358
 30
0.0
  0
SEQEND
  5
885
  8
0
  0
ARC
  5
4DB
  8
0
 10
63.906139944568253
 20
85.229802333582384
 30
0.0
 40
3.264371121117982
 50
325.37343996189929
 51
1.0124718723005579
  0
ARC
  5
4DC
  8
0
 10
63.865232879768229
 20
87.940544352282359
 30
0.0
 40
3.3050793582275659
 50
359.21420036230001
 51
34.399161726000123
  0
POLYLINE
  5
4DD
  8
0
 66
     1
 10
0.0
 20
0.0
 30
0.0
 70
   128
  0
VERTEX
  5
886
  8
0
 10
66.591980444062429
 20
83.371324954690394
 30
0.0
  0
VERTEX
  5
887
  8
0
 10
66.591980444062145
 20
82.279758056082358
 30
0.0
  0
VERTEX
  5
888
  8
0
 10
66.591980444062429
 20
81.214097088982385
 30
0.0
  0
SEQEND
  5
889
  8
0
  0
ARC
  5
4DE
  8
0
 10
68.89416901056822
 20
87.390812212682363
 30
0.0
 40
4.6327564851552543
 50
237.56214113379889
 51
240.20243387507711
  0
ARC
  5
4DF
  8
0
 10
68.904947947668205
 20
85.773639046082394
 30
0.0
 40
4.6540620021752481
 50
119.8108498798005
 51
122.42839229709971
  0
POLYLINE
  5
4E0
  8
0
 66
     1
 10
0.0
 20
0.0
 30
0.0
 70
   128
  0
VERTEX
  5
88A
  8
0
 10
66.592333831368194
 20
92.000120965282349
 30
0.0
  0
VERTEX
  5
88B
  8
0
 10
66.592329824668184
 20
90.919033466682322
 30
0.0
  0
VERTEX
  5
88C
  8
0
 10
66.592325817968231
 20
89.815473277182363
 30
0.0
  0
SEQEND
  5
88D
  8
0
  0
LINE
  5
4E1
  8
0
 10
66.68326288496219
 20
93.050076195682379
 30
0.0
 11
67.662975014362203
 21
92.369852729982384
 31
0.0
  0
POLYLINE
  5
4E2
  8
0
 66
     1
 10
0.0
 20
0.0
 30
0.0
 70
   128
  0
VERTEX
  5
88E
  8
0
 10
66.591976495662223
 20
81.214097088982385
 30
0.0
  0
VERTEX
  5
88F
  8
0
 10
66.588358809162173
 20
80.957499235582347
 30
0.0
  0
VERTEX
  5
890
  8
0
 10
66.588429655762184
 20
80.686493219082365
 30
0.0
  0
SEQEND
  5
891
  8
0
  0
LINE
  5
4E3
  8
0
 10
66.588473004762207
 20
80.686537706682373
 30
0.0
 11
66.408847436362194
 21
80.900056068382355
 31
0.0
  0
LINE
  5
4E4
  8
0
 10
66.408911333262253
 20
77.320350614682354
 30
0.0
 11
66.408911333262168
 21
95.862350614582297
 31
0.0
  0
POLYLINE
  5
4E5
  8
0
 66
     1
 10
0.0
 20
0.0
 30
0.0
 70
   128
  0
VERTEX
  5
892
  8
0
 10
66.588434943262158
 20
80.686496810282378
 30
0.0
  0
VERTEX
  5
893
  8
0
 10
66.633773473362183
 20
80.499658047682374
 30
0.0
  0
VERTEX
  5
894
  8
0
 10
66.662911333262187
 20
80.318297962182314
 30
0.0
  0
SEQEND
  5
895
  8
0
  0
POLYLINE
  5
4E6
  8
0
 66
     1
 10
0.0
 20
0.0
 30
0.0
 70
   128
  0
VERTEX
  5
896
  8
0
 10
66.588769086168213
 20
92.496278258182372
 30
0.0
  0
VERTEX
  5
897
  8
0
 10
66.588711903768171
 20
92.241995572082374
 30
0.0
  0
VERTEX
  5
898
  8
0
 10
66.592333831368194
 20
92.000120965282349
 30
0.0
  0
SEQEND
  5
899
  8
0
  0
POLYLINE
  5
4E7
  8
0
 66
     1
 10
0.0
 20
0.0
 30
0.0
 70
   128
  0
VERTEX
  5
89A
  8
0
 10
66.663229879868197
 20
92.864405127382383
 30
0.0
  0
VERTEX
  5
89B
  8
0
 10
66.634736486568158
 20
92.686212354782356
 30
0.0
  0
VERTEX
  5
89C
  8
0
 10
66.588773103568201
 20
92.49627552968235
 30
0.0
  0
SEQEND
  5
89D
  8
0
  0
LINE
  5
4E8
  8
0
 10
70.198560070562181
 20
93.050076195682379
 30
0.0
 11
69.218847797862182
 21
92.369852729982384
 31
0.0
  0
LINE
  5
4E9
  8
0
 10
75.933911333262145
 20
95.862350614582397
 30
0.0
 11
75.933911333262202
 21
77.320350614582367
 31
0.0
  0
LINE
  5
4EA
  8
0
 10
75.679911333262183
 20
77.066350614582348
 30
0.0
 11
75.679911333262126
 21
96.116350614582373
 31
0.0
  0
LINE
  5
4EB
  8
0
 10
66.662911333262187
 20
80.318297962182314
 30
0.0
 11
66.683545481662193
 21
80.154806539982374
 31
0.0
  0
LINE
  5
4EC
  8
0
 10
66.662911333262215
 20
80.318297962182314
 30
0.0
 11
66.662911333262215
 21
77.066350614582348
 31
0.0
  0
LINE
  5
4ED
  8
0
 10
66.662911333262215
 20
96.116350614582373
 30
0.0
 11
66.662911333262215
 21
92.864405127382383
 31
0.0
  0
LINE
  5
4EE
  8
0
 10
66.6835814315682
 20
93.050076195682379
 30
0.0
 11
66.663229879868197
 21
92.864405127382383
 31
0.0
  0
ARC
  5
4EF
  8
0
 10
69.272609648362206
 20
93.118943312082365
 30
0.0
 40
2.590262407752292
 50
128.41972877820021
 51
181.52349820319941
  0
ARC
  5
4F0
  8
0
 10
67.801815142762209
 20
94.968802973882347
 30
0.0
 40
0.2269749430588248
 50
88.777133375900846
 51
127.7123840343987
  0
LINE
  5
4F1
  8
0
 10
67.806659112262153
 20
95.195726222382334
 30
0.0
 11
69.075163699962175
 21
95.195726222382334
 31
0.0
  0
ARC
  5
4F2
  8
0
 10
69.078095914762216
 20
94.963003611682325
 30
0.0
 40
0.2327410824186639
 50
52.788616133798449
 51
90.721866455801234
  0
ARC
  5
4F3
  8
0
 10
67.609213249462229
 20
93.118943322482323
 30
0.0
 40
2.5902624656271378
 50
358.47650159989922
 51
51.58027198400012
  0
ARC
  5
4F4
  8
0
 10
72.149817663762221
 20
93.381664581682344
 30
0.0
 40
1.9792314298034941
 50
189.64446638349989
 51
231.6360291713988
  0
ARC
  5
4F5
  8
0
 10
72.397179418162224
 20
79.667632538882344
 30
0.0
 40
2.2522229614790659
 50
128.91133955219971
 51
167.50771981229971
  0
ARC
  5
4F6
  8
0
 10
67.607545364062204
 20
80.065020475082335
 30
0.0
 40
2.5922874844513402
 50
308.43128125460038
 51
1.9848846743990221
  0
ARC
  5
4F7
  8
0
 10
69.080007456962207
 20
78.213895517682374
 30
0.0
 40
0.2269722169785504
 50
268.77717234510169
 51
307.7129839571985
  0
LINE
  5
4F8
  8
0
 10
69.075163699962175
 20
77.986974991282352
 30
0.0
 11
67.806659112262153
 21
77.986974991282352
 31
0.0
  0
ARC
  5
4F9
  8
0
 10
67.8037269580622
 20
78.219694310382351
 30
0.0
 40
0.2327377902751444
 50
232.78798195819931
 51
270.72186173950018
  0
ARC
  5
4FA
  8
0
 10
69.274277535462176
 20
80.065020486182334
 30
0.0
 40
2.5922874281029551
 50
178.01511552760019
 51
231.5687179640999
  0
ARC
  5
4FB
  8
0
 10
66.065237366362211
 20
86.596262350182371
 30
0.0
 40
7.1394688353681204
 50
313.53094521220049
 51
47.14188664040018
  0
LINE
  5
4FC
  8
0
 10
66.408911333262168
 20
77.320350614681857
 30
0.0
 11
66.662911333262215
 21
77.066350614582348
 31
0.0
  0
LINE
  5
4FD
  8
0
 10
66.662911333262215
 20
96.116350614582373
 30
0.0
 11
66.408911333262168
 21
95.862350614582297
 31
0.0
  0
LINE
  5
4FE
  8
0
 10
75.933911333262202
 20
95.862350614582397
 30
0.0
 11
75.679911333262183
 21
96.116350614582373
 31
0.0
  0
LINE
  5
4FF
  8
0
 10
75.679911333262183
 20
77.066350614582348
 30
0.0
 11
75.933911333262202
 21
77.320350614582367
 31
0.0
  0
LINE
  5
500
  8
0
 10
66.663229879868197
 20
77.066350614582348
 30
0.0
 11
75.679911333262183
 21
77.066350614582348
 31
0.0
  0
LINE
  5
501
  8
0
 10
75.679911333262126
 20
96.116350614582373
 30
0.0
 11
66.663229879868197
 21
96.116350614582373
 31
0.0
  0
LINE
  5
502
  8
0
 10
41.55414306282298
 20
91.829781088682395
 30
0.0
 11
40.943147472122938
 21
92.000999240782392
 31
0.0
  0
LINE
  5
503
  8
0
 10
25.643835565022979
 20
81.352920140582398
 30
0.0
 11
26.25202209392296
 21
81.182580254382401
 31
0.0
  0
LINE
  5
504
  8
0
 10
25.599983183322959
 20
91.762571546182414
 30
0.0
 11
26.264104296922969
 21
91.969427396582432
 31
0.0
  0
LINE
  5
505
  8
0
 10
41.597995444522951
 20
81.420129682982406
 30
0.0
 11
40.940151030022967
 21
81.215110050582382
 31
0.0
  0
POLYLINE
  5
506
  8
0
 66
     1
 10
0.0
 20
0.0
 30
0.0
 70
   128
  0
VERTEX
  5
89E
  8
0
 10
26.43139473282298
 20
80.318296101782437
 30
0.0
  0
VERTEX
  5
89F
  8
0
 10
26.31638688772296
 20
80.496488874482395
 30
0.0
  0
VERTEX
  5
8A0
  8
0
 10
26.220260202922962
 20
80.686412476382429
 30
0.0
  0
SEQEND
  5
8A1
  8
0
  0
LINE
  5
507
  8
0
 10
26.220260202922962
 20
80.686412476382429
 30
0.0
 11
26.280527393722959
 21
80.900072573382431
 31
0.0
  0
LINE
  5
508
  8
0
 10
40.940151030022967
 20
81.215110050582382
 30
0.0
 11
40.868780485122983
 21
81.194979692082427
 31
0.0
  0
LINE
  5
509
  8
0
 10
40.943147472122938
 20
92.000999240782392
 30
0.0
 11
40.872468927622968
 21
92.022780517182412
 31
0.0
  0
LINE
  5
50A
  8
0
 10
26.335301778622981
 20
91.989508373382435
 30
0.0
 11
26.264104296922969
 21
91.969427396582432
 31
0.0
  0
LINE
  5
50B
  8
0
 10
26.31946134372296
 20
81.161703104782418
 30
0.0
 11
26.25202209392296
 21
81.182580254382401
 31
0.0
  0
POLYLINE
  5
50C
  8
0
 66
     1
 10
0.0
 20
0.0
 30
0.0
 70
   128
  0
VERTEX
  5
8A2
  8
0
 10
26.336352651322962
 20
91.98981603478245
 30
0.0
  0
VERTEX
  5
8A3
  8
0
 10
26.63180783022295
 20
90.851958030582395
 30
0.0
  0
VERTEX
  5
8A4
  8
0
 10
26.856022378422949
 20
89.701052871482432
 30
0.0
  0
SEQEND
  5
8A5
  8
0
  0
ARC
  5
50D
  8
0
 10
24.403809897322962
 20
87.683550614582416
 30
0.0
 40
3.1749999999999989
 50
3.822554083200822
 51
39.430232178900177
  0
ARC
  5
50E
  8
0
 10
8.0572586239229622
 20
86.591350614582382
 30
0.0
 40
19.557998485440901
 50
356.177445916799
 51
3.8225540832009481
  0
ARC
  5
50F
  8
0
 10
24.403809897322962
 20
85.499150614582447
 30
0.0
 40
3.174999999999998
 50
320.56893585109992
 51
356.177445916799
  0
POLYLINE
  5
510
  8
0
 66
     1
 10
0.0
 20
0.0
 30
0.0
 70
   128
  0
VERTEX
  5
8A6
  8
0
 10
26.85598332302294
 20
83.481552980482434
 30
0.0
  0
VERTEX
  5
8A7
  8
0
 10
26.62793864922298
 20
82.313893733782436
 30
0.0
  0
VERTEX
  5
8A8
  8
0
 10
26.31946134372296
 20
81.161703104782418
 30
0.0
  0
SEQEND
  5
8A9
  8
0
  0
LINE
  5
511
  8
0
 10
26.31946134372296
 20
81.161703104782418
 30
0.0
 11
26.28050855142294
 21
80.90012678608241
 31
0.0
  0
LINE
  5
512
  8
0
 10
40.917444160822953
 20
80.900126617882393
 30
0.0
 11
40.868780485122983
 21
81.194979692082427
 31
0.0
  0
POLYLINE
  5
513
  8
0
 66
     1
 10
0.0
 20
0.0
 30
0.0
 70
   128
  0
VERTEX
  5
8AA
  8
0
 10
40.868780485122983
 20
81.194979692082427
 30
0.0
  0
VERTEX
  5
8AB
  8
0
 10
40.566170797622959
 20
82.330743198682399
 30
0.0
  0
VERTEX
  5
8AC
  8
0
 10
40.341956249422957
 20
83.481648357682445
 30
0.0
  0
SEQEND
  5
8AD
  8
0
  0
ARC
  5
514
  8
0
 10
42.794168730522948
 20
85.499150614582447
 30
0.0
 40
3.1749999999999861
 50
183.8225540832008
 51
219.43023217880059
  0
ARC
  5
515
  8
0
 10
59.140720003922951
 20
86.591350614582382
 30
0.0
 40
19.557998485440891
 50
176.177445916799
 51
183.82255408320091
  0
ARC
  5
516
  8
0
 10
42.794168730522948
 20
87.683550614582416
 30
0.0
 40
3.1749999999999989
 50
140.5689358510997
 51
176.1774459167992
  0
POLYLINE
  5
517
  8
0
 66
     1
 10
0.0
 20
0.0
 30
0.0
 70
   128
  0
VERTEX
  5
8AE
  8
0
 10
40.341995304822973
 20
89.701148248682387
 30
0.0
  0
VERTEX
  5
8AF
  8
0
 10
40.57003997862298
 20
90.868807495382427
 30
0.0
  0
VERTEX
  5
8B0
  8
0
 10
40.871428441422943
 20
92.023087159982424
 30
0.0
  0
SEQEND
  5
8B1
  8
0
  0
LINE
  5
518
  8
0
 10
40.878517284122978
 20
92.020998124382388
 30
0.0
 11
40.917470076422973
 21
92.282574443182455
 31
0.0
  0
LINE
  5
519
  8
0
 10
26.280527393722959
 20
92.282628655782332
 30
0.0
 11
26.329198142722991
 21
91.987721537082379
 31
0.0
  0
LINE
  5
51B
  8
2
 10
29.348989313922861
 20
52.707986568982328
 30
0.0
 11
37.848989313922971
 21
52.707986568982328
 31
0.0
  0
LINE
  5
574
  8
0
 10
75.933553206532636
 20
89.091350614582197
 30
0.0
 11
81.033911333262139
 21
89.091350614582197
 31
0.0
  0
LINE
  5
575
  8
3
 10
75.933553206532636
 20
88.658350614582389
 30
0.0
 11
81.466911333261905
 21
88.658350614582389
 31
0.0
  0
LINE
  5
576
  8
0
 10
81.933911333262174
 20
88.191350614582234
 30
0.0
 11
81.933911333262174
 21
84.991350614582245
 31
0.0
  0
LINE
  5
577
  8
0
 10
81.033911333262196
 20
89.091350614582268
 30
0.0
 11
81.933911333262174
 21
88.191350614582234
 31
0.0
  0
LINE
  5
578
  8
0
 10
81.033911333262139
 20
89.091350614582268
 30
0.0
 11
81.033911333262139
 21
84.091350614582268
 31
0.0
  0
LINE
  5
579
  8
3
 10
75.933553206532636
 20
84.524350614581934
 30
0.0
 11
81.466911333261905
 21
84.524350614581977
 31
0.0
  0
LINE
  5
57A
  8
0
 10
75.933553206532636
 20
84.091350614582197
 30
0.0
 11
81.033911333262139
 21
84.091350614582197
 31
0.0
  0
LINE
  5
57B
  8
0
 10
81.933911333262174
 20
84.991350614582245
 30
0.0
 11
81.033911333262196
 21
84.091350614582268
 31
0.0
  0
LINE
  5
57C
  8
1
 10
86.933911333262174
 20
86.59135061458224
 30
0.0
 11
61.408911333262211
 21
86.591350614582268
 31
0.0
  0
LINE
  5
57D
  8
2
 10
71.908911333262168
 20
90.841350614582254
 30
0.0
 11
71.908911333262168
 21
82.341350614582268
 31
0.0
  0
LINE
  5
57E
  8
2
 10
74.308553206532636
 20
88.658350614582446
 30
0.0
 11
75.933553206532693
 21
88.658350614582446
 31
0.0
  0
LINE
  5
57F
  8
2
 10
71.908911333262168
 20
89.091350614582268
 30
0.0
 11
75.933553206532693
 21
89.091350614582268
 31
0.0
  0
LINE
  5
580
  8
2
 10
74.308553206532636
 20
89.091350614582268
 30
0.0
 11
74.308553206532636
 21
84.091350614582268
 31
0.0
  0
LINE
  5
581
  8
2
 10
74.308553206532636
 20
88.658350614582446
 30
0.0
 11
73.558575206855735
 21
89.091350614582268
 31
0.0
  0
LINE
  5
582
  8
2
 10
71.908911333262168
 20
84.091350614582268
 30
0.0
 11
75.933553206532693
 21
84.091350614582268
 31
0.0
  0
LINE
  5
583
  8
2
 10
74.308553206532636
 20
84.524350614582033
 30
0.0
 11
75.933553206532693
 21
84.524350614582005
 31
0.0
  0
LINE
  5
584
  8
2
 10
74.308553206532636
 20
84.524350614582076
 30
0.0
 11
73.558575206855735
 21
84.091350614582268
 31
0.0
  0
LINE
  5
585
  8
2
 10
71.908911333262168
 20
82.341350614582268
 30
0.0
 11
67.208911333262179
 21
82.341350614582268
 31
0.0
  0
LINE
  5
586
  8
2
 10
66.908911333262168
 20
82.860965856852886
 30
0.0
 11
66.908911333262168
 21
90.321735372311593
 31
0.0
  0
LINE
  5
587
  8
2
 10
67.208911333262122
 20
82.341350614582268
 30
0.0
 11
66.908911333262168
 21
82.860965856852886
 31
0.0
  0
LINE
  5
588
  8
2
 10
67.208911333262179
 20
82.341350614582154
 30
0.0
 11
67.208911333262179
 21
90.841350614582254
 31
0.0
  0
LINE
  5
589
  8
2
 10
67.208911333262179
 20
90.841350614582254
 30
0.0
 11
71.908911333262168
 21
90.841350614582254
 31
0.0
  0
LINE
  5
58A
  8
2
 10
67.208911333262179
 20
90.841350614582254
 30
0.0
 11
66.908911333262168
 21
90.321735372311593
 31
0.0
  0
LINE
  5
68B
  8
0
 10
186.09898931392291
 20
43.982986568982362
 30
0.0
 11
186.09898931392291
 21
38.882986568982354
 31
0.0
  0
LINE
  5
68C
  8
3
 10
185.66598931392301
 20
43.982986568982362
 30
0.0
 11
185.66598931392309
 21
38.449986568982581
 31
0.0
  0
LINE
  5
68D
  8
3
 10
181.53198931392259
 20
43.982986568982362
 30
0.0
 11
181.53198931392271
 21
38.449986568982581
 31
0.0
  0
LINE
  5
68E
  8
0
 10
181.09898931392291
 20
43.982986568982362
 30
0.0
 11
181.09898931392291
 21
38.882986568982354
 31
0.0
  0
LINE
  5
68F
  8
1
 10
183.59898931392291
 20
32.982986568982312
 30
0.0
 11
183.59898931392291
 21
58.507986568982354
 31
0.0
  0
LINE
  5
690
  8
0
 10
220.19856007056219
 20
80.132594524782348
 30
0.0
 11
219.2188477978622
 21
80.812817990482358
 31
0.0
  0
LINE
  5
691
  8
0
 10
219.07516369996219
 20
80.877660594582366
 30
0.0
 11
219.07516369996219
 21
80.854140448282351
 31
0.0
  0
ARC
  5
692
  8
0
 10
219.07517536186231
 20
80.562207359282354
 30
0.0
 40
0.2919330892041092
 50
85.862358648202076
 51
90.002288813398792
  0
ARC
  5
693
  8
0
 10
219.0823759522622
 20
80.605883942482365
 30
0.0
 40
0.2478835710994546
 50
56.595372393601153
 51
86.793994854696749
  0
ARC
  5
694
  8
0
 10
217.7994468599623
 20
80.605883942482365
 30
0.0
 40
0.2478835710991571
 50
93.206005145497883
 51
123.4046276064022
  0
ARC
  5
695
  8
0
 10
217.80664745036219
 20
80.562207359282354
 30
0.0
 40
0.2919330891886051
 50
89.997711186601094
 51
94.137641352101909
  0
LINE
  5
696
  8
0
 10
217.80665911226211
 20
80.877660594582366
 30
0.0
 11
217.80665911226211
 21
80.854140448282351
 31
0.0
  0
LINE
  5
697
  8
0
 10
219.07516369996219
 20
80.854140448282351
 30
0.0
 11
217.80665911226211
 21
80.854140448282351
 31
0.0
  0
LINE
  5
698
  8
0
 10
216.6832628849622
 20
80.132594524782348
 30
0.0
 11
217.66297501436219
 21
80.812817990482358
 31
0.0
  0
POLYLINE
  5
699
  8
0
 66
     1
 10
0.0
 20
0.0
 30
0.0
 70
   128
  0
VERTEX
  5
8E9
  8
0
 10
177.28054390242289
 20
52.253922887882311
 30
0.0
  0
VERTEX
  5
8EA
  8
0
 10
176.7939258477229
 20
52.743114216682329
 30
0.0
  0
VERTEX
  5
8EB
  8
0
 10
176.2202602029229
 20
53.324917458182092
 30
0.0
  0
SEQEND
  5
8EC
  8
0
  0
LINE
  5
69A
  8
0
 10
176.2202602029229
 20
53.324917458182092
 30
0.0
 11
176.296006037821
 21
53.50798656898229
 31
0.0
  0
POLYLINE
  5
69B
  8
0
 66
     1
 10
0.0
 20
0.0
 30
0.0
 70
   128
  0
VERTEX
  5
8ED
  8
0
 10
190.7665838950229
 20
80.318296101782437
 30
0.0
  0
VERTEX
  5
8EE
  8
0
 10
190.88159174012301
 20
80.496488874482395
 30
0.0
  0
VERTEX
  5
8EF
  8
0
 10
190.97771842492301
 20
80.686412476382429
 30
0.0
  0
SEQEND
  5
8F0
  8
0
  0
LINE
  5
69C
  8
0
 10
190.97771842492301
 20
80.686412476382429
 30
0.0
 11
190.91745123412301
 21
80.900072573382431
 31
0.0
  0
LINE
  5
69D
  8
0
 10
190.97771842492301
 20
92.496288752782334
 30
0.0
 11
190.91745123412301
 21
92.282628655782332
 31
0.0
  0
POLYLINE
  5
69E
  8
0
 66
     1
 10
0.0
 20
0.0
 30
0.0
 70
   128
  0
VERTEX
  5
8F1
  8
0
 10
190.7665838950229
 20
92.864405127382327
 30
0.0
  0
VERTEX
  5
8F2
  8
0
 10
190.88159174012301
 20
92.686212354682354
 30
0.0
  0
VERTEX
  5
8F3
  8
0
 10
190.97771842492301
 20
92.496288752782334
 30
0.0
  0
SEQEND
  5
8F4
  8
0
  0
LINE
  5
69F
  8
0
 10
176.2901989921674
 20
53.253986568982327
 30
0.0
 11
190.90777963567851
 21
53.253986568982327
 31
0.0
  0
LINE
  5
6A0
  8
0
 10
193.123989313923
 20
44.236986568982381
 30
0.0
 11
174.07398931392291
 21
44.236986568982331
 31
0.0
  0
POLYLINE
  5
6A1
  8
0
 66
     1
 10
0.0
 20
0.0
 30
0.0
 70
   128
  0
VERTEX
  5
8F5
  8
0
 10
176.43139473282301
 20
92.864405127382327
 30
0.0
  0
VERTEX
  5
8F6
  8
0
 10
176.3163868877229
 20
92.686212354682354
 30
0.0
  0
VERTEX
  5
8F7
  8
0
 10
176.2202602029229
 20
92.496288752782334
 30
0.0
  0
SEQEND
  5
8F8
  8
0
  0
LINE
  5
6A2
  8
0
 10
176.2202602029229
 20
92.496288752782334
 30
0.0
 11
176.28052739372291
 21
92.282628655782332
 31
0.0
  0
CIRCLE
  5
6A3
  8
0
 10
183.59898931392291
 20
86.591350614582382
 30
0.0
 40
4.25
  0
LINE
  5
6A4
  8
0
 10
181.59898931392269
 20
87.746051152961456
 30
0.0
 11
181.5989893139232
 21
85.436650076203307
 31
0.0
  0
LINE
  5
6A5
  8
0
 10
183.59898931392291
 20
88.900751691340986
 30
0.0
 11
181.59898931392269
 21
87.746051152961456
 31
0.0
  0
LINE
  5
6A6
  8
0
 10
185.598989313923
 20
87.746051152962139
 30
0.0
 11
183.59898931392291
 21
88.900751691340986
 31
0.0
  0
LINE
  5
6A7
  8
0
 10
185.598989313923
 20
85.436650076203307
 30
0.0
 11
185.598989313923
 21
87.746051152962139
 31
0.0
  0
LINE
  5
6A8
  8
0
 10
183.5989893139232
 20
84.281949537824005
 30
0.0
 11
185.598989313923
 21
85.436650076203307
 31
0.0
  0
LINE
  5
6A9
  8
0
 10
181.5989893139232
 20
85.436650076203307
 30
0.0
 11
183.5989893139232
 21
84.281949537824005
 31
0.0
  0
CIRCLE
  5
6AA
  8
0
 10
183.59898931392291
 20
86.591350614582382
 30
0.0
 40
3.730384757729325
  0
LINE
  5
6AB
  8
2
 10
187.848989313923
 20
52.707986568982328
 30
0.0
 11
187.848989313923
 21
48.007986568982339
 31
0.0
  0
LINE
  5
6AC
  8
2
 10
187.848989313923
 20
48.007986568982339
 30
0.0
 11
179.348989313923
 21
48.007986568982339
 31
0.0
  0
LINE
  5
6AD
  8
2
 10
179.348989313923
 20
48.007986568982339
 30
0.0
 11
179.348989313923
 21
52.707986568982328
 31
0.0
  0
LINE
  5
6AE
  8
2
 10
179.86860455619359
 20
53.007986568982339
 30
0.0
 11
187.3293740716523
 21
53.007986568982339
 31
0.0
  0
LINE
  5
6AF
  8
2
 10
187.848989313923
 20
52.707986568982328
 30
0.0
 11
187.3293740716523
 21
53.007986568982339
 31
0.0
  0
LINE
  5
6B0
  8
2
 10
179.348989313923
 20
52.707986568982392
 30
0.0
 11
179.86860455619359
 21
53.007986568982339
 31
0.0
  0
LINE
  5
6B1
  8
2
 10
181.09898931392291
 20
48.007986568982339
 30
0.0
 11
181.09898931392291
 21
43.982986568982312
 31
0.0
  0
LINE
  5
6B2
  8
2
 10
181.53198931392271
 20
45.607986568982369
 30
0.0
 11
181.53198931392271
 21
43.982986568982312
 31
0.0
  0
LINE
  5
6B3
  8
2
 10
185.66598931392309
 20
45.607986568982369
 30
0.0
 11
185.66598931392309
 21
43.982986568982312
 31
0.0
  0
LINE
  5
6B4
  8
2
 10
186.09898931392291
 20
48.007986568982339
 30
0.0
 11
186.09898931392291
 21
43.982986568982312
 31
0.0
  0
LINE
  5
6B5
  8
0
 10
185.19898931392299
 20
37.982986568982312
 30
0.0
 11
181.998989313923
 21
37.982986568982312
 31
0.0
  0
LINE
  5
6B6
  8
2
 10
186.09898931392291
 20
45.607986568982369
 30
0.0
 11
181.09898931392291
 21
45.607986568982369
 31
0.0
  0
LINE
  5
6B7
  8
2
 10
185.66598931392309
 20
45.607986568982369
 30
0.0
 11
186.09898931392291
 21
46.35796456865927
 31
0.0
  0
LINE
  5
6B8
  8
0
 10
186.098989313923
 20
38.88298656898229
 30
0.0
 11
185.19898931392299
 21
37.982986568982312
 31
0.0
  0
LINE
  5
6B9
  8
0
 10
181.998989313923
 20
37.982986568982312
 30
0.0
 11
181.098989313923
 21
38.88298656898229
 31
0.0
  0
LINE
  5
6BA
  8
0
 10
186.098989313923
 20
38.882986568982354
 30
0.0
 11
181.098989313923
 21
38.882986568982354
 31
0.0
  0
LINE
  5
6BB
  8
2
 10
181.53198931392279
 20
45.607986568982369
 30
0.0
 11
181.09898931392291
 21
46.35796456865927
 31
0.0
  0
CIRCLE
  5
6BC
  8
0
 10
183.59898931392291
 20
86.591350614582382
 30
0.0
 40
9.5250000000000004
  0
LINE
  5
6BD
  8
1
 10
198.123989313923
 20
86.591350614582382
 30
0.0
 11
169.07398931392291
 21
86.591350614582382
 31
0.0
  0
LINE
  5
6BE
  8
1
 10
183.59898931392291
 20
101.1163506145823
 30
0.0
 11
183.59898931392291
 21
72.066350614582404
 31
0.0
  0
LINE
  5
6BF
  8
0
 10
175.59998318332299
 20
48.934378170282343
 30
0.0
 11
175.60198877132291
 21
48.936478900782333
 31
0.0
  0
LINE
  5
6C0
  8
0
 10
189.85180872012299
 20
52.110238789882317
 30
0.0
 11
189.85823424312301
 21
52.110238789882317
 31
0.0
  0
LINE
  5
6C1
  8
0
 10
189.85180872012299
 20
50.841734202282339
 30
0.0
 11
189.85823424312301
 21
50.841734202282339
 31
0.0
  0
LINE
  5
6C2
  8
0
 10
177.3461481526229
 20
52.110238789882317
 30
0.0
 11
177.33972456722299
 21
52.110238789882317
 31
0.0
  0
LINE
  5
6C3
  8
0
 10
177.3461481526229
 20
50.841734202282339
 30
0.0
 11
177.33972456722299
 21
50.841734202282339
 31
0.0
  0
LINE
  5
6C4
  8
0
 10
189.85823424312301
 20
52.110238789882317
 30
0.0
 11
189.85837862012289
 21
52.110238789882317
 31
0.0
  0
LINE
  5
6C5
  8
0
 10
189.85823424312301
 20
50.841734202282339
 30
0.0
 11
189.85837862012289
 21
50.841734202282339
 31
0.0
  0
LINE
  5
6C6
  8
0
 10
177.33959998682289
 20
52.110238789882317
 30
0.0
 11
177.33974678732301
 21
52.110238789882317
 31
0.0
  0
LINE
  5
6C7
  8
0
 10
177.33959998682289
 20
50.841734202282339
 30
0.0
 11
177.33974678732301
 21
50.841734202282339
 31
0.0
  0
LINE
  5
6C8
  8
0
 10
187.6843711972229
 20
50.841734202282339
 30
0.0
 11
189.85180872012299
 21
50.841734202282339
 31
0.0
  0
LINE
  5
6C9
  8
0
 10
187.6843711972229
 20
52.110238789882317
 30
0.0
 11
189.85180872012299
 21
52.110238789882317
 31
0.0
  0
LINE
  5
6CA
  8
0
 10
177.3461481526229
 20
52.110238789882317
 30
0.0
 11
179.51360739792301
 21
52.110238789882317
 31
0.0
  0
LINE
  5
6CB
  8
0
 10
177.3461481526229
 20
50.841734202282339
 30
0.0
 11
179.51360739792301
 21
50.841734202282339
 31
0.0
  0
POLYLINE
  5
6CC
  8
0
 66
     1
 10
0.0
 20
0.0
 30
0.0
 70
   128
  0
VERTEX
  5
8F9
  8
0
 10
190.97648877277001
 20
53.327889388276112
 30
0.0
  0
VERTEX
  5
8FA
  8
0
 10
190.88340277372299
 20
53.283124428882331
 30
0.0
  0
VERTEX
  5
8FB
  8
0
 10
190.766585523223
 20
53.253986568982327
 30
0.0
  0
SEQEND
  5
8FC
  8
0
  0
LINE
  5
6CD
  8
0
 10
176.29600603782109
 20
53.50798656898229
 30
0.0
 11
190.9019725900248
 21
53.507986568982403
 31
0.0
  0
POLYLINE
  5
6CE
  8
0
 66
     1
 10
0.0
 20
0.0
 30
0.0
 70
   128
  0
VERTEX
  5
8FD
  8
0
 10
176.43139473282301
 20
53.253986568982327
 30
0.0
  0
VERTEX
  5
8FE
  8
0
 10
176.31638688762291
 20
53.282479962282359
 30
0.0
  0
VERTEX
  5
8FF
  8
0
 10
176.22032893612291
 20
53.328443345282317
 30
0.0
  0
SEQEND
  5
900
  8
0
  0
POLYLINE
  5
6CF
  8
0
 66
     1
 10
0.0
 20
0.0
 30
0.0
 70
   128
  0
VERTEX
  5
901
  8
0
 10
193.12252742982301
 20
46.665410518082354
 30
0.0
  0
VERTEX
  5
902
  8
0
 10
193.1237283027229
 20
46.663497440782344
 30
0.0
  0
VERTEX
  5
903
  8
0
 10
193.10824263282291
 20
46.688157991882349
 30
0.0
  0
VERTEX
  5
904
  8
0
 10
193.068806934923
 20
46.750788166682348
 30
0.0
  0
VERTEX
  5
905
  8
0
 10
193.01488535392289
 20
46.836032835382348
 30
0.0
  0
VERTEX
  5
906
  8
0
 10
192.94362689692301
 20
46.948002875382308
 30
0.0
  0
VERTEX
  5
907
  8
0
 10
192.85491731742289
 20
47.086330622882372
 30
0.0
  0
VERTEX
  5
908
  8
0
 10
192.75054599502289
 20
47.24760717708233
 30
0.0
  0
VERTEX
  5
909
  8
0
 10
192.5564382769229
 20
47.543460397982351
 30
0.0
  0
VERTEX
  5
90A
  8
0
 10
192.32968411012291
 20
47.882653639182358
 30
0.0
  0
VERTEX
  5
90B
  8
0
 10
192.07031850972299
 20
48.262637136382352
 30
0.0
  0
VERTEX
  5
90C
  8
0
 10
191.78452114382301
 20
48.672086209682327
 30
0.0
  0
VERTEX
  5
90D
  8
0
 10
191.59799544452301
 20
48.934378170282343
 30
0.0
  0
SEQEND
  5
90E
  8
0
  0
ARC
  5
6D0
  8
0
 10
190.30570986292301
 20
48.324808105482361
 30
0.0
 40
1.428837880338006
 50
25.253213959500261
 51
77.287532336600862
  0
ARC
  5
6D1
  8
0
 10
191.02303844122301
 20
55.48571085488237
 30
0.0
 40
5.7811470275690429
 50
235.909234206001
 51
266.00369323380067
  0
ARC
  5
6D2
  8
0
 10
187.86200076092291
 20
50.857791517082369
 30
0.0
 40
0.1783538596392304
 50
185.16537065649979
 51
243.59116031100251
  0
LINE
  5
6D3
  8
0
 10
187.6843711972229
 20
50.841734202282339
 30
0.0
 11
187.6843711972229
 21
52.110238789882317
 31
0.0
  0
ARC
  5
6D4
  8
0
 10
187.8523981592229
 20
52.100751164682322
 30
0.0
 40
0.1682946076613748
 50
114.475237680596
 51
176.76823135190091
  0
ARC
  5
6D5
  8
0
 10
191.02303840532301
 20
47.466262382482341
 30
0.0
 40
5.781146637533281
 50
93.996306679699387
 51
124.0907660912009
  0
LINE
  5
6D6
  8
0
 10
190.766585523223
 20
53.253986568982327
 30
0.0
 11
190.62013775102301
 21
53.233352420582321
 31
0.0
  0
LINE
  5
6D7
  8
0
 10
176.59824014912289
 20
53.233635017282317
 30
0.0
 11
176.43139473282301
 21
53.253986568982327
 31
0.0
  0
ARC
  5
6D8
  8
0
 10
176.21798406862291
 20
47.600289856082377
 30
0.0
 40
5.6461643964768058
 50
55.508620105800247
 51
86.138339110699917
  0
ARC
  5
6D9
  8
0
 10
179.33597768432301
 20
52.094182375982371
 30
0.0
 40
0.1783539278221586
 50
5.1650780873986637
 51
63.59046552320045
  0
LINE
  5
6DA
  8
0
 10
179.51360739792301
 20
52.110238789882317
 30
0.0
 11
179.51360739792301
 21
50.841734202282339
 31
0.0
  0
ARC
  5
6DB
  8
0
 10
179.34558023792289
 20
50.851221080982377
 30
0.0
 40
0.1682947632586751
 50
294.47596749019692
 51
356.76848889930051
  0
ARC
  5
6DC
  8
0
 10
176.21798402712301
 20
55.35168339628234
 30
0.0
 40
5.6461648017814197
 50
273.86166103350058
 51
304.49137952289891
  0
ARC
  5
6DD
  8
0
 10
176.814013664123
 20
48.441943024682359
 30
0.0
 40
1.294504504867702
 50
99.595090084099638
 51
154.6833477764003
  0
ARC
  5
6DE
  8
0
 10
211.639425158623
 20
23.073964237882311
 30
0.0
 40
44.357733004562469
 50
144.24117441099929
 51
147.86978914209959
  0
LINE
  5
6DF
  8
0
 10
192.86998931392301
 20
43.982986568982312
 30
0.0
 11
174.32798931392301
 21
43.982986568982312
 31
0.0
  0
LINE
  5
6E0
  8
0
 10
190.97771842492301
 20
53.324917458182092
 30
0.0
 11
190.90197259002491
 21
53.50798656898229
 31
0.0
  0
POLYLINE
  5
6E1
  8
0
 66
     1
 10
0.0
 20
0.0
 30
0.0
 70
   128
  0
VERTEX
  5
90F
  8
0
 10
177.28054399652299
 20
50.698050009682341
 30
0.0
  0
VERTEX
  5
910
  8
0
 10
176.48195464022291
 20
49.895236791482318
 30
0.0
  0
VERTEX
  5
911
  8
0
 10
176.12881817545289
 20
49.540236726489347
 30
0.0
  0
SEQEND
  5
912
  8
0
  0
LINE
  5
6E2
  8
0
 10
177.33959998682289
 20
52.110238789882317
 30
0.0
 11
177.33959998682289
 21
50.841734202282339
 31
0.0
  0
LINE
  5
6E3
  8
0
 10
189.85837862012289
 20
50.841734202282339
 30
0.0
 11
189.85837862012289
 21
52.110238789882317
 31
0.0
  0
ARC
  5
6E4
  8
0
 10
190.06197790172291
 20
52.110328680882333
 30
0.0
 40
0.2037450026806686
 50
135.18870075140219
 51
180.02527851160059
  0
ARC
  5
6E5
  8
0
 10
190.06197790172291
 20
50.841644311382368
 30
0.0
 40
0.2037450026806686
 50
179.9747214883993
 51
224.8112992485963
  0
ARC
  5
6E6
  8
0
 10
177.13586408722301
 20
52.110365224482337
 30
0.0
 40
0.2038799656502545
 50
359.96446848090079
 51
44.759167563402528
  0
ARC
  5
6E7
  8
0
 10
177.13586408722301
 20
50.841607767782371
 30
0.0
 40
0.2038799656500074
 50
315.24083243659783
 51
0.0355315190992365
  0
POLYLINE
  5
6E8
  8
0
 66
     1
 10
0.0
 20
0.0
 30
0.0
 70
   128
  0
VERTEX
  5
913
  8
0
 10
189.91743472542299
 20
52.253922887882311
 30
0.0
  0
VERTEX
  5
914
  8
0
 10
190.40405278012301
 20
52.743114216682329
 30
0.0
  0
VERTEX
  5
915
  8
0
 10
190.97771842492301
 20
53.324917458182092
 30
0.0
  0
SEQEND
  5
916
  8
0
  0
POLYLINE
  5
6E9
  8
0
 66
     1
 10
0.0
 20
0.0
 30
0.0
 70
   128
  0
VERTEX
  5
917
  8
0
 10
191.0903695024854
 20
49.51891318391165
 30
0.0
  0
VERTEX
  5
918
  8
0
 10
190.88376275502301
 20
49.726609357482339
 30
0.0
  0
VERTEX
  5
919
  8
0
 10
189.917434631323
 20
50.698050009682341
 30
0.0
  0
SEQEND
  5
91A
  8
0
  0
LINE
  5
6EA
  8
0
 10
174.07398931392299
 20
46.665410518082354
 30
0.0
 11
174.07398931392299
 21
44.236986568982331
 31
0.0
  0
LINE
  5
6EB
  8
0
 10
193.123989313923
 20
44.236986568982331
 30
0.0
 11
193.123989313923
 21
46.665410518082354
 31
0.0
  0
LINE
  5
6EC
  8
0
 10
192.86998931392301
 20
43.982986568982312
 30
0.0
 11
193.123989313923
 21
44.236986568982331
 31
0.0
  0
LINE
  5
6ED
  8
0
 10
174.07398931392299
 20
44.236986568982331
 30
0.0
 11
174.32798931392301
 21
43.982986568982312
 31
0.0
  0
LINE
  5
6EE
  8
0
 10
219.07516369996219
 20
92.328530272182377
 30
0.0
 11
217.80665911226211
 21
92.328530272182377
 31
0.0
  0
LINE
  5
6EF
  8
0
 10
217.80665911226211
 20
92.328530272182377
 30
0.0
 11
217.80665911226211
 21
95.195726222382334
 31
0.0
  0
LINE
  5
6F0
  8
0
 10
219.07516369996219
 20
92.328530272182377
 30
0.0
 11
219.07516369996219
 21
95.195726222382334
 31
0.0
  0
LINE
  5
6F1
  8
0
 10
217.80665911226211
 20
77.986974991282352
 30
0.0
 11
217.80665911226211
 21
80.854147741982388
 31
0.0
  0
LINE
  5
6F2
  8
0
 10
219.07516369996219
 20
77.986974991282352
 30
0.0
 11
219.07516369996219
 21
80.854147741982388
 31
0.0
  0
LINE
  5
6F3
  8
0
 10
217.80665911226211
 20
80.877660594582366
 30
0.0
 11
217.80665911226211
 21
92.305010125882333
 31
0.0
  0
LINE
  5
6F4
  8
0
 10
219.07516369996219
 20
80.877660594582366
 30
0.0
 11
219.07516369996219
 21
92.305010125882333
 31
0.0
  0
LINE
  5
6F5
  8
0
 10
217.80665911226211
 20
92.305010125882333
 30
0.0
 11
217.80665911226211
 21
92.328530272182377
 31
0.0
  0
ARC
  5
6F6
  8
0
 10
217.80664745036219
 20
92.620463361182374
 30
0.0
 40
0.2919330891886051
 50
265.86235864789808
 51
270.00228881339899
  0
ARC
  5
6F7
  8
0
 10
217.7994468599623
 20
92.576786777982363
 30
0.0
 40
0.2478835710991571
 50
236.59537239359781
 51
266.79399485450222
  0
ARC
  5
6F8
  8
0
 10
219.0823759522622
 20
92.576786777982363
 30
0.0
 40
0.2478835710994546
 50
273.20600514530332
 51
303.40462760639889
  0
ARC
  5
6F9
  8
0
 10
219.07517536186231
 20
92.620463361182374
 30
0.0
 40
0.2919330892041092
 50
269.99771118660118
 51
274.1376413517981
  0
LINE
  5
6FA
  8
0
 10
219.07516369996219
 20
92.305010125882333
 30
0.0
 11
219.07516369996219
 21
92.328530272182377
 31
0.0
  0
POLYLINE
  5
6FB
  8
0
 66
     1
 10
0.0
 20
0.0
 30
0.0
 70
   128
  0
VERTEX
  5
91B
  8
0
 10
217.17000140756821
 20
87.895217300882337
 30
0.0
  0
VERTEX
  5
91C
  8
0
 10
217.17007421546819
 20
86.594257784582325
 30
0.0
  0
VERTEX
  5
91D
  8
0
 10
217.17000140756821
 20
85.287483928382358
 30
0.0
  0
SEQEND
  5
91E
  8
0
  0
ARC
  5
6FC
  8
0
 10
213.90613994456831
 20
85.229802333582384
 30
0.0
 40
3.264371121117982
 50
325.37343996189929
 51
1.0124718723005619
  0
ARC
  5
6FD
  8
0
 10
213.8652328797682
 20
87.940544352282359
 30
0.0
 40
3.3050793582275659
 50
359.21420036230001
 51
34.399161726000123
  0
POLYLINE
  5
6FE
  8
0
 66
     1
 10
0.0
 20
0.0
 30
0.0
 70
   128
  0
VERTEX
  5
91F
  8
0
 10
216.59198044406239
 20
83.371324954690394
 30
0.0
  0
VERTEX
  5
920
  8
0
 10
216.5919804440621
 20
82.279758056082358
 30
0.0
  0
VERTEX
  5
921
  8
0
 10
216.59198044406239
 20
81.214097088982385
 30
0.0
  0
SEQEND
  5
922
  8
0
  0
ARC
  5
6FF
  8
0
 10
218.89416901056819
 20
87.390812212682363
 30
0.0
 40
4.6327564851552543
 50
237.56214113379869
 51
240.20243387507699
  0
ARC
  5
700
  8
0
 10
218.90494794766821
 20
85.773639046082394
 30
0.0
 40
4.6540620021752481
 50
119.8108498798003
 51
122.42839229709971
  0
POLYLINE
  5
701
  8
0
 66
     1
 10
0.0
 20
0.0
 30
0.0
 70
   128
  0
VERTEX
  5
923
  8
0
 10
216.59233383136819
 20
92.000120965282349
 30
0.0
  0
VERTEX
  5
924
  8
0
 10
216.59232982466821
 20
90.919033466682322
 30
0.0
  0
VERTEX
  5
925
  8
0
 10
216.5923258179682
 20
89.815473277182363
 30
0.0
  0
SEQEND
  5
926
  8
0
  0
LINE
  5
702
  8
0
 10
216.6832628849622
 20
93.050076195682379
 30
0.0
 11
217.66297501436219
 21
92.369852729982384
 31
0.0
  0
POLYLINE
  5
703
  8
0
 66
     1
 10
0.0
 20
0.0
 30
0.0
 70
   128
  0
VERTEX
  5
927
  8
0
 10
216.59197649566221
 20
81.214097088982385
 30
0.0
  0
VERTEX
  5
928
  8
0
 10
216.5883588091622
 20
80.957499235582347
 30
0.0
  0
VERTEX
  5
929
  8
0
 10
216.58842965576221
 20
80.686493219082365
 30
0.0
  0
SEQEND
  5
92A
  8
0
  0
LINE
  5
704
  8
0
 10
216.58847300476219
 20
80.686537706682373
 30
0.0
 11
216.40884743636221
 21
80.900056068382355
 31
0.0
  0
LINE
  5
705
  8
0
 10
216.40891133326221
 20
77.320350614682354
 30
0.0
 11
216.40891133326221
 21
95.862350614582297
 31
0.0
  0
POLYLINE
  5
706
  8
0
 66
     1
 10
0.0
 20
0.0
 30
0.0
 70
   128
  0
VERTEX
  5
92B
  8
0
 10
216.5884349432622
 20
80.686496810282378
 30
0.0
  0
VERTEX
  5
92C
  8
0
 10
216.6337734733622
 20
80.499658047682374
 30
0.0
  0
VERTEX
  5
92D
  8
0
 10
216.6629113332622
 20
80.318297962182314
 30
0.0
  0
SEQEND
  5
92E
  8
0
  0
POLYLINE
  5
707
  8
0
 66
     1
 10
0.0
 20
0.0
 30
0.0
 70
   128
  0
VERTEX
  5
92F
  8
0
 10
216.58876908616821
 20
92.496278258182372
 30
0.0
  0
VERTEX
  5
930
  8
0
 10
216.5887119037682
 20
92.241995572082374
 30
0.0
  0
VERTEX
  5
931
  8
0
 10
216.59233383136819
 20
92.000120965282349
 30
0.0
  0
SEQEND
  5
932
  8
0
  0
POLYLINE
  5
708
  8
0
 66
     1
 10
0.0
 20
0.0
 30
0.0
 70
   128
  0
VERTEX
  5
933
  8
0
 10
216.6632298798682
 20
92.864405127382383
 30
0.0
  0
VERTEX
  5
934
  8
0
 10
216.63473648656819
 20
92.686212354782356
 30
0.0
  0
VERTEX
  5
935
  8
0
 10
216.5887731035682
 20
92.49627552968235
 30
0.0
  0
SEQEND
  5
936
  8
0
  0
LINE
  5
709
  8
0
 10
220.19856007056219
 20
93.050076195682379
 30
0.0
 11
219.2188477978622
 21
92.369852729982384
 31
0.0
  0
LINE
  5
70A
  8
0
 10
225.9339113332621
 20
95.862350614582397
 30
0.0
 11
225.93391133326219
 21
77.320350614582367
 31
0.0
  0
LINE
  5
70B
  8
0
 10
225.6799113332622
 20
77.066350614582348
 30
0.0
 11
225.67991133326211
 21
96.116350614582373
 31
0.0
  0
LINE
  5
70C
  8
0
 10
216.6629113332622
 20
80.318297962182314
 30
0.0
 11
216.68354548166221
 21
80.154806539982374
 31
0.0
  0
LINE
  5
70D
  8
0
 10
216.6629113332622
 20
80.318297962182314
 30
0.0
 11
216.6629113332622
 21
77.066350614582348
 31
0.0
  0
LINE
  5
70E
  8
0
 10
216.6629113332622
 20
96.116350614582373
 30
0.0
 11
216.6629113332622
 21
92.864405127382383
 31
0.0
  0
LINE
  5
70F
  8
0
 10
216.6835814315682
 20
93.050076195682379
 30
0.0
 11
216.6632298798682
 21
92.864405127382383
 31
0.0
  0
ARC
  5
710
  8
0
 10
219.27260964836219
 20
93.118943312082365
 30
0.0
 40
2.590262407752292
 50
128.41972877820041
 51
181.52349820319941
  0
ARC
  5
711
  8
0
 10
217.80181514276219
 20
94.968802973882347
 30
0.0
 40
0.2269749430588248
 50
88.777133375900846
 51
127.7123840344015
  0
LINE
  5
712
  8
0
 10
217.80665911226211
 20
95.195726222382334
 30
0.0
 11
219.07516369996219
 21
95.195726222382334
 31
0.0
  0
ARC
  5
713
  8
0
 10
219.0780959147622
 20
94.963003611682325
 30
0.0
 40
0.2327410824186639
 50
52.788616133798449
 51
90.721866455797738
  0
ARC
  5
714
  8
0
 10
217.60921324946219
 20
93.118943322482323
 30
0.0
 40
2.5902624656271378
 50
358.47650159989922
 51
51.580271984000369
  0
ARC
  5
715
  8
0
 10
222.14981766376221
 20
93.381664581682344
 30
0.0
 40
1.9792314298034941
 50
189.64446638349989
 51
231.63602917139849
  0
ARC
  5
716
  8
0
 10
222.39717941816221
 20
79.667632538882344
 30
0.0
 40
2.2522229614790659
 50
128.91133955219971
 51
167.50771981229971
  0
ARC
  5
717
  8
0
 10
217.60754536406219
 20
80.065020475082335
 30
0.0
 40
2.5922874844513402
 50
308.43128125460021
 51
1.9848846743990221
  0
ARC
  5
718
  8
0
 10
219.08000745696219
 20
78.213895517682374
 30
0.0
 40
0.2269722169785504
 50
268.77717234510169
 51
307.7129839571985
  0
LINE
  5
719
  8
0
 10
219.07516369996219
 20
77.986974991282352
 30
0.0
 11
217.80665911226211
 21
77.986974991282352
 31
0.0
  0
ARC
  5
71A
  8
0
 10
217.80372695806221
 20
78.219694310382351
 30
0.0
 40
0.2327377902751444
 50
232.78798195819931
 51
270.72186173950018
  0
ARC
  5
71B
  8
0
 10
219.2742775354622
 20
80.065020486182334
 30
0.0
 40
2.5922874281029551
 50
178.01511552760019
 51
231.5687179640999
  0
ARC
  5
71C
  8
0
 10
216.0652373663622
 20
86.596262350182371
 30
0.0
 40
7.1394688353681204
 50
313.53094521220038
 51
47.141886640400102
  0
LINE
  5
71D
  8
0
 10
216.40891133326221
 20
77.320350614681857
 30
0.0
 11
216.6629113332622
 21
77.066350614582348
 31
0.0
  0
LINE
  5
71E
  8
0
 10
216.6629113332622
 20
96.116350614582373
 30
0.0
 11
216.40891133326221
 21
95.862350614582297
 31
0.0
  0
LINE
  5
71F
  8
0
 10
225.93391133326219
 20
95.862350614582397
 30
0.0
 11
225.6799113332622
 21
96.116350614582373
 31
0.0
  0
LINE
  5
720
  8
0
 10
225.6799113332622
 20
77.066350614582348
 30
0.0
 11
225.93391133326219
 21
77.320350614582367
 31
0.0
  0
LINE
  5
721
  8
0
 10
216.6632298798682
 20
77.066350614582348
 30
0.0
 11
225.6799113332622
 21
77.066350614582348
 31
0.0
  0
LINE
  5
722
  8
0
 10
225.67991133326211
 20
96.116350614582373
 30
0.0
 11
216.6632298798682
 21
96.116350614582373
 31
0.0
  0
LINE
  5
723
  8
0
 10
191.55414306282299
 20
91.829781088682395
 30
0.0
 11
190.94314747212289
 21
92.000999240782392
 31
0.0
  0
LINE
  5
724
  8
0
 10
175.64383556502301
 20
81.352920140582398
 30
0.0
 11
176.2520220939229
 21
81.182580254382401
 31
0.0
  0
LINE
  5
725
  8
0
 10
175.59998318332291
 20
91.762571546182414
 30
0.0
 11
176.26410429692291
 21
91.969427396582432
 31
0.0
  0
LINE
  5
726
  8
0
 10
191.59799544452289
 20
81.420129682982406
 30
0.0
 11
190.94015103002289
 21
81.215110050582382
 31
0.0
  0
POLYLINE
  5
727
  8
0
 66
     1
 10
0.0
 20
0.0
 30
0.0
 70
   128
  0
VERTEX
  5
937
  8
0
 10
176.43139473282301
 20
80.318296101782437
 30
0.0
  0
VERTEX
  5
938
  8
0
 10
176.3163868877229
 20
80.496488874482395
 30
0.0
  0
VERTEX
  5
939
  8
0
 10
176.2202602029229
 20
80.686412476382429
 30
0.0
  0
SEQEND
  5
93A
  8
0
  0
LINE
  5
728
  8
0
 10
176.2202602029229
 20
80.686412476382429
 30
0.0
 11
176.28052739372291
 21
80.900072573382431
 31
0.0
  0
LINE
  5
729
  8
0
 10
190.94015103002289
 20
81.215110050582382
 30
0.0
 11
190.86878048512301
 21
81.194979692082427
 31
0.0
  0
LINE
  5
72A
  8
0
 10
190.94314747212289
 20
92.000999240782392
 30
0.0
 11
190.872468927623
 21
92.022780517182412
 31
0.0
  0
LINE
  5
72B
  8
0
 10
176.33530177862289
 20
91.989508373382435
 30
0.0
 11
176.26410429692291
 21
91.969427396582432
 31
0.0
  0
LINE
  5
72C
  8
0
 10
176.31946134372291
 20
81.161703104782418
 30
0.0
 11
176.2520220939229
 21
81.182580254382401
 31
0.0
  0
POLYLINE
  5
72D
  8
0
 66
     1
 10
0.0
 20
0.0
 30
0.0
 70
   128
  0
VERTEX
  5
93B
  8
0
 10
176.3363526513229
 20
91.98981603478245
 30
0.0
  0
VERTEX
  5
93C
  8
0
 10
176.6318078302229
 20
90.851958030582395
 30
0.0
  0
VERTEX
  5
93D
  8
0
 10
176.85602237842289
 20
89.701052871482432
 30
0.0
  0
SEQEND
  5
93E
  8
0
  0
ARC
  5
72E
  8
0
 10
174.4038098973229
 20
87.683550614582416
 30
0.0
 40
3.1749999999999989
 50
3.82255408320083
 51
39.430232178900582
  0
ARC
  5
72F
  8
0
 10
158.05725862392291
 20
86.591350614582382
 30
0.0
 40
19.557998485440901
 50
356.17744591679912
 51
3.8225540832009068
  0
ARC
  5
730
  8
0
 10
174.4038098973229
 20
85.499150614582447
 30
0.0
 40
3.174999999999998
 50
320.56893585110009
 51
356.17744591679917
  0
POLYLINE
  5
731
  8
0
 66
     1
 10
0.0
 20
0.0
 30
0.0
 70
   128
  0
VERTEX
  5
93F
  8
0
 10
176.85598332302291
 20
83.481552980482434
 30
0.0
  0
VERTEX
  5
940
  8
0
 10
176.62793864922301
 20
82.313893733782436
 30
0.0
  0
VERTEX
  5
941
  8
0
 10
176.31946134372291
 20
81.161703104782418
 30
0.0
  0
SEQEND
  5
942
  8
0
  0
LINE
  5
732
  8
0
 10
176.31946134372291
 20
81.161703104782418
 30
0.0
 11
176.28050855142291
 21
80.90012678608241
 31
0.0
  0
LINE
  5
733
  8
0
 10
190.9174441608229
 20
80.900126617882393
 30
0.0
 11
190.86878048512301
 21
81.194979692082427
 31
0.0
  0
POLYLINE
  5
734
  8
0
 66
     1
 10
0.0
 20
0.0
 30
0.0
 70
   128
  0
VERTEX
  5
943
  8
0
 10
190.86878048512301
 20
81.194979692082427
 30
0.0
  0
VERTEX
  5
944
  8
0
 10
190.5661707976229
 20
82.330743198682399
 30
0.0
  0
VERTEX
  5
945
  8
0
 10
190.34195624942291
 20
83.481648357682445
 30
0.0
  0
SEQEND
  5
946
  8
0
  0
ARC
  5
735
  8
0
 10
192.7941687305229
 20
85.499150614582447
 30
0.0
 40
3.1749999999999861
 50
183.8225540832008
 51
219.43023217880051
  0
ARC
  5
736
  8
0
 10
209.14072000392289
 20
86.591350614582382
 30
0.0
 40
19.557998485440891
 50
176.17744591679909
 51
183.8225540832008
  0
ARC
  5
737
  8
0
 10
192.7941687305229
 20
87.683550614582416
 30
0.0
 40
3.1749999999999989
 50
140.56893585110009
 51
176.1774459167992
  0
POLYLINE
  5
738
  8
0
 66
     1
 10
0.0
 20
0.0
 30
0.0
 70
   128
  0
VERTEX
  5
947
  8
0
 10
190.341995304823
 20
89.701148248682387
 30
0.0
  0
VERTEX
  5
948
  8
0
 10
190.57003997862299
 20
90.868807495382427
 30
0.0
  0
VERTEX
  5
949
  8
0
 10
190.87142844142289
 20
92.023087159982424
 30
0.0
  0
SEQEND
  5
94A
  8
0
  0
LINE
  5
739
  8
0
 10
190.87851728412289
 20
92.020998124382388
 30
0.0
 11
190.91747007642289
 21
92.282574443182455
 31
0.0
  0
LINE
  5
73A
  8
0
 10
176.28052739372291
 20
92.282628655782332
 30
0.0
 11
176.32919814272299
 21
91.987721537082379
 31
0.0
  0
LINE
  5
73B
  8
2
 10
179.3489893139228
 20
52.707986568982328
 30
0.0
 11
187.848989313923
 21
52.707986568982328
 31
0.0
  0
LINE
  5
73C
  8
0
 10
225.93355320653259
 20
89.091350614582197
 30
0.0
 11
231.0339113332621
 21
89.091350614582197
 31
0.0
  0
LINE
  5
73D
  8
3
 10
225.93355320653259
 20
88.658350614582389
 30
0.0
 11
231.46691133326189
 21
88.658350614582389
 31
0.0
  0
LINE
  5
73E
  8
0
 10
231.93391133326219
 20
88.191350614582234
 30
0.0
 11
231.93391133326219
 21
84.991350614582245
 31
0.0
  0
LINE
  5
73F
  8
0
 10
231.03391133326221
 20
89.091350614582268
 30
0.0
 11
231.93391133326219
 21
88.191350614582234
 31
0.0
  0
LINE
  5
740
  8
0
 10
231.0339113332621
 20
89.091350614582268
 30
0.0
 11
231.0339113332621
 21
84.091350614582268
 31
0.0
  0
LINE
  5
741
  8
3
 10
225.93355320653259
 20
84.524350614581934
 30
0.0
 11
231.46691133326189
 21
84.524350614581977
 31
0.0
  0
LINE
  5
742
  8
0
 10
225.93355320653259
 20
84.091350614582197
 30
0.0
 11
231.0339113332621
 21
84.091350614582197
 31
0.0
  0
LINE
  5
743
  8
0
 10
231.93391133326219
 20
84.991350614582245
 30
0.0
 11
231.03391133326221
 21
84.091350614582268
 31
0.0
  0
LINE
  5
744
  8
1
 10
236.93391133326219
 20
86.59135061458224
 30
0.0
 11
211.40891133326221
 21
86.591350614582268
 31
0.0
  0
LINE
  5
745
  8
2
 10
221.9089113332621
 20
90.841350614582254
 30
0.0
 11
221.9089113332621
 21
82.341350614582268
 31
0.0
  0
LINE
  5
746
  8
2
 10
224.30855320653259
 20
88.658350614582446
 30
0.0
 11
225.93355320653271
 21
88.658350614582446
 31
0.0
  0
LINE
  5
747
  8
2
 10
221.9089113332621
 20
89.091350614582268
 30
0.0
 11
225.93355320653271
 21
89.091350614582268
 31
0.0
  0
LINE
  5
748
  8
2
 10
224.30855320653259
 20
89.091350614582268
 30
0.0
 11
224.30855320653259
 21
84.091350614582268
 31
0.0
  0
LINE
  5
749
  8
2
 10
224.30855320653259
 20
88.658350614582446
 30
0.0
 11
223.55857520685569
 21
89.091350614582268
 31
0.0
  0
LINE
  5
74A
  8
2
 10
221.9089113332621
 20
84.091350614582268
 30
0.0
 11
225.93355320653271
 21
84.091350614582268
 31
0.0
  0
LINE
  5
74B
  8
2
 10
224.30855320653259
 20
84.524350614582033
 30
0.0
 11
225.93355320653271
 21
84.524350614582005
 31
0.0
  0
LINE
  5
74C
  8
2
 10
224.30855320653259
 20
84.524350614582076
 30
0.0
 11
223.55857520685569
 21
84.091350614582268
 31
0.0
  0
LINE
  5
74D
  8
2
 10
221.9089113332621
 20
82.341350614582268
 30
0.0
 11
217.20891133326219
 21
82.341350614582268
 31
0.0
  0
LINE
  5
74E
  8
2
 10
216.9089113332621
 20
82.860965856852886
 30
0.0
 11
216.9089113332621
 21
90.321735372311593
 31
0.0
  0
LINE
  5
74F
  8
2
 10
217.20891133326211
 20
82.341350614582268
 30
0.0
 11
216.9089113332621
 21
82.860965856852886
 31
0.0
  0
LINE
  5
750
  8
2
 10
217.20891133326219
 20
82.341350614582154
 30
0.0
 11
217.20891133326219
 21
90.841350614582254
 31
0.0
  0
LINE
  5
751
  8
2
 10
217.20891133326219
 20
90.841350614582254
 30
0.0
 11
221.9089113332621
 21
90.841350614582254
 31
0.0
  0
LINE
  5
752
  8
2
 10
217.20891133326219
 20
90.841350614582254
 30
0.0
 11
216.9089113332621
 21
90.321735372311593
 31
0.0
  0
TEXT
  5
7D4
  8
0
 62
     3
 10
0.0
 20
0.0
 30
0.0
 40
10.0
  1
MBVRG19
  7
STANDARD1
  0
ENDSEC
  0
EOF
