  0
SECTION
  2
HEADER
  9
$ACADVER
  1
AC1009
  9
$INSBASE
 10
0.0
 20
0.0
 30
0.0
  9
$EXTMIN
 10
0.0
 20
-2.960436562073669
 30
0.0
  9
$EXTMAX
 10
332.25897925550021
 20
218.9223431061985
 30
0.0
  9
$LIMMIN
 10
0.0
 20
0.0
  9
$LIMMAX
 10
375.0
 20
270.0
  9
$ORTHOMODE
 70
     1
  9
$REGENMODE
 70
     1
  9
$FILLMODE
 70
     1
  9
$QTEXTMODE
 70
     0
  9
$MIRRTEXT
 70
     0
  9
$DRAGMODE
 70
     2
  9
$LTSCALE
 40
10.0
  9
$OSMODE
 70
  3071
  9
$ATTMODE
 70
     1
  9
$TEXTSIZE
 40
0.2
  9
$TRACEWID
 40
0.05
  9
$TEXTSTYLE
  7
STANDARD
  9
$CLAYER
  8
0
  9
$CELTYPE
  6
BYLAYER
  9
$CECOLOR
 62
   256
  9
$DIMSCALE
 40
1.0
  9
$DIMASZ
 40
3.0
  9
$DIMEXO
 40
2.0
  9
$DIMDLI
 40
0.38
  9
$DIMRND
 40
0.0
  9
$DIMDLE
 40
0.0
  9
$DIMEXE
 40
2.0
  9
$DIMTP
 40
0.0
  9
$DIMTM
 40
0.0
  9
$DIMTXT
 40
3.2000000000000002
  9
$DIMCEN
 40
0.0
  9
$DIMTSZ
 40
0.0
  9
$DIMTOL
 70
     0
  9
$DIMLIM
 70
     0
  9
$DIMTIH
 70
     0
  9
$DIMTOH
 70
     0
  9
$DIMSE1
 70
     0
  9
$DIMSE2
 70
     0
  9
$DIMTAD
 70
     1
  9
$DIMZIN
 70
     0
  9
$DIMBLK
  1

  9
$DIMASO
 70
     1
  9
$DIMSHO
 70
     0
  9
$DIMPOST
  1

  9
$DIMAPOST
  1

  9
$DIMALT
 70
     0
  9
$DIMALTD
 70
     2
  9
$DIMALTF
 40
25.399999999999999
  9
$DIMLFAC
 40
1.0
  9
$DIMTOFL
 70
     1
  9
$DIMTVP
 40
1.6000000000000001
  9
$DIMTIX
 70
     1
  9
$DIMSOXD
 70
     0
  9
$DIMSAH
 70
     0
  9
$DIMBLK1
  1

  9
$DIMBLK2
  1

  9
$DIMSTYLE
  2
STANDARD
  9
$DIMCLRD
 70
     0
  9
$DIMCLRE
 70
     0
  9
$DIMCLRT
 70
     0
  9
$DIMTFAC
 40
1.0
  9
$DIMGAP
 40
0.09
  9
$LUNITS
 70
     2
  9
$LUPREC
 70
     4
  9
$SKETCHINC
 40
0.1
  9
$FILLETRAD
 40
0.0
  9
$AUNITS
 70
     0
  9
$AUPREC
 70
     4
  9
$MENU
  1
E:\r13\win\SUPPORT\ACAD
  9
$ELEVATION
 40
0.0
  9
$PELEVATION
 40
0.0
  9
$THICKNESS
 40
0.0
  9
$LIMCHECK
 70
     0
  9
$BLIPMODE
 70
     0
  9
$CHAMFERA
 40
0.0
  9
$CHAMFERB
 40
0.0
  9
$SKPOLY
 70
     0
  9
$TDCREATE
 40
2449840.6309259259
  9
$TDUPDATE
 40
2456597.6539024878
  9
$TDINDWG
 40
0.0009952894
  9
$TDUSRTIMER
 40
0.0009952894
  9
$USRTIMER
 70
     1
  9
$ANGBASE
 50
0.0
  9
$ANGDIR
 70
     0
  9
$PDMODE
 70
     0
  9
$PDSIZE
 40
0.0
  9
$PLINEWID
 40
0.0
  9
$COORDS
 70
     1
  9
$SPLFRAME
 70
     0
  9
$SPLINETYPE
 70
     6
  9
$SPLINESEGS
 70
     8
  9
$ATTDIA
 70
     0
  9
$ATTREQ
 70
     1
  9
$HANDLING
 70
     1
  9
$HANDSEED
  5
272
  9
$SURFTAB1
 70
     6
  9
$SURFTAB2
 70
     6
  9
$SURFTYPE
 70
     6
  9
$SURFU
 70
     6
  9
$SURFV
 70
     6
  9
$UCSNAME
  2

  9
$UCSORG
 10
0.0
 20
0.0
 30
0.0
  9
$UCSXDIR
 10
1.0
 20
0.0
 30
0.0
  9
$UCSYDIR
 10
0.0
 20
1.0
 30
0.0
  9
$PUCSNAME
  2

  9
$PUCSORG
 10
0.0
 20
0.0
 30
0.0
  9
$PUCSXDIR
 10
1.0
 20
0.0
 30
0.0
  9
$PUCSYDIR
 10
0.0
 20
1.0
 30
0.0
  9
$USERI1
 70
     0
  9
$USERI2
 70
     1
  9
$USERI3
 70
     1
  9
$USERI4
 70
     0
  9
$USERI5
 70
     0
  9
$USERR1
 40
0.0
  9
$USERR2
 40
0.0
  9
$USERR3
 40
0.0
  9
$USERR4
 40
0.0
  9
$USERR5
 40
0.0
  9
$WORLDVIEW
 70
     1
  9
$SHADEDGE
 70
     3
  9
$SHADEDIF
 70
    70
  9
$TILEMODE
 70
     1
  9
$MAXACTVP
 70
    16
  9
$PLIMCHECK
 70
     0
  9
$PEXTMIN
 10
1.0000000000000000E+020
 20
1.0000000000000000E+020
 30
1.0000000000000000E+020
  9
$PEXTMAX
 10
-1.0000000000000000E+020
 20
-1.0000000000000000E+020
 30
-1.0000000000000000E+020
  9
$PLIMMIN
 10
0.0
 20
0.0
  9
$PLIMMAX
 10
12.0
 20
9.0
  9
$UNITMODE
 70
     0
  9
$VISRETAIN
 70
     0
  9
$PLINEGEN
 70
     0
  9
$PSLTSCALE
 70
     0
  0
ENDSEC
  0
SECTION
  2
TABLES
  0
TABLE
  2
VPORT
 70
     1
  0
VPORT
  2
*ACTIVE
 70
     0
 10
0.0
 20
0.0
 11
1.0
 21
1.0
 12
187.49427839065231
 22
134.10366293909439
 13
0.0
 23
0.0
 14
10.0
 24
10.0
 15
10.0
 25
10.0
 16
0.0
 26
0.0
 36
1.0
 17
0.0
 27
0.0
 37
0.0
 40
277.29405978699532
 41
2.304913294797688
 42
50.0
 43
0.0
 44
0.0
 50
0.0
 51
0.0
 71
     0
 72
   500
 73
     1
 74
     0
 75
     0
 76
     0
 77
     0
 78
     2
  0
ENDTAB
  0
TABLE
  2
LTYPE
 70
     4
  0
LTYPE
  2
CONTINUOUS
 70
     0
  3
Solid Line
 72
    65
 73
     0
 40
0.0
  0
LTYPE
  2
CENTER
 70
     0
  3
____ _ ____ _ ____ _ ____ _ ____ _ ____ _ ____
 72
    65
 73
     4
 40
2.0
 49
1.25
 49
-0.25
 49
0.25
 49
-0.25
  0
LTYPE
  2
HIDDEN
 70
     0
  3
_ _ _ _ _ _ _ _ _ _ _ _ _ _ _ _ _ _ _ _ _ _ _
 72
    65
 73
     2
 40
0.375
 49
0.25
 49
-0.125
  0
LTYPE
  2
PHANTOM2
 70
     0
  3
___ _ _ ___ _ _ ___ _ _ ___ _ _
 72
    65
 73
     6
 40
1.25
 49
0.625
 49
-0.125
 49
0.125
 49
-0.125
 49
0.125
 49
-0.125
  0
ENDTAB
  0
TABLE
  2
LAYER
 70
     3
  0
LAYER
  2
0
 70
     0
 62
     7
  6
CONTINUOUS
  0
LAYER
  2
1
 70
     0
 62
     1
  6
CENTER
  0
LAYER
  2
2
 70
     0
 62
     2
  6
HIDDEN
  0
ENDTAB
  0
TABLE
  2
STYLE
 70
     2
  0
STYLE
  2
STANDARD
 70
     0
 40
0.0
 41
1.0
 50
0.0
 71
     0
 42
0.2
  3
TXT
  4
BIGFONT
  0
STYLE
  2
STANDARD1
 70
     0
 40
0.0
 41
1.0
 50
0.0
 71
     0
 42
3.0
  3
txt
  4

  0
ENDTAB
  0
TABLE
  2
VIEW
 70
     1
  0
VIEW
  2
ALL
 70
     0
 40
270.0
 10
220.99159663865549
 20
135.0
 41
0.0
 11
0.0
 21
0.0
 31
1.0
 12
0.0
 22
0.0
 32
0.0
 42
0.0
 43
0.0
 44
0.0
 50
0.0
 71
     0
  0
ENDTAB
  0
TABLE
  2
UCS
 70
     0
  0
ENDTAB
  0
TABLE
  2
APPID
 70
     3
  0
APPID
  2
ACAD
 70
     0
  0
APPID
  2
ACAD_MLEADERVER
 70
     0
  0
APPID
  2
ACAD_NAV_VCDISPLAY
 70
     0
  0
ENDTAB
  0
TABLE
  2
DIMSTYLE
 70
     1
  0
DIMSTYLE
  2
STANDARD
 70
     0
  3

  4

  5

  6

  7

 40
1.0
 41
0.18
 42
0.0625
 43
0.38
 44
0.18
 45
0.0
 46
0.0
 47
0.0
 48
0.0
140
0.18
141
0.09
142
0.0
143
25.399999999999999
144
1.0
145
0.0
146
1.0
147
0.09
 71
     0
 72
     0
 73
     1
 74
     1
 75
     0
 76
     0
 77
     0
 78
     0
170
     0
171
     2
172
     0
173
     0
174
     0
175
     0
176
     0
177
     0
178
     0
  0
ENDTAB
  0
ENDSEC
  0
SECTION
  2
BLOCKS
  0
BLOCK
  8
0
  2
$MODEL_SPACE
 70
     0
 10
0.0
 20
0.0
 30
0.0
  3
$MODEL_SPACE
  1

  0
ENDBLK
  5
FE
  8
0
  0
BLOCK
 67
     1
  8
0
  2
$PAPER_SPACE
 70
     0
 10
0.0
 20
0.0
 30
0.0
  3
$PAPER_SPACE
  1

  0
ENDBLK
  5
FC
 67
     1
  8
0
  0
ENDSEC
  0
SECTION
  2
ENTITIES
  0
ARC
  5
35
  8
1
 10
223.08457373060929
 20
99.026906499823767
 30
0.0
 40
25.0
 50
0.0
 51
90.0
  0
LINE
  5
36
  8
1
 10
161.08457373060929
 20
124.0269064998237
 30
0.0
 11
223.08457373060929
 21
124.0269064998237
 31
0.0
  0
ARC
  5
37
  8
1
 10
161.08457373060929
 20
99.026906499823767
 30
0.0
 40
25.0
 50
90.0
 51
179.99999999999989
  0
LINE
  5
38
  8
1
 10
248.08457373060929
 20
72.526906499823824
 30
0.0
 11
248.08457373060929
 21
99.026906499823767
 31
0.0
  0
ARC
  5
39
  8
0
 10
223.08457373060929
 20
99.026906499823767
 30
0.0
 40
16.5
 50
0.0
 51
90.0
  0
ARC
  5
3A
  8
0
 10
223.08457373060941
 20
99.026906499823824
 30
0.0
 40
33.5
 50
0.0
 51
89.999999999999943
  0
LINE
  5
3B
  8
1
 10
248.08457373060929
 20
182.9223431061985
 30
0.0
 11
248.08457373060929
 21
218.9223431061985
 31
0.0
  0
POLYLINE
  5
3C
  8
0
 66
     1
 10
0.0
 20
0.0
 30
0.0
  0
VERTEX
  5
3D
  8
0
 10
248.08457373060929
 20
213.92234310619841
 30
0.0
 42
-0.1421180172819938
  0
VERTEX
  5
3E
  8
0
 10
251.12782860641281
 20
213.0395093460385
 30
0.0
 42
-0.1071653171020898
  0
VERTEX
  5
3F
  8
0
 10
254.09498137069511
 20
210.1147312616236
 30
0.0
 42
-0.0788093491695219
 70
     2
 50
303.17851165939288
  0
VERTEX
  5
40
  8
0
 10
255.89559415414109
 20
206.10186635708379
 30
0.0
 42
-0.0662183044277984
  0
VERTEX
  5
41
  8
0
 10
256.58457373060929
 20
200.92234310619841
 30
0.0
 42
-0.0662183044277962
  0
VERTEX
  5
42
  8
0
 10
255.89559415414121
 20
195.742819855313
 30
0.0
 42
-0.0788093491695211
  0
VERTEX
  5
43
  8
0
 10
254.09498137069511
 20
191.7299549507733
 30
0.0
 42
-0.1071653171020929
 70
     2
 50
236.8214883406072
  0
VERTEX
  5
44
  8
0
 10
251.12782860641281
 20
188.80517686635829
 30
0.0
 42
-0.1421180172819953
  0
VERTEX
  5
45
  8
0
 10
248.08457373060929
 20
187.92234310619841
 30
0.0
 42
-0.1421180172819934
  0
SEQEND
  5
46
  8
0
  0
LINE
  5
47
  8
0
 10
256.58457373060929
 20
77.526906499823824
 30
0.0
 11
239.58457373060929
 21
77.526906499823824
 31
0.0
  0
LINE
  5
48
  8
0
 10
239.58457373060929
 20
77.526906499823824
 30
0.0
 11
239.58457373060929
 21
99.026906499823767
 31
0.0
  0
LINE
  5
49
  8
0
 10
256.58457373060941
 20
99.026906499823824
 30
0.0
 11
256.58457373060929
 21
77.526906499823824
 31
0.0
  0
ARC
  5
4A
  8
0
 10
161.08457373060929
 20
99.026906499823795
 30
0.0
 40
33.5
 50
90.0
 51
179.99999999999989
  0
ARC
  5
4B
  8
0
 10
161.08457373060929
 20
99.026906499823767
 30
0.0
 40
16.5
 50
90.0
 51
179.99999999999989
  0
LINE
  5
4C
  8
0
 10
161.08457373060929
 20
115.5269064998238
 30
0.0
 11
223.08457373060929
 21
115.5269064998238
 31
0.0
  0
LINE
  5
4D
  8
0
 10
161.08457373060929
 20
132.52690649982381
 30
0.0
 11
223.08457373060941
 21
132.52690649982381
 31
0.0
  0
POLYLINE
  5
4E
  8
0
 66
     1
 10
0.0
 20
0.0
 30
0.0
  0
VERTEX
  5
4F
  8
0
 10
136.08457373060929
 20
213.92234310619841
 30
0.0
 42
0.1421180172819938
 50
90.0
  0
VERTEX
  5
50
  8
0
 10
133.04131885480589
 20
213.0395093460385
 30
0.0
 42
0.1071653171020898
 50
90.0
  0
VERTEX
  5
51
  8
0
 10
130.07416609052359
 20
210.1147312616236
 30
0.0
 42
0.0788093491695219
 70
     2
 50
236.8214883406072
  0
VERTEX
  5
52
  8
0
 10
128.27355330707749
 20
206.10186635708379
 30
0.0
 42
0.0662183044277984
 50
236.8214883406072
  0
VERTEX
  5
53
  8
0
 10
127.58457373060931
 20
200.92234310619841
 30
0.0
 42
0.0662183044277962
 50
90.0
  0
VERTEX
  5
54
  8
0
 10
128.27355330707749
 20
195.742819855313
 30
0.0
 42
0.0788093491695211
 50
90.0
  0
VERTEX
  5
55
  8
0
 10
130.07416609052359
 20
191.7299549507733
 30
0.0
 42
0.1071653171020929
 70
     2
 50
303.17851165939283
  0
VERTEX
  5
56
  8
0
 10
133.04131885480589
 20
188.80517686635829
 30
0.0
 42
0.1421180172819953
 50
303.17851165939283
  0
VERTEX
  5
57
  8
0
 10
136.08457373060929
 20
187.92234310619841
 30
0.0
 42
0.1421180172819934
 50
90.0
  0
SEQEND
  5
58
  8
0
  0
POLYLINE
  5
59
  8
2
 66
     1
 10
0.0
 20
0.0
 30
0.0
  0
VERTEX
  5
5A
  8
2
 10
82.910168205718534
 20
124.0269064998238
 30
0.0
 42
-0.1421180172819938
  0
VERTEX
  5
5B
  8
2
 10
82.027334445558637
 20
120.9836516240203
 30
0.0
 42
-0.1071653171020898
  0
VERTEX
  5
5C
  8
2
 10
79.102556361143598
 20
118.01649885973811
 30
0.0
 42
-0.0788093491695219
 70
     2
 50
213.1785116593928
  0
VERTEX
  5
5D
  8
2
 10
75.089691456604015
 20
116.21588607629199
 30
0.0
 42
-0.0662183044277984
  0
VERTEX
  5
5E
  8
2
 10
69.91016820571852
 20
115.5269064998238
 30
0.0
 42
-0.0662183044277962
  0
VERTEX
  5
5F
  8
2
 10
64.730644954833124
 20
116.21588607629199
 30
0.0
 42
-0.0788093491695211
  0
VERTEX
  5
60
  8
2
 10
60.717780050293442
 20
118.01649885973811
 30
0.0
 42
-0.1071653171020929
 70
     2
 50
146.8214883406072
  0
VERTEX
  5
61
  8
2
 10
57.793001965878403
 20
120.9836516240203
 30
0.0
 42
-0.1421180172819953
  0
VERTEX
  5
62
  8
2
 10
56.91016820571852
 20
124.0269064998237
 30
0.0
 42
-0.1421180172819934
  0
SEQEND
  5
63
  8
2
  0
POLYLINE
  5
64
  8
0
 66
     1
 10
0.0
 20
0.0
 30
0.0
  0
VERTEX
  5
65
  8
0
 10
82.910168205718534
 20
124.0269064998237
 30
0.0
 42
0.1421180172819938
  0
VERTEX
  5
66
  8
0
 10
82.027334445558637
 20
127.07016137562719
 30
0.0
 42
0.1071653171020898
  0
VERTEX
  5
67
  8
0
 10
79.102556361143598
 20
130.0373141399094
 30
0.0
 42
0.0788093491695219
 70
     2
 50
146.82148834060709
  0
VERTEX
  5
68
  8
0
 10
75.089691456604015
 20
131.83792692335561
 30
0.0
 42
0.0662183044277984
 50
146.82148834060709
  0
VERTEX
  5
69
  8
0
 10
69.91016820571852
 20
132.52690649982381
 30
0.0
 42
0.0662183044277962
  0
VERTEX
  5
6A
  8
0
 10
64.730644954833124
 20
131.83792692335561
 30
0.0
 42
0.0788093491695211
  0
VERTEX
  5
6B
  8
0
 10
60.717780050293442
 20
130.0373141399094
 30
0.0
 42
0.1071653171020929
 70
     2
 50
213.1785116593928
  0
VERTEX
  5
6C
  8
0
 10
57.793001965878403
 20
127.07016137562719
 30
0.0
 42
0.1421180172819953
 50
213.1785116593928
  0
VERTEX
  5
6D
  8
0
 10
56.91016820571852
 20
124.0269064998237
 30
0.0
 42
0.1421180172819934
  0
SEQEND
  5
6E
  8
0
  0
LINE
  5
6F
  8
2
 10
139.40807373060929
 20
95.526906499823824
 30
0.0
 11
136.08457373060929
 21
97.445730119475613
 31
0.0
  0
LINE
  5
70
  8
2
 10
132.7610737306091
 20
95.526906499823824
 30
0.0
 11
136.08457373060929
 21
97.445730119475613
 31
0.0
  0
LINE
  5
71
  8
2
 10
132.7610737306091
 20
95.526906499823824
 30
0.0
 11
139.40807373060929
 21
95.526906499823824
 31
0.0
  0
LINE
  5
72
  8
2
 10
132.08457373060929
 20
91.526906499823824
 30
0.0
 11
140.08457373060929
 21
91.526906499823824
 31
0.0
  0
LINE
  5
73
  8
2
 10
132.76107373060921
 20
78.726906499823812
 30
0.0
 11
131.56107373060911
 21
77.526906499823824
 31
0.0
  0
LINE
  5
74
  8
2
 10
139.40807373060929
 20
78.726906499823812
 30
0.0
 11
132.76107373060921
 21
78.726906499823812
 31
0.0
  0
LINE
  5
75
  8
2
 10
140.60807373060939
 20
77.526906499823824
 30
0.0
 11
139.40807373060929
 21
78.726906499823812
 31
0.0
  0
LINE
  5
76
  8
2
 10
132.08457373060929
 20
78.050406499823893
 30
0.0
 11
132.08457373060929
 21
91.526906499823824
 31
0.0
  0
LINE
  5
77
  8
2
 10
132.76107373060921
 20
78.726906499823812
 30
0.0
 11
132.76107373060921
 21
95.526906499823824
 31
0.0
  0
LINE
  5
78
  8
2
 10
139.40807373060929
 20
78.726906499823812
 30
0.0
 11
139.40807373060929
 21
95.526906499823824
 31
0.0
  0
LINE
  5
79
  8
2
 10
140.08457373060929
 20
78.050406499823893
 30
0.0
 11
140.08457373060929
 21
91.526906499823824
 31
0.0
  0
LINE
  5
7A
  8
1
 10
136.08457373060929
 20
182.9223431061985
 30
0.0
 11
136.08457373060929
 21
218.9223431061985
 31
0.0
  0
LINE
  5
7B
  8
0
 10
248.08457373060929
 20
187.9223431061985
 30
0.0
 11
136.08457373060929
 21
187.9223431061985
 31
0.0
  0
LINE
  5
7C
  8
0
 10
136.08457373060929
 20
213.9223431061985
 30
0.0
 11
248.08457373060929
 21
213.9223431061985
 31
0.0
  0
LINE
  5
7D
  8
1
 10
264.58457373060929
 20
200.9223431061985
 30
0.0
 11
119.58457373060951
 21
200.9223431061985
 31
0.0
  0
LINE
  5
7E
  8
1
 10
51.91016820571852
 20
124.0269064998238
 30
0.0
 11
87.910168205718534
 21
124.0269064998238
 31
0.0
  0
LINE
  5
7F
  8
0
 10
56.91016820571852
 20
77.526906499823824
 30
0.0
 11
56.91016820571852
 21
124.0269064998237
 31
0.0
  0
LINE
  5
80
  8
0
 10
82.910168205718534
 20
77.526906499823824
 30
0.0
 11
82.910168205718534
 21
124.0269064998238
 31
0.0
  0
LINE
  5
81
  8
1
 10
136.08457373060929
 20
72.526906499823824
 30
0.0
 11
136.08457373060929
 21
99.026906499823767
 31
0.0
  0
LINE
  5
82
  8
0
 10
127.58457373060931
 20
77.526906499823824
 30
0.0
 11
144.58457373060929
 21
77.526906499823824
 31
0.0
  0
LINE
  5
83
  8
0
 10
144.58457373060929
 20
77.526906499823824
 30
0.0
 11
144.58457373060929
 21
99.026906499823767
 31
0.0
  0
LINE
  5
84
  8
0
 10
127.58457373060931
 20
99.026906499823795
 30
0.0
 11
127.58457373060931
 21
77.526906499823824
 31
0.0
  0
LINE
  5
85
  8
0
 10
56.91016820571852
 20
77.526906499823824
 30
0.0
 11
82.910168205718534
 21
77.526906499823824
 31
0.0
  0
LINE
  5
86
  8
1
 10
69.91016820571852
 20
67.526906499823824
 30
0.0
 11
69.91016820571852
 21
142.52690649982381
 31
0.0
  0
POLYLINE
  5
87
  8
2
 66
     1
 10
0.0
 20
0.0
 30
0.0
  0
VERTEX
  5
88
  8
2
 10
136.08457373060929
 20
213.92234310619841
 30
0.0
 42
-0.1421180172819938
  0
VERTEX
  5
89
  8
2
 10
139.12782860641269
 20
213.0395093460385
 30
0.0
 42
-0.1071653171020898
  0
VERTEX
  5
8A
  8
2
 10
142.09498137069491
 20
210.1147312616236
 30
0.0
 42
-0.0788093491695219
 70
     2
 50
303.17851165939288
  0
VERTEX
  5
8B
  8
2
 10
143.89559415414101
 20
206.10186635708379
 30
0.0
 42
-0.0662183044277984
  0
VERTEX
  5
8C
  8
2
 10
144.58457373060929
 20
200.92234310619841
 30
0.0
 42
-0.0662183044277962
  0
VERTEX
  5
8D
  8
2
 10
143.89559415414101
 20
195.742819855313
 30
0.0
 42
-0.0788093491695211
  0
VERTEX
  5
8E
  8
2
 10
142.09498137069491
 20
191.7299549507733
 30
0.0
 42
-0.1071653171020929
 70
     2
 50
236.8214883406072
  0
VERTEX
  5
8F
  8
2
 10
139.12782860641269
 20
188.80517686635829
 30
0.0
 42
-0.1421180172819953
  0
VERTEX
  5
90
  8
2
 10
136.08457373060929
 20
187.92234310619841
 30
0.0
 42
-0.1421180172819934
  0
SEQEND
  5
91
  8
2
  0
POLYLINE
  5
92
  8
2
 66
     1
 10
0.0
 20
0.0
 30
0.0
  0
VERTEX
  5
93
  8
2
 10
248.08457373060929
 20
213.92234310619841
 30
0.0
 42
0.1421180172819938
  0
VERTEX
  5
94
  8
2
 10
245.04131885480581
 20
213.0395093460385
 30
0.0
 42
0.1071653171020898
  0
VERTEX
  5
95
  8
2
 10
242.07416609052351
 20
210.1147312616236
 30
0.0
 42
0.0788093491695219
 70
     2
 50
236.8214883406072
  0
VERTEX
  5
96
  8
2
 10
240.27355330707749
 20
206.10186635708379
 30
0.0
 42
0.0662183044277984
  0
VERTEX
  5
97
  8
2
 10
239.58457373060929
 20
200.92234310619841
 30
0.0
 42
0.0662183044277962
  0
VERTEX
  5
98
  8
2
 10
240.27355330707741
 20
195.742819855313
 30
0.0
 42
0.0788093491695211
  0
VERTEX
  5
99
  8
2
 10
242.07416609052351
 20
191.7299549507733
 30
0.0
 42
0.1071653171020929
 70
     2
 50
303.17851165939283
  0
VERTEX
  5
9A
  8
2
 10
245.04131885480581
 20
188.80517686635829
 30
0.0
 42
0.1421180172819953
  0
VERTEX
  5
9B
  8
2
 10
248.08457373060929
 20
187.92234310619841
 30
0.0
 42
0.1421180172819934
  0
SEQEND
  5
9C
  8
2
  0
LINE
  5
9D
  8
2
 10
252.08457373060929
 20
78.050406499823893
 30
0.0
 11
252.08457373060929
 21
91.526906499823824
 31
0.0
  0
LINE
  5
9E
  8
2
 10
251.4080737306094
 20
78.726906499823812
 30
0.0
 11
251.4080737306094
 21
95.526906499823824
 31
0.0
  0
LINE
  5
9F
  8
2
 10
244.76107373060921
 20
78.726906499823812
 30
0.0
 11
244.76107373060921
 21
95.526906499823824
 31
0.0
  0
LINE
  5
A0
  8
2
 10
244.08457373060929
 20
78.050406499823893
 30
0.0
 11
244.08457373060929
 21
91.526906499823824
 31
0.0
  0
LINE
  5
A1
  8
2
 10
252.60807373060939
 20
77.526906499823824
 30
0.0
 11
251.4080737306094
 21
78.726906499823812
 31
0.0
  0
LINE
  5
A2
  8
2
 10
251.4080737306094
 20
78.726906499823812
 30
0.0
 11
244.76107373060921
 21
78.726906499823812
 31
0.0
  0
LINE
  5
A3
  8
2
 10
244.76107373060921
 20
78.726906499823812
 30
0.0
 11
243.56107373060919
 21
77.526906499823824
 31
0.0
  0
LINE
  5
A4
  8
2
 10
244.08457373060929
 20
91.526906499823824
 30
0.0
 11
252.08457373060929
 21
91.526906499823824
 31
0.0
  0
LINE
  5
A5
  8
2
 10
244.7610737306091
 20
95.526906499823824
 30
0.0
 11
251.4080737306094
 21
95.526906499823824
 31
0.0
  0
LINE
  5
A6
  8
2
 10
244.7610737306091
 20
95.526906499823824
 30
0.0
 11
248.08457373060929
 21
97.445730119475613
 31
0.0
  0
LINE
  5
A7
  8
2
 10
251.4080737306094
 20
95.526906499823824
 30
0.0
 11
248.08457373060929
 21
97.445730119475613
 31
0.0
  0
LINE
  5
A8
  8
1
 10
314.25897925550021
 20
67.526906499823824
 30
0.0
 11
314.25897925550021
 21
142.52690649982381
 31
0.0
  0
LINE
  5
A9
  8
0
 10
327.25897925550021
 20
77.526906499823824
 30
0.0
 11
301.25897925550021
 21
77.526906499823824
 31
0.0
  0
LINE
  5
AA
  8
0
 10
301.25897925550021
 20
77.526906499823824
 30
0.0
 11
301.25897925550021
 21
124.0269064998238
 31
0.0
  0
LINE
  5
AB
  8
0
 10
327.25897925550021
 20
77.526906499823824
 30
0.0
 11
327.25897925550021
 21
124.0269064998237
 31
0.0
  0
LINE
  5
AC
  8
1
 10
332.25897925550021
 20
124.0269064998238
 30
0.0
 11
296.25897925550021
 21
124.0269064998238
 31
0.0
  0
POLYLINE
  5
AD
  8
0
 66
     1
 10
0.0
 20
0.0
 30
0.0
  0
VERTEX
  5
AE
  8
0
 10
301.25897925550021
 20
124.0269064998237
 30
0.0
 42
-0.1421180172819938
  0
VERTEX
  5
AF
  8
0
 10
302.14181301566009
 20
127.07016137562719
 30
0.0
 42
-0.1071653171020898
  0
VERTEX
  5
B0
  8
0
 10
305.06659110007507
 20
130.0373141399094
 30
0.0
 42
-0.0788093491695219
 70
     2
 50
33.178511659392861
  0
VERTEX
  5
B1
  8
0
 10
309.07945600461471
 20
131.83792692335561
 30
0.0
 42
-0.0662183044277984
  0
VERTEX
  5
B2
  8
0
 10
314.25897925550021
 20
132.52690649982381
 30
0.0
 42
-0.0662183044277962
  0
VERTEX
  5
B3
  8
0
 10
319.43850250638559
 20
131.83792692335561
 30
0.0
 42
-0.0788093491695211
  0
VERTEX
  5
B4
  8
0
 10
323.45136741092529
 20
130.0373141399094
 30
0.0
 42
-0.1071653171020929
 70
     2
 50
326.82148834060717
  0
VERTEX
  5
B5
  8
0
 10
326.37614549534032
 20
127.07016137562719
 30
0.0
 42
-0.1421180172819953
  0
VERTEX
  5
B6
  8
0
 10
327.25897925550021
 20
124.0269064998237
 30
0.0
 42
-0.1421180172819934
  0
SEQEND
  5
B7
  8
0
  0
POLYLINE
  5
B8
  8
2
 66
     1
 10
0.0
 20
0.0
 30
0.0
  0
VERTEX
  5
B9
  8
2
 10
301.25897925550021
 20
124.0269064998238
 30
0.0
 42
0.1421180172819938
  0
VERTEX
  5
BA
  8
2
 10
302.14181301566009
 20
120.9836516240203
 30
0.0
 42
0.1071653171020898
  0
VERTEX
  5
BB
  8
2
 10
305.06659110007507
 20
118.01649885973811
 30
0.0
 42
0.0788093491695219
 70
     2
 50
326.82148834060717
  0
VERTEX
  5
BC
  8
2
 10
309.07945600461471
 20
116.21588607629199
 30
0.0
 42
0.0662183044277984
  0
VERTEX
  5
BD
  8
2
 10
314.25897925550021
 20
115.5269064998238
 30
0.0
 42
0.0662183044277962
  0
VERTEX
  5
BE
  8
2
 10
319.43850250638559
 20
116.21588607629199
 30
0.0
 42
0.0788093491695211
  0
VERTEX
  5
BF
  8
2
 10
323.45136741092529
 20
118.01649885973811
 30
0.0
 42
0.1071653171020929
 70
     2
 50
33.17851165939279
  0
VERTEX
  5
C0
  8
2
 10
326.37614549534032
 20
120.9836516240203
 30
0.0
 42
0.1421180172819953
  0
VERTEX
  5
C1
  8
2
 10
327.25897925550021
 20
124.0269064998237
 30
0.0
 42
0.1421180172819934
  0
SEQEND
  5
C2
  8
2
  0
TEXT
  5
20C
  8
0
 62
     3
 10
0.0
 20
0.0
 30
0.0
 40
10.0
  1
MH1-112N
  7
STANDARD1
  0
ENDSEC
  0
EOF
