  0
SECTION
  2
HEADER
  9
$ACADVER
  1
AC1009
  9
$INSBASE
 10
0.0
 20
0.0
 30
0.0
  9
$EXTMIN
 10
0.0
 20
-2.960436562073669
 30
0.0
  9
$EXTMAX
 10
197.99999992772729
 20
198.0000000475759
 30
0.0
  9
$LIMMIN
 10
0.0
 20
0.0
  9
$LIMMAX
 10
375.0
 20
270.0
  9
$ORTHOMODE
 70
     1
  9
$REGENMODE
 70
     1
  9
$FILLMODE
 70
     1
  9
$QTEXTMODE
 70
     0
  9
$MIRRTEXT
 70
     0
  9
$DRAGMODE
 70
     2
  9
$LTSCALE
 40
10.0
  9
$OSMODE
 70
    37
  9
$ATTMODE
 70
     1
  9
$TEXTSIZE
 40
4.0
  9
$TRACEWID
 40
0.05
  9
$TEXTSTYLE
  7
STANDARD
  9
$CLAYER
  8
0
  9
$CELTYPE
  6
BYLAYER
  9
$CECOLOR
 62
   256
  9
$DIMSCALE
 40
1.0
  9
$DIMASZ
 40
3.0
  9
$DIMEXO
 40
2.0
  9
$DIMDLI
 40
0.38
  9
$DIMRND
 40
0.0
  9
$DIMDLE
 40
0.0
  9
$DIMEXE
 40
2.0
  9
$DIMTP
 40
0.0
  9
$DIMTM
 40
0.0
  9
$DIMTXT
 40
3.2000000000000002
  9
$DIMCEN
 40
0.0
  9
$DIMTSZ
 40
0.0
  9
$DIMTOL
 70
     0
  9
$DIMLIM
 70
     0
  9
$DIMTIH
 70
     0
  9
$DIMTOH
 70
     0
  9
$DIMSE1
 70
     0
  9
$DIMSE2
 70
     0
  9
$DIMTAD
 70
     1
  9
$DIMZIN
 70
     0
  9
$DIMBLK
  1

  9
$DIMASO
 70
     1
  9
$DIMSHO
 70
     0
  9
$DIMPOST
  1

  9
$DIMAPOST
  1

  9
$DIMALT
 70
     0
  9
$DIMALTD
 70
     2
  9
$DIMALTF
 40
25.399999999999999
  9
$DIMLFAC
 40
1.0
  9
$DIMTOFL
 70
     0
  9
$DIMTVP
 40
1.6000000000000001
  9
$DIMTIX
 70
     1
  9
$DIMSOXD
 70
     0
  9
$DIMSAH
 70
     0
  9
$DIMBLK1
  1

  9
$DIMBLK2
  1

  9
$DIMSTYLE
  2
STANDARD
  9
$DIMCLRD
 70
     4
  9
$DIMCLRE
 70
     4
  9
$DIMCLRT
 70
     4
  9
$DIMTFAC
 40
1.0
  9
$DIMGAP
 40
0.09
  9
$LUNITS
 70
     2
  9
$LUPREC
 70
     1
  9
$SKETCHINC
 40
0.1
  9
$FILLETRAD
 40
0.0
  9
$AUNITS
 70
     0
  9
$AUPREC
 70
     0
  9
$MENU
  1
E:\r13\win\SUPPORT\ACAD
  9
$ELEVATION
 40
0.0
  9
$PELEVATION
 40
0.0
  9
$THICKNESS
 40
0.0
  9
$LIMCHECK
 70
     0
  9
$BLIPMODE
 70
     0
  9
$CHAMFERA
 40
3.0
  9
$CHAMFERB
 40
3.0
  9
$SKPOLY
 70
     0
  9
$TDCREATE
 40
2449930.691840278
  9
$TDUPDATE
 40
2458796.4468138311
  9
$TDINDWG
 40
0.0127316435
  9
$TDUSRTIMER
 40
0.0127316435
  9
$USRTIMER
 70
     1
  9
$ANGBASE
 50
0.0
  9
$ANGDIR
 70
     0
  9
$PDMODE
 70
     0
  9
$PDSIZE
 40
0.0
  9
$PLINEWID
 40
0.0
  9
$COORDS
 70
     1
  9
$SPLFRAME
 70
     0
  9
$SPLINETYPE
 70
     6
  9
$SPLINESEGS
 70
     8
  9
$ATTDIA
 70
     0
  9
$ATTREQ
 70
     1
  9
$HANDLING
 70
     1
  9
$HANDSEED
  5
3DF
  9
$SURFTAB1
 70
     6
  9
$SURFTAB2
 70
     6
  9
$SURFTYPE
 70
     6
  9
$SURFU
 70
     6
  9
$SURFV
 70
     6
  9
$UCSNAME
  2

  9
$UCSORG
 10
0.0
 20
0.0
 30
0.0
  9
$UCSXDIR
 10
1.0
 20
0.0
 30
0.0
  9
$UCSYDIR
 10
0.0
 20
1.0
 30
0.0
  9
$PUCSNAME
  2

  9
$PUCSORG
 10
0.0
 20
0.0
 30
0.0
  9
$PUCSXDIR
 10
1.0
 20
0.0
 30
0.0
  9
$PUCSYDIR
 10
0.0
 20
1.0
 30
0.0
  9
$USERI1
 70
     0
  9
$USERI2
 70
     1
  9
$USERI3
 70
     1
  9
$USERI4
 70
     0
  9
$USERI5
 70
     0
  9
$USERR1
 40
0.0
  9
$USERR2
 40
0.0
  9
$USERR3
 40
0.0
  9
$USERR4
 40
0.0
  9
$USERR5
 40
0.0
  9
$WORLDVIEW
 70
     1
  9
$SHADEDGE
 70
     3
  9
$SHADEDIF
 70
    70
  9
$TILEMODE
 70
     1
  9
$MAXACTVP
 70
    16
  9
$PLIMCHECK
 70
     0
  9
$PEXTMIN
 10
1.0000000000000000E+020
 20
1.0000000000000000E+020
 30
1.0000000000000000E+020
  9
$PEXTMAX
 10
-1.0000000000000000E+020
 20
-1.0000000000000000E+020
 30
-1.0000000000000000E+020
  9
$PLIMMIN
 10
0.0
 20
0.0
  9
$PLIMMAX
 10
12.0
 20
9.0
  9
$UNITMODE
 70
     0
  9
$VISRETAIN
 70
     0
  9
$PLINEGEN
 70
     0
  9
$PSLTSCALE
 70
     0
  0
ENDSEC
  0
SECTION
  2
TABLES
  0
TABLE
  2
VPORT
 70
     1
  0
VPORT
  2
*ACTIVE
 70
     0
 10
0.0
 20
0.0
 11
1.0
 21
1.0
 12
362.34662576687123
 22
150.0
 13
0.0
 23
0.0
 14
10.0
 24
10.0
 15
10.0
 25
10.0
 16
0.0
 26
0.0
 36
1.0
 17
0.0
 27
0.0
 37
0.0
 40
300.0
 41
2.415644171779141
 42
50.0
 43
0.0
 44
0.0
 50
0.0
 51
0.0
 71
     0
 72
   500
 73
     1
 74
     0
 75
     0
 76
     0
 77
     0
 78
     2
  0
ENDTAB
  0
TABLE
  2
LTYPE
 70
     4
  0
LTYPE
  2
CONTINUOUS
 70
     0
  3
Solid Line
 72
    65
 73
     0
 40
0.0
  0
LTYPE
  2
CENTER
 70
     0
  3
____ _ ____ _ ____ _ ____ _ ____ _ ____ _ ____
 72
    65
 73
     4
 40
2.0
 49
1.25
 49
-0.25
 49
0.25
 49
-0.25
  0
LTYPE
  2
HIDDEN
 70
     0
  3
_ _ _ _ _ _ _ _ _ _ _ _ _ _ _ _ _ _ _ _ _ _ _
 72
    65
 73
     2
 40
0.375
 49
0.25
 49
-0.125
  0
LTYPE
  2
PHANTOM2
 70
     0
  3
___ _ _ ___ _ _ ___ _ _ ___ _ _
 72
    65
 73
     6
 40
1.25
 49
0.625
 49
-0.125
 49
0.125
 49
-0.125
 49
0.125
 49
-0.125
  0
ENDTAB
  0
TABLE
  2
LAYER
 70
     4
  0
LAYER
  2
0
 70
     0
 62
     7
  6
CONTINUOUS
  0
LAYER
  2
1
 70
     0
 62
     1
  6
CENTER
  0
LAYER
  2
2
 70
     0
 62
     2
  6
HIDDEN
  0
LAYER
  2
DEFPOINTS
 70
     0
 62
     7
  6
CONTINUOUS
  0
ENDTAB
  0
TABLE
  2
STYLE
 70
     2
  0
STYLE
  2
STANDARD
 70
     0
 40
0.0
 41
1.0
 50
0.0
 71
     0
 42
4.0
  3
SIMPLEX
  4
BIGFONT
  0
STYLE
  2
STANDARD1
 70
     0
 40
0.0
 41
1.0
 50
0.0
 71
     0
 42
3.0
  3
txt
  4

  0
ENDTAB
  0
TABLE
  2
VIEW
 70
     1
  0
VIEW
  2
ALL
 70
     0
 40
270.0
 10
220.78595317725751
 20
135.0
 41
441.57190635451502
 11
0.0
 21
0.0
 31
1.0
 12
0.0
 22
0.0
 32
0.0
 42
50.0
 43
0.0
 44
0.0
 50
0.0
 71
     0
  0
ENDTAB
  0
TABLE
  2
UCS
 70
     0
  0
ENDTAB
  0
TABLE
  2
APPID
 70
     4
  0
APPID
  2
ACAD
 70
     0
  0
APPID
  2
ACAD_MLEADERVER
 70
     0
  0
APPID
  2
ACAD_EXEMPT_FROM_CAD_STANDARDS
 70
     0
  0
APPID
  2
ACAD_NAV_VCDISPLAY
 70
     0
  0
ENDTAB
  0
TABLE
  2
DIMSTYLE
 70
     1
  0
DIMSTYLE
  2
STANDARD
 70
     0
  3

  4

  5

  6

  7

 40
1.0
 41
0.18
 42
0.0625
 43
0.38
 44
0.18
 45
0.0
 46
0.0
 47
0.0
 48
0.0
140
0.18
141
0.09
142
0.0
143
25.399999999999999
144
1.0
145
0.0
146
1.0
147
0.09
 71
     0
 72
     0
 73
     1
 74
     1
 75
     0
 76
     0
 77
     0
 78
     0
170
     0
171
     2
172
     0
173
     0
174
     0
175
     0
176
     0
177
     0
178
     0
  0
ENDTAB
  0
ENDSEC
  0
SECTION
  2
BLOCKS
  0
BLOCK
  8
0
  2
$MODEL_SPACE
 70
     0
 10
0.0
 20
0.0
 30
0.0
  3
$MODEL_SPACE
  1

  0
ENDBLK
  5
AB
  8
0
  0
BLOCK
 67
     1
  8
0
  2
$PAPER_SPACE
 70
     0
 10
0.0
 20
0.0
 30
0.0
  3
$PAPER_SPACE
  1

  0
ENDBLK
  5
A9
 67
     1
  8
0
  0
ENDSEC
  0
SECTION
  2
ENTITIES
  0
LINE
  5
29
  8
0
 10
82.000000000000014
 20
106.9999999999999
 30
0.0
 11
82.000000000000014
 21
64.700000000000031
 31
0.0
  0
LINE
  5
2A
  8
0
 10
67.300000000000011
 20
50.0
 30
0.0
 11
50.0
 21
50.0
 31
0.0
  0
LINE
  5
2B
  8
0
 10
50.0
 20
50.0
 30
0.0
 11
50.0
 21
58.0
 31
0.0
  0
LINE
  5
2C
  8
0
 10
74.0
 20
106.9999999999999
 30
0.0
 11
74.0
 21
64.699999999999903
 31
0.0
  0
LINE
  5
2D
  8
0
 10
67.299999999999955
 20
57.999999999999893
 30
0.0
 11
50.0
 21
58.0
 31
0.0
  0
LINE
  5
2E
  8
1
 10
78.0
 20
115.9999999999999
 30
0.0
 11
78.0
 21
64.700000000000031
 31
0.0
  0
ARC
  5
2F
  8
0
 10
78.0
 20
106.9999999999999
 30
0.0
 40
4.0
 50
0.0
 51
180.0
  0
ARC
  5
30
  8
2
 10
78.0
 20
106.9999999999999
 30
0.0
 40
4.0
 50
180.0
 51
0.0
  0
LINE
  5
31
  8
1
 10
45.0
 20
54.0
 30
0.0
 11
67.299999999999955
 21
54.0
 31
0.0
  0
LINE
  5
32
  8
2
 10
58.0
 20
55.999999999999879
 30
0.0
 11
58.656447256069043
 21
55.62099999999964
 31
0.0
  0
LINE
  5
33
  8
2
 10
58.0
 20
52.0
 30
0.0
 11
58.656447256069043
 21
52.379000000000133
 31
0.0
  0
LINE
  5
34
  8
2
 10
59.999999999999893
 20
52.379000000000133
 30
0.0
 11
60.973995063443454
 21
54.0
 31
0.0
  0
LINE
  5
35
  8
2
 10
60.0
 20
55.62099999999964
 30
0.0
 11
60.973995063443454
 21
54.0
 31
0.0
  0
LINE
  5
36
  8
2
 10
60.0
 20
55.62099999999964
 30
0.0
 11
60.0
 21
52.379000000000133
 31
0.0
  0
LINE
  5
37
  8
2
 10
58.0
 20
56.0
 30
0.0
 11
58.0
 21
52.0
 31
0.0
  0
LINE
  5
38
  8
2
 10
50.800000000000011
 20
52.379000000000133
 30
0.0
 11
60.0
 21
52.379000000000133
 31
0.0
  0
LINE
  5
39
  8
2
 10
50.420999999999758
 20
52.0
 30
0.0
 11
58.0
 21
52.0
 31
0.0
  0
LINE
  5
3A
  8
2
 10
50.800000000000011
 20
55.62099999999964
 30
0.0
 11
60.0
 21
55.62099999999964
 31
0.0
  0
LINE
  5
3B
  8
2
 10
50.420999999999758
 20
56.0
 30
0.0
 11
58.0
 21
56.0
 31
0.0
  0
LINE
  5
3C
  8
2
 10
50.0
 20
51.579000000000178
 30
0.0
 11
50.800000000000011
 21
52.379000000000133
 31
0.0
  0
LINE
  5
3D
  8
2
 10
50.800000000000011
 20
52.379000000000133
 30
0.0
 11
50.800000000000011
 21
55.62099999999964
 31
0.0
  0
LINE
  5
3E
  8
2
 10
50.800000000000011
 20
55.62099999999964
 30
0.0
 11
50.0
 21
56.420999999999701
 31
0.0
  0
LINE
  5
3F
  8
0
 10
146.70000010954971
 20
111.0000001445447
 30
0.0
 11
188.9999999277274
 21
111.0
 31
0.0
  0
LINE
  5
40
  8
0
 10
132.0000000722724
 20
96.300000181822156
 30
0.0
 11
131.9999999277276
 21
54.000000000000043
 31
0.0
  0
LINE
  5
41
  8
0
 10
139.9999999277276
 20
96.300000161535181
 30
0.0
 11
139.9999999277276
 21
54.000000000000043
 31
0.0
  0
LINE
  5
42
  8
0
 10
146.6986083470392
 20
103.0000000000001
 30
0.0
 11
188.9999999277274
 21
102.9999999999999
 31
0.0
  0
LINE
  5
43
  8
1
 10
135.9999999277276
 20
45.000000000000057
 30
0.0
 11
135.99999992772749
 21
96.300000171678661
 31
0.0
  0
LINE
  5
44
  8
1
 10
197.99999992772729
 20
107.0
 30
0.0
 11
146.69824130633231
 21
107.0
 31
0.0
  0
ARC
  5
45
  8
0
 10
135.9999999277274
 20
54.0
 30
0.0
 40
4.0
 50
180.0
 51
0.0
  0
ARC
  5
46
  8
0
 10
188.99999992772749
 20
106.9999999999998
 30
0.0
 40
4.0
 50
270.0
 51
90.0
  0
ARC
  5
47
  8
2
 10
188.9999999277274
 20
106.9999999999999
 30
0.0
 40
4.0
 50
90.0
 51
270.0
  0
ARC
  5
48
  8
2
 10
135.99999992772749
 20
53.999999999999979
 30
0.0
 40
4.0
 50
0.0
 51
180.0
  0
LINE
  5
49
  8
1
 10
188.9999999277274
 20
97.999999999999986
 30
0.0
 11
188.9999999277274
 21
116.0
 31
0.0
  0
LINE
  5
4A
  8
1
 10
144.9999999277276
 20
54.000000000000043
 30
0.0
 11
126.9999999277276
 21
54.000000000000043
 31
0.0
  0
LINE
  5
4B
  8
1
 10
87.000000000000014
 20
106.9999999999999
 30
0.0
 11
45.0
 21
106.9999999999999
 31
0.0
  0
ARC
  5
4C
  8
0
 10
146.70000007227239
 20
96.300000144544811
 30
0.0
 40
14.699999999999999
 50
89.999999854704924
 51
179.9999998547049
  0
ARC
  5
4D
  8
0
 10
146.70000007227239
 20
96.300000144544811
 30
0.0
 40
6.6999999999999993
 50
89.999999854704924
 51
179.9999998547049
  0
ARC
  5
4E
  8
1
 10
146.70000007227239
 20
96.300000144544811
 30
0.0
 40
10.699999999999999
 50
89.999999854704924
 51
179.9999998547049
  0
ARC
  5
4F
  8
0
 10
67.300000000000011
 20
64.700000000000031
 30
0.0
 40
14.699999999999999
 50
270.0
 51
0.0
  0
ARC
  5
50
  8
1
 10
67.299999999999955
 20
64.700000000000031
 30
0.0
 40
10.699999999999999
 50
270.0
 51
0.0
  0
ARC
  5
51
  8
0
 10
67.299999999999955
 20
64.699999999999903
 30
0.0
 40
6.7000000000000002
 50
270.0
 51
0.0
  0
ARC
  5
60
  8
0
 10
178.29999992772761
 20
175.700000047576
 30
0.0
 40
6.7000000000000002
 50
270.0
 51
0.0
  0
ARC
  5
61
  8
1
 10
178.29999992772741
 20
175.700000047576
 30
0.0
 40
10.699999999999999
 50
270.0
 51
0.0
  0
ARC
  5
62
  8
0
 10
178.29999992772741
 20
175.70000004757591
 30
0.0
 40
14.699999999999999
 50
270.0
 51
0.0
  0
LINE
  5
63
  8
1
 10
135.99999992772749
 20
156.0000000475759
 30
0.0
 11
135.99999992772749
 21
198.0000000475759
 31
0.0
  0
LINE
  5
64
  8
2
 10
187.3789999277279
 20
192.20000004757591
 30
0.0
 11
186.57899992772781
 21
193.0000000475759
 31
0.0
  0
LINE
  5
65
  8
2
 10
190.62099992772741
 20
192.20000004757591
 30
0.0
 11
187.3789999277279
 21
192.20000004757591
 31
0.0
  0
LINE
  5
66
  8
2
 10
191.42099992772731
 20
193.0000000475759
 30
0.0
 11
190.62099992772741
 21
192.20000004757591
 31
0.0
  0
LINE
  5
67
  8
2
 10
186.99999992772749
 20
192.57900004757619
 30
0.0
 11
186.99999992772749
 21
185.0000000475759
 31
0.0
  0
LINE
  5
68
  8
2
 10
187.3789999277279
 20
192.20000004757591
 30
0.0
 11
187.3789999277279
 21
183.0000000475759
 31
0.0
  0
LINE
  5
69
  8
2
 10
190.99999992772749
 20
192.57900004757619
 30
0.0
 11
190.99999992772749
 21
185.0000000475759
 31
0.0
  0
LINE
  5
6A
  8
2
 10
190.62099992772741
 20
192.20000004757591
 30
0.0
 11
190.62099992772741
 21
183.0000000475759
 31
0.0
  0
LINE
  5
6B
  8
2
 10
186.99999992772749
 20
185.0000000475759
 30
0.0
 11
190.99999992772749
 21
185.0000000475759
 31
0.0
  0
LINE
  5
6C
  8
2
 10
187.3789999277279
 20
183.0000000475759
 30
0.0
 11
190.62099992772741
 21
183.0000000475759
 31
0.0
  0
LINE
  5
6D
  8
2
 10
187.3789999277279
 20
183.0000000475759
 30
0.0
 11
188.99999992772749
 21
182.0260049841325
 31
0.0
  0
LINE
  5
6E
  8
2
 10
190.62099992772741
 20
183.00000004757601
 30
0.0
 11
188.99999992772749
 21
182.0260049841325
 31
0.0
  0
LINE
  5
6F
  8
2
 10
190.99999992772749
 20
185.0000000475759
 30
0.0
 11
190.62099992772741
 21
184.34355279150691
 31
0.0
  0
LINE
  5
70
  8
2
 10
186.9999999277276
 20
185.0000000475759
 30
0.0
 11
187.3789999277279
 21
184.34355279150691
 31
0.0
  0
LINE
  5
71
  8
1
 10
188.99999992772749
 20
198.0000000475759
 30
0.0
 11
188.99999992772749
 21
175.700000047576
 31
0.0
  0
ARC
  5
72
  8
2
 10
135.99999992772749
 20
165.0000000475759
 30
0.0
 40
4.0
 50
270.0
 51
90.0
  0
ARC
  5
73
  8
0
 10
135.99999992772749
 20
165.0000000475759
 30
0.0
 40
4.0
 50
90.0
 51
270.0
  0
LINE
  5
74
  8
1
 10
126.9999999277275
 20
165.0000000475759
 30
0.0
 11
178.29999992772741
 21
165.0000000475759
 31
0.0
  0
LINE
  5
75
  8
0
 10
184.9999999277276
 20
175.700000047576
 30
0.0
 11
184.99999992772749
 21
193.0000000475759
 31
0.0
  0
LINE
  5
76
  8
0
 10
135.99999992772749
 20
169.0000000475759
 30
0.0
 11
178.29999992772761
 21
169.0000000475759
 31
0.0
  0
LINE
  5
77
  8
0
 10
192.99999992772749
 20
193.0000000475759
 30
0.0
 11
184.99999992772749
 21
193.0000000475759
 31
0.0
  0
LINE
  5
78
  8
0
 10
192.99999992772749
 20
175.70000004757591
 30
0.0
 11
192.99999992772749
 21
193.0000000475759
 31
0.0
  0
LINE
  5
79
  8
0
 10
135.99999992772749
 20
161.0000000475759
 30
0.0
 11
178.29999992772741
 21
161.0000000475759
 31
0.0
  0
TEXT
  5
197
  8
0
 62
     3
 10
0.0
 20
0.0
 30
0.0
 40
10.0
  1
MH12-75S
  7
STANDARD1
  0
LINE
  5
2E1
  8
0
 10
50.0
 20
111.0000000849987
 30
0.0
 11
78.0
 21
111.0000000849987
 31
0.0
  0
LINE
  5
2E2
  8
0
 10
50.0
 20
103.0
 30
0.0
 11
74.0
 21
103.0
 31
0.0
  0
LINE
  5
2E3
  8
0
 10
50.0
 20
111.0000000849987
 30
0.0
 11
50.0
 21
103.0
 31
0.0
  0
LINE
  5
2E6
  8
2
 10
58.0
 20
109.00000004249929
 30
0.0
 11
58.656447256069043
 21
108.62100004249901
 31
0.0
  0
LINE
  5
2E7
  8
2
 10
58.0
 20
105.00000004249939
 30
0.0
 11
58.656447256069043
 21
105.3790000424995
 31
0.0
  0
LINE
  5
2E8
  8
2
 10
59.999999999999893
 20
105.3790000424995
 30
0.0
 11
60.973995063443454
 21
107.00000004249939
 31
0.0
  0
LINE
  5
2E9
  8
2
 10
60.0
 20
108.62100004249901
 30
0.0
 11
60.973995063443454
 21
107.00000004249939
 31
0.0
  0
LINE
  5
2EA
  8
2
 10
60.0
 20
108.62100004249901
 30
0.0
 11
60.0
 21
105.3790000424995
 31
0.0
  0
LINE
  5
2EB
  8
2
 10
58.0
 20
109.00000004249939
 30
0.0
 11
58.0
 21
105.00000004249939
 31
0.0
  0
LINE
  5
2EC
  8
2
 10
50.800000000000011
 20
105.3790000424995
 30
0.0
 11
60.0
 21
105.3790000424995
 31
0.0
  0
LINE
  5
2ED
  8
2
 10
50.420999999999758
 20
105.00000004249939
 30
0.0
 11
58.0
 21
105.00000004249939
 31
0.0
  0
LINE
  5
2EE
  8
2
 10
50.800000000000011
 20
108.62100004249901
 30
0.0
 11
60.0
 21
108.62100004249901
 31
0.0
  0
LINE
  5
2EF
  8
2
 10
50.420999999999758
 20
109.00000004249939
 30
0.0
 11
58.0
 21
109.00000004249939
 31
0.0
  0
LINE
  5
2F0
  8
2
 10
50.0
 20
104.5790000424996
 30
0.0
 11
50.800000000000011
 21
105.3790000424995
 31
0.0
  0
LINE
  5
2F1
  8
2
 10
50.800000000000011
 20
105.3790000424995
 30
0.0
 11
50.800000000000011
 21
108.62100004249901
 31
0.0
  0
LINE
  5
2F2
  8
2
 10
50.800000000000011
 20
108.62100004249901
 30
0.0
 11
50.0
 21
109.4210000424991
 31
0.0
  0
LINE
  5
300
  8
0
 10
139.9999999277276
 20
193.0000000475759
 30
0.0
 11
139.9999999277276
 21
169.0000000475759
 31
0.0
  0
LINE
  5
301
  8
0
 10
132.0
 20
193.0000000475759
 30
0.0
 11
132.0
 21
165.0000000475759
 31
0.0
  0
LINE
  5
302
  8
0
 10
139.9999999277276
 20
193.0000000475759
 30
0.0
 11
132.0
 21
193.0000000475759
 31
0.0
  0
LINE
  5
304
  8
2
 10
134.3789999277279
 20
192.20000004757591
 30
0.0
 11
133.57899992772781
 21
193.0000000475759
 31
0.0
  0
LINE
  5
305
  8
2
 10
137.62099992772741
 20
192.20000004757591
 30
0.0
 11
134.3789999277279
 21
192.20000004757591
 31
0.0
  0
LINE
  5
306
  8
2
 10
138.42099992772739
 20
193.0000000475759
 30
0.0
 11
137.62099992772741
 21
192.20000004757591
 31
0.0
  0
LINE
  5
307
  8
2
 10
133.99999992772749
 20
192.57900004757619
 30
0.0
 11
133.99999992772749
 21
185.0000000475759
 31
0.0
  0
LINE
  5
308
  8
2
 10
134.3789999277279
 20
192.20000004757591
 30
0.0
 11
134.3789999277279
 21
183.0000000475759
 31
0.0
  0
LINE
  5
309
  8
2
 10
137.9999999277276
 20
192.57900004757619
 30
0.0
 11
137.9999999277276
 21
185.0000000475759
 31
0.0
  0
LINE
  5
30A
  8
2
 10
137.62099992772741
 20
192.20000004757591
 30
0.0
 11
137.62099992772741
 21
183.0000000475759
 31
0.0
  0
LINE
  5
30B
  8
2
 10
133.99999992772749
 20
185.0000000475759
 30
0.0
 11
137.9999999277276
 21
185.0000000475759
 31
0.0
  0
LINE
  5
30C
  8
2
 10
134.3789999277279
 20
183.0000000475759
 30
0.0
 11
137.62099992772741
 21
183.0000000475759
 31
0.0
  0
LINE
  5
30D
  8
2
 10
134.3789999277279
 20
183.0000000475759
 30
0.0
 11
135.99999992772749
 21
182.0260049841325
 31
0.0
  0
LINE
  5
30E
  8
2
 10
137.62099992772741
 20
183.00000004757601
 30
0.0
 11
135.99999992772749
 21
182.0260049841325
 31
0.0
  0
LINE
  5
30F
  8
2
 10
137.9999999277276
 20
185.0000000475759
 30
0.0
 11
137.62099992772741
 21
184.34355279150691
 31
0.0
  0
LINE
  5
310
  8
2
 10
133.99999992772771
 20
185.0000000475759
 30
0.0
 11
134.3789999277279
 21
184.34355279150691
 31
0.0
  0
ENDSEC
  0
EOF
