  0
SECTION
  2
HEADER
  9
$ACADVER
  1
AC1009
  9
$INSBASE
 10
0.0
 20
0.0
 30
0.0
  9
$EXTMIN
 10
0.0
 20
-2.960436562073669
 30
0.0
  9
$EXTMAX
 10
218.63961030678979
 20
218.6396103067899
 30
0.0
  9
$LIMMIN
 10
0.0
 20
0.0
  9
$LIMMAX
 10
375.0
 20
270.0
  9
$ORTHOMODE
 70
     1
  9
$REGENMODE
 70
     1
  9
$FILLMODE
 70
     1
  9
$QTEXTMODE
 70
     0
  9
$MIRRTEXT
 70
     0
  9
$DRAGMODE
 70
     2
  9
$LTSCALE
 40
10.0
  9
$OSMODE
 70
    37
  9
$ATTMODE
 70
     1
  9
$TEXTSIZE
 40
4.0
  9
$TRACEWID
 40
0.05
  9
$TEXTSTYLE
  7
STANDARD
  9
$CLAYER
  8
0
  9
$CELTYPE
  6
BYLAYER
  9
$CECOLOR
 62
   256
  9
$DIMSCALE
 40
1.0
  9
$DIMASZ
 40
3.0
  9
$DIMEXO
 40
2.0
  9
$DIMDLI
 40
0.38
  9
$DIMRND
 40
0.0
  9
$DIMDLE
 40
0.0
  9
$DIMEXE
 40
2.0
  9
$DIMTP
 40
0.0
  9
$DIMTM
 40
0.0
  9
$DIMTXT
 40
3.2000000000000002
  9
$DIMCEN
 40
0.0
  9
$DIMTSZ
 40
0.0
  9
$DIMTOL
 70
     0
  9
$DIMLIM
 70
     0
  9
$DIMTIH
 70
     0
  9
$DIMTOH
 70
     0
  9
$DIMSE1
 70
     0
  9
$DIMSE2
 70
     0
  9
$DIMTAD
 70
     1
  9
$DIMZIN
 70
     0
  9
$DIMBLK
  1

  9
$DIMASO
 70
     1
  9
$DIMSHO
 70
     0
  9
$DIMPOST
  1

  9
$DIMAPOST
  1

  9
$DIMALT
 70
     0
  9
$DIMALTD
 70
     2
  9
$DIMALTF
 40
25.399999999999999
  9
$DIMLFAC
 40
1.0
  9
$DIMTOFL
 70
     0
  9
$DIMTVP
 40
1.6000000000000001
  9
$DIMTIX
 70
     1
  9
$DIMSOXD
 70
     0
  9
$DIMSAH
 70
     0
  9
$DIMBLK1
  1

  9
$DIMBLK2
  1

  9
$DIMSTYLE
  2
STANDARD
  9
$DIMCLRD
 70
     4
  9
$DIMCLRE
 70
     4
  9
$DIMCLRT
 70
     4
  9
$DIMTFAC
 40
1.0
  9
$DIMGAP
 40
0.09
  9
$LUNITS
 70
     2
  9
$LUPREC
 70
     1
  9
$SKETCHINC
 40
0.1
  9
$FILLETRAD
 40
15.0
  9
$AUNITS
 70
     0
  9
$AUPREC
 70
     0
  9
$MENU
  1
E:\r13\win\SUPPORT\ACAD
  9
$ELEVATION
 40
0.0
  9
$PELEVATION
 40
0.0
  9
$THICKNESS
 40
0.0
  9
$LIMCHECK
 70
     0
  9
$BLIPMODE
 70
     0
  9
$CHAMFERA
 40
3.0
  9
$CHAMFERB
 40
3.0
  9
$SKPOLY
 70
     0
  9
$TDCREATE
 40
2449930.6939004632
  9
$TDUPDATE
 40
2458796.4468178698
  9
$TDINDWG
 40
0.0748014815
  9
$TDUSRTIMER
 40
0.0748014815
  9
$USRTIMER
 70
     1
  9
$ANGBASE
 50
0.0
  9
$ANGDIR
 70
     0
  9
$PDMODE
 70
     0
  9
$PDSIZE
 40
0.0
  9
$PLINEWID
 40
0.0
  9
$COORDS
 70
     1
  9
$SPLFRAME
 70
     0
  9
$SPLINETYPE
 70
     6
  9
$SPLINESEGS
 70
     8
  9
$ATTDIA
 70
     0
  9
$ATTREQ
 70
     1
  9
$HANDLING
 70
     1
  9
$HANDSEED
  5
C5C
  9
$SURFTAB1
 70
     6
  9
$SURFTAB2
 70
     6
  9
$SURFTYPE
 70
     6
  9
$SURFU
 70
     6
  9
$SURFV
 70
     6
  9
$UCSNAME
  2

  9
$UCSORG
 10
0.0
 20
0.0
 30
0.0
  9
$UCSXDIR
 10
1.0
 20
0.0
 30
0.0
  9
$UCSYDIR
 10
0.0
 20
1.0
 30
0.0
  9
$PUCSNAME
  2

  9
$PUCSORG
 10
0.0
 20
0.0
 30
0.0
  9
$PUCSXDIR
 10
1.0
 20
0.0
 30
0.0
  9
$PUCSYDIR
 10
0.0
 20
1.0
 30
0.0
  9
$USERI1
 70
     0
  9
$USERI2
 70
     1
  9
$USERI3
 70
     1
  9
$USERI4
 70
     0
  9
$USERI5
 70
     0
  9
$USERR1
 40
0.0
  9
$USERR2
 40
0.0
  9
$USERR3
 40
0.0
  9
$USERR4
 40
0.0
  9
$USERR5
 40
0.0
  9
$WORLDVIEW
 70
     1
  9
$SHADEDGE
 70
     3
  9
$SHADEDIF
 70
    70
  9
$TILEMODE
 70
     1
  9
$MAXACTVP
 70
    16
  9
$PLIMCHECK
 70
     0
  9
$PEXTMIN
 10
1.0000000000000000E+020
 20
1.0000000000000000E+020
 30
1.0000000000000000E+020
  9
$PEXTMAX
 10
-1.0000000000000000E+020
 20
-1.0000000000000000E+020
 30
-1.0000000000000000E+020
  9
$PLIMMIN
 10
0.0
 20
0.0
  9
$PLIMMAX
 10
12.0
 20
9.0
  9
$UNITMODE
 70
     0
  9
$VISRETAIN
 70
     0
  9
$PLINEGEN
 70
     0
  9
$PSLTSCALE
 70
     0
  0
ENDSEC
  0
SECTION
  2
TABLES
  0
TABLE
  2
VPORT
 70
     1
  0
VPORT
  2
*ACTIVE
 70
     0
 10
0.0
 20
0.0
 11
1.0
 21
1.0
 12
362.34662576687123
 22
150.0
 13
0.0
 23
0.0
 14
10.0
 24
10.0
 15
10.0
 25
10.0
 16
0.0
 26
0.0
 36
1.0
 17
0.0
 27
0.0
 37
0.0
 40
300.0
 41
2.415644171779141
 42
50.0
 43
0.0
 44
0.0
 50
0.0
 51
0.0
 71
     0
 72
   500
 73
     1
 74
     0
 75
     0
 76
     0
 77
     0
 78
     2
  0
ENDTAB
  0
TABLE
  2
LTYPE
 70
     4
  0
LTYPE
  2
CONTINUOUS
 70
     0
  3
Solid Line
 72
    65
 73
     0
 40
0.0
  0
LTYPE
  2
CENTER
 70
     0
  3
____ _ ____ _ ____ _ ____ _ ____ _ ____ _ ____
 72
    65
 73
     4
 40
2.0
 49
1.25
 49
-0.25
 49
0.25
 49
-0.25
  0
LTYPE
  2
HIDDEN
 70
     0
  3
_ _ _ _ _ _ _ _ _ _ _ _ _ _ _ _ _ _ _ _ _ _ _
 72
    65
 73
     2
 40
0.375
 49
0.25
 49
-0.125
  0
LTYPE
  2
PHANTOM2
 70
     0
  3
___ _ _ ___ _ _ ___ _ _ ___ _ _
 72
    65
 73
     6
 40
1.25
 49
0.625
 49
-0.125
 49
0.125
 49
-0.125
 49
0.125
 49
-0.125
  0
ENDTAB
  0
TABLE
  2
LAYER
 70
     4
  0
LAYER
  2
0
 70
     0
 62
     7
  6
CONTINUOUS
  0
LAYER
  2
1
 70
     0
 62
     1
  6
CENTER
  0
LAYER
  2
2
 70
     0
 62
     2
  6
HIDDEN
  0
LAYER
  2
DEFPOINTS
 70
     0
 62
     7
  6
CONTINUOUS
  0
ENDTAB
  0
TABLE
  2
STYLE
 70
     2
  0
STYLE
  2
STANDARD
 70
     0
 40
0.0
 41
1.0
 50
0.0
 71
     0
 42
4.0
  3
SIMPLEX
  4
BIGFONT
  0
STYLE
  2
STANDARD1
 70
     0
 40
0.0
 41
1.0
 50
0.0
 71
     0
 42
3.0
  3
txt
  4

  0
ENDTAB
  0
TABLE
  2
VIEW
 70
     1
  0
VIEW
  2
ALL
 70
     0
 40
270.0
 10
220.78595317725751
 20
135.0
 41
441.57190635451502
 11
0.0
 21
0.0
 31
1.0
 12
0.0
 22
0.0
 32
0.0
 42
50.0
 43
0.0
 44
0.0
 50
0.0
 71
     0
  0
ENDTAB
  0
TABLE
  2
UCS
 70
     0
  0
ENDTAB
  0
TABLE
  2
APPID
 70
     4
  0
APPID
  2
ACAD
 70
     0
  0
APPID
  2
ACAD_MLEADERVER
 70
     0
  0
APPID
  2
ACAD_EXEMPT_FROM_CAD_STANDARDS
 70
     0
  0
APPID
  2
ACAD_NAV_VCDISPLAY
 70
     0
  0
ENDTAB
  0
TABLE
  2
DIMSTYLE
 70
     1
  0
DIMSTYLE
  2
STANDARD
 70
     0
  3

  4

  5

  6

  7

 40
1.0
 41
0.18
 42
0.0625
 43
0.38
 44
0.18
 45
0.0
 46
0.0
 47
0.0
 48
0.0
140
0.18
141
0.09
142
0.0
143
25.399999999999999
144
1.0
145
0.0
146
1.0
147
0.09
 71
     0
 72
     0
 73
     1
 74
     1
 75
     0
 76
     0
 77
     0
 78
     0
170
     0
171
     2
172
     0
173
     0
174
     0
175
     0
176
     0
177
     0
178
     0
  0
ENDTAB
  0
ENDSEC
  0
SECTION
  2
BLOCKS
  0
BLOCK
  8
0
  2
$MODEL_SPACE
 70
     0
 10
0.0
 20
0.0
 30
0.0
  3
$MODEL_SPACE
  1

  0
ENDBLK
  5
AB
  8
0
  0
BLOCK
 67
     1
  8
0
  2
$PAPER_SPACE
 70
     0
 10
0.0
 20
0.0
 30
0.0
  3
$PAPER_SPACE
  1

  0
ENDBLK
  5
A9
 67
     1
  8
0
  0
ENDSEC
  0
SECTION
  2
ENTITIES
  0
TEXT
  5
197
  8
0
 62
     3
 10
0.0
 20
0.0
 30
0.0
 40
10.0
  1
MH12-90S
  7
STANDARD1
  0
LINE
  5
AEA
  8
0
 10
208.63961030678979
 20
123.63961030678981
 30
0.0
 11
159.9999999999998
 21
123.63961030678961
 31
0.0
  0
LINE
  5
AEB
  8
0
 10
159.9999999999998
 20
113.63961030678981
 30
0.0
 11
208.63961030678979
 21
113.63961030678981
 31
0.0
  0
ARC
  5
AF6
  8
0
 10
159.9999999999998
 20
103.63961030678961
 30
0.0
 40
20.000000000000021
 50
90.0
 51
180.0000000000008
  0
ARC
  5
AF7
  8
0
 10
159.9999999999998
 20
103.63961030678961
 30
0.0
 40
9.9999999999999893
 50
90.0
 51
180.00000000000119
  0
LINE
  5
AF8
  8
0
 10
149.99999999999989
 20
103.63961030678951
 30
0.0
 11
150.00000000000011
 21
55.000000000000007
 31
0.0
  0
LINE
  5
AF9
  8
0
 10
139.99999999999989
 20
103.63961030678951
 30
0.0
 11
140.0000000000002
 21
54.999999999999972
 31
0.0
  0
ARC
  5
AFA
  8
0
 10
208.63961030678979
 20
118.63961030678981
 30
0.0
 40
5.0
 50
270.0
 51
90.0
  0
ARC
  5
AFF
  8
0
 10
145.0000000000002
 20
55.0
 30
0.0
 40
5.0
 50
180.00000000000119
 51
0.0000000000004071
  0
LINE
  5
B00
  8
0
 10
80.0
 20
118.63961030678961
 30
0.0
 11
80.0
 21
69.999999999999972
 31
0.0
  0
LINE
  5
B01
  8
0
 10
90.0
 20
70.000000000000043
 30
0.0
 11
90.0
 21
118.63961030678961
 31
0.0
  0
LINE
  5
B04
  8
0
 10
50.0
 20
50.0
 30
0.0
 11
70.0
 21
50.0
 31
0.0
  0
LINE
  5
B05
  8
0
 10
70.0
 20
59.999999999999993
 30
0.0
 11
50.0
 21
59.999999999999993
 31
0.0
  0
LINE
  5
B08
  8
0
 10
84.999999999999943
 20
123.63961030678971
 30
0.0
 11
50.0
 21
123.63961030679
 31
0.0
  0
LINE
  5
B0B
  8
0
 10
50.0
 20
113.63961030678981
 30
0.0
 11
80.0
 21
113.63961030678981
 31
0.0
  0
ARC
  5
B0D
  8
0
 10
70.0
 20
70.000000000000043
 30
0.0
 40
20.000000000000011
 50
270.0
 51
0.0
  0
ARC
  5
B0E
  8
0
 10
70.0
 20
70.000000000000043
 30
0.0
 40
10.000000000000041
 50
270.0
 51
0.0
  0
LINE
  5
B11
  8
0
 10
50.0
 20
50.0
 30
0.0
 11
50.0
 21
60.0
 31
0.0
  0
ARC
  5
B13
  8
2
 10
84.999999999999943
 20
118.63961030678961
 30
0.0
 40
5.0
 50
180.0
 51
0.0
  0
ARC
  5
B14
  8
0
 10
84.999999999999943
 20
118.63961030678961
 30
0.0
 40
5.000000000000056
 50
0.0000000000004071
 51
180.0
  0
LINE
  5
B15
  8
0
 10
50.0
 20
113.63961030678981
 30
0.0
 11
50.000000000000057
 21
123.63961030679
 31
0.0
  0
LINE
  5
B17
  8
0
 10
193.63961030678979
 20
183.63961030678971
 30
0.0
 11
144.99999999999969
 21
183.63961030678971
 31
0.0
  0
LINE
  5
B18
  8
0
 10
144.99999999999969
 20
173.63961030678971
 30
0.0
 11
193.63961030678979
 21
173.63961030678971
 31
0.0
  0
LINE
  5
B1B
  8
0
 10
213.63961030678979
 20
193.63961030678971
 30
0.0
 11
213.63961030678979
 21
213.63961030678971
 31
0.0
  0
LINE
  5
B1C
  8
0
 10
203.63961030678979
 20
213.63961030678971
 30
0.0
 11
203.63961030678979
 21
193.63961030678971
 31
0.0
  0
LINE
  5
B1F
  8
0
 10
140.00000000000099
 20
213.63961030678971
 30
0.0
 11
140.00000000000011
 21
178.63961030678971
 31
0.0
  0
LINE
  5
B22
  8
0
 10
150.0000000000002
 20
183.63961030678971
 30
0.0
 11
150.0000000000002
 21
213.63961030678971
 31
0.0
  0
ARC
  5
B24
  8
0
 10
193.63961030678979
 20
193.63961030678971
 30
0.0
 40
10.00000000000002
 50
270.0
 51
0.0
  0
ARC
  5
B25
  8
0
 10
193.63961030678979
 20
193.63961030678971
 30
0.0
 40
19.999999999999972
 50
270.0
 51
0.0
  0
LINE
  5
B28
  8
0
 10
203.63961030678979
 20
213.63961030678971
 30
0.0
 11
213.63961030678979
 21
213.63961030678971
 31
0.0
  0
ARC
  5
B2B
  8
0
 10
144.99999999999969
 20
178.63961030678971
 30
0.0
 40
4.9999999999999432
 50
90.0
 51
270.0
  0
ARC
  5
B2C
  8
2
 10
144.99999999999969
 20
178.63961030678971
 30
0.0
 40
4.9999999999999432
 50
270.0
 51
90.0
  0
LINE
  5
B2D
  8
0
 10
140.00000000000099
 20
213.63961030678971
 30
0.0
 11
150.0000000000002
 21
213.63961030678971
 31
0.0
  0
ARC
  5
B32
  8
2
 10
145.0000000000002
 20
55.0
 30
0.0
 40
5.0
 50
0.0000000000004071
 51
180.0000000000004
  0
ARC
  5
B33
  8
2
 10
208.63961030678979
 20
118.63961030678981
 30
0.0
 40
5.0
 50
90.0
 51
270.0
  0
LINE
  5
B34
  8
1
 10
160.0000000000002
 20
118.63961030678981
 30
0.0
 11
218.63961030678979
 21
118.63961030678981
 31
0.0
  0
LINE
  5
B35
  8
1
 10
145.0000000000002
 20
103.63961030678981
 30
0.0
 11
145.0000000000002
 21
45.0
 31
0.0
  0
LINE
  5
B3E
  8
1
 10
155.0000000000002
 20
55.0
 30
0.0
 11
135.0000000000002
 21
55.0
 31
0.0
  0
LINE
  5
B3F
  8
1
 10
208.63961030678979
 20
128.63961030678979
 30
0.0
 11
208.63961030678979
 21
108.63961030678981
 31
0.0
  0
ARC
  5
B40
  8
1
 10
160.0000000000002
 20
103.63961030678981
 30
0.0
 40
15.0
 50
90.0
 51
180.0
  0
LINE
  5
B41
  8
1
 10
84.999999999999943
 20
128.63961030678971
 30
0.0
 11
84.999999999999943
 21
70.0
 31
0.0
  0
LINE
  5
B42
  8
1
 10
45.000000000000057
 20
118.63961030678961
 30
0.0
 11
95.0
 21
118.63961030678961
 31
0.0
  0
LINE
  5
B43
  8
1
 10
45.0
 20
55.0
 30
0.0
 11
69.999999999999943
 21
55.0
 31
0.0
  0
ARC
  5
B46
  8
1
 10
69.999999999999943
 20
70.0
 30
0.0
 40
15.0
 50
270.0
 51
0.0
  0
LINE
  5
B48
  8
1
 10
134.99999999999969
 20
178.63961030678971
 30
0.0
 11
193.63961030678979
 21
178.63961030678971
 31
0.0
  0
LINE
  5
B49
  8
1
 10
208.63961030678979
 20
218.63961030678979
 30
0.0
 11
208.63961030678979
 21
193.63961030678971
 31
0.0
  0
LINE
  5
B4A
  8
1
 10
145.00000000000071
 20
218.6396103067899
 30
0.0
 11
145.00000000000071
 21
168.63961030678971
 31
0.0
  0
ARC
  5
B4C
  8
1
 10
193.63961030678979
 20
193.63961030678971
 30
0.0
 40
15.0
 50
270.0
 51
0.0
  0
LINE
  5
B4E
  8
2
 10
210.70661030678991
 20
212.7396103067897
 30
0.0
 11
211.60661030678989
 21
213.63961030678979
 31
0.0
  0
LINE
  5
B4F
  8
2
 10
206.57261030678939
 20
212.7396103067897
 30
0.0
 11
210.70661030678991
 21
212.7396103067897
 31
0.0
  0
LINE
  5
B50
  8
2
 10
205.67261030678941
 20
213.63961030678979
 30
0.0
 11
206.57261030678939
 21
212.7396103067897
 31
0.0
  0
LINE
  5
B51
  8
2
 10
206.1396103067899
 20
203.63961030678971
 30
0.0
 11
206.5726103067897
 21
202.88963230711281
 31
0.0
  0
LINE
  5
B52
  8
2
 10
211.13961030678971
 20
203.63961030678971
 30
0.0
 11
210.70661030678991
 21
202.88963230711281
 31
0.0
  0
LINE
  5
B53
  8
2
 10
206.57261030678939
 20
201.63961030678971
 30
0.0
 11
210.70661030678991
 21
201.63961030678971
 31
0.0
  0
LINE
  5
B54
  8
2
 10
206.13961030678971
 20
203.63961030678971
 30
0.0
 11
211.13961030678971
 21
203.63961030678971
 31
0.0
  0
LINE
  5
B55
  8
2
 10
210.70661030678991
 20
201.63961030678971
 30
0.0
 11
208.63961030678971
 21
200.39763140725961
 31
0.0
  0
LINE
  5
B56
  8
2
 10
206.57261030678939
 20
201.63961030678971
 30
0.0
 11
208.63961030678971
 21
200.39763140725961
 31
0.0
  0
LINE
  5
B57
  8
2
 10
211.13961030678971
 20
213.17261030678961
 30
0.0
 11
211.13961030678971
 21
203.63961030678971
 31
0.0
  0
LINE
  5
B58
  8
2
 10
210.70661030678991
 20
212.7396103067897
 30
0.0
 11
210.70661030678991
 21
201.63961030678971
 31
0.0
  0
LINE
  5
B59
  8
2
 10
206.57261030678939
 20
212.7396103067897
 30
0.0
 11
206.57261030678939
 21
201.63961030678971
 31
0.0
  0
LINE
  5
B5A
  8
2
 10
206.13961030678971
 20
213.17261030678961
 30
0.0
 11
206.13961030678971
 21
203.63961030678971
 31
0.0
  0
LINE
  5
B5B
  8
2
 10
147.0670000000008
 20
212.73961030678959
 30
0.0
 11
147.96700000000081
 21
213.63961030678971
 31
0.0
  0
LINE
  5
B5C
  8
2
 10
142.93300000000031
 20
212.73961030678959
 30
0.0
 11
147.0670000000008
 21
212.73961030678959
 31
0.0
  0
LINE
  5
B5D
  8
2
 10
142.0330000000003
 20
213.63961030678971
 30
0.0
 11
142.93300000000031
 21
212.73961030678959
 31
0.0
  0
LINE
  5
B5E
  8
2
 10
142.5000000000008
 20
203.63961030678971
 30
0.0
 11
142.9330000000005
 21
202.88963230711281
 31
0.0
  0
LINE
  5
B5F
  8
2
 10
147.50000000000051
 20
203.63961030678971
 30
0.0
 11
147.0670000000008
 21
202.88963230711281
 31
0.0
  0
LINE
  5
B60
  8
2
 10
142.93300000000031
 20
201.63961030678971
 30
0.0
 11
147.0670000000008
 21
201.63961030678971
 31
0.0
  0
LINE
  5
B61
  8
2
 10
142.5000000000006
 20
203.63961030678971
 30
0.0
 11
147.50000000000051
 21
203.63961030678971
 31
0.0
  0
LINE
  5
B62
  8
2
 10
147.0670000000008
 20
201.63961030678971
 30
0.0
 11
145.00000000000051
 21
200.39763140725961
 31
0.0
  0
LINE
  5
B63
  8
2
 10
142.93300000000031
 20
201.63961030678971
 30
0.0
 11
145.00000000000051
 21
200.39763140725961
 31
0.0
  0
LINE
  5
B64
  8
2
 10
147.50000000000051
 20
213.17261030678949
 30
0.0
 11
147.50000000000051
 21
203.63961030678971
 31
0.0
  0
LINE
  5
B65
  8
2
 10
147.0670000000008
 20
212.73961030678959
 30
0.0
 11
147.0670000000008
 21
201.63961030678971
 31
0.0
  0
LINE
  5
B66
  8
2
 10
142.93300000000031
 20
212.73961030678959
 30
0.0
 11
142.93300000000031
 21
201.63961030678971
 31
0.0
  0
LINE
  5
B67
  8
2
 10
142.5000000000006
 20
213.17261030678949
 30
0.0
 11
142.5000000000006
 21
203.63961030678971
 31
0.0
  0
LINE
  5
B68
  8
2
 10
50.467000000000148
 20
57.500000000000107
 30
0.0
 11
59.999999999999943
 21
57.500000000000107
 31
0.0
  0
LINE
  5
B69
  8
2
 10
50.900000000000027
 20
57.067000000000348
 30
0.0
 11
61.999999999999943
 21
57.067000000000348
 31
0.0
  0
LINE
  5
B6A
  8
2
 10
50.900000000000027
 20
52.932999999999872
 30
0.0
 11
61.999999999999943
 21
52.932999999999872
 31
0.0
  0
LINE
  5
B6B
  8
2
 10
50.467000000000148
 20
52.500000000000107
 30
0.0
 11
59.999999999999943
 21
52.500000000000107
 31
0.0
  0
LINE
  5
B6C
  8
2
 10
62.000000000000057
 20
57.067000000000348
 30
0.0
 11
63.241978899530118
 21
55.000000000000107
 31
0.0
  0
LINE
  5
B6D
  8
2
 10
61.999999999999943
 20
52.932999999999872
 30
0.0
 11
63.241978899530118
 21
55.000000000000107
 31
0.0
  0
LINE
  5
B6E
  8
2
 10
59.999999999999943
 20
57.500000000000107
 30
0.0
 11
59.999999999999943
 21
52.500000000000107
 31
0.0
  0
LINE
  5
B6F
  8
2
 10
61.999999999999943
 20
57.067000000000348
 30
0.0
 11
61.999999999999943
 21
52.932999999999872
 31
0.0
  0
LINE
  5
B70
  8
2
 10
59.999999999999943
 20
52.500000000000107
 30
0.0
 11
60.749977999676901
 21
52.932999999999872
 31
0.0
  0
LINE
  5
B71
  8
2
 10
59.999999999999943
 20
57.499999999999893
 30
0.0
 11
60.749977999676901
 21
57.067000000000121
 31
0.0
  0
LINE
  5
B72
  8
2
 10
49.999999999999943
 20
57.967000000000333
 30
0.0
 11
50.900000000000027
 21
57.067000000000348
 31
0.0
  0
LINE
  5
B73
  8
2
 10
50.900000000000027
 20
57.067000000000348
 30
0.0
 11
50.900000000000027
 21
52.932999999999872
 31
0.0
  0
LINE
  5
B74
  8
2
 10
50.900000000000027
 20
52.932999999999872
 30
0.0
 11
49.999999999999943
 21
52.032999999999902
 31
0.0
  0
LINE
  5
B75
  8
2
 10
50.467000000000269
 20
121.13961030679
 30
0.0
 11
60.000000000000057
 21
121.13961030679
 31
0.0
  0
LINE
  5
B76
  8
2
 10
50.900000000000141
 20
120.7066103067903
 30
0.0
 11
62.000000000000057
 21
120.7066103067903
 31
0.0
  0
LINE
  5
B77
  8
2
 10
50.900000000000141
 20
116.5726103067898
 30
0.0
 11
62.000000000000057
 21
116.5726103067898
 31
0.0
  0
LINE
  5
B78
  8
2
 10
50.467000000000269
 20
116.13961030679
 30
0.0
 11
60.000000000000057
 21
116.13961030679
 31
0.0
  0
LINE
  5
B79
  8
2
 10
62.000000000000171
 20
120.7066103067903
 30
0.0
 11
63.241978899530238
 21
118.63961030679
 31
0.0
  0
LINE
  5
B7A
  8
2
 10
62.000000000000057
 20
116.5726103067898
 30
0.0
 11
63.241978899530238
 21
118.63961030679
 31
0.0
  0
LINE
  5
B7B
  8
2
 10
60.000000000000057
 20
121.13961030679
 30
0.0
 11
60.000000000000057
 21
116.13961030679
 31
0.0
  0
LINE
  5
B7C
  8
2
 10
62.000000000000057
 20
120.7066103067903
 30
0.0
 11
62.000000000000057
 21
116.5726103067898
 31
0.0
  0
LINE
  5
B7D
  8
2
 10
60.000000000000057
 20
116.13961030679
 30
0.0
 11
60.749977999677007
 21
116.5726103067898
 31
0.0
  0
LINE
  5
B7E
  8
2
 10
60.000000000000057
 20
121.13961030678981
 30
0.0
 11
60.749977999677007
 21
120.70661030679
 31
0.0
  0
LINE
  5
B7F
  8
2
 10
50.000000000000057
 20
121.6066103067902
 30
0.0
 11
50.900000000000141
 21
120.7066103067903
 31
0.0
  0
LINE
  5
B80
  8
2
 10
50.900000000000141
 20
120.7066103067903
 30
0.0
 11
50.900000000000141
 21
116.5726103067898
 31
0.0
  0
LINE
  5
B81
  8
2
 10
50.900000000000141
 20
116.5726103067898
 30
0.0
 11
50.000000000000057
 21
115.67261030678981
 31
0.0
  0
ENDSEC
  0
EOF
