  0
SECTION
  2
HEADER
  9
$ACADVER
  1
AC1009
  9
$INSBASE
 10
0.0
 20
0.0
 30
0.0
  9
$EXTMIN
 10
0.0
 20
-2.960436562073669
 30
0.0
  9
$EXTMAX
 10
565.78993791859762
 20
407.90793018457993
 30
0.0
  9
$LIMMIN
 10
0.0
 20
0.0
  9
$LIMMAX
 10
750.0
 20
540.0
  9
$ORTHOMODE
 70
     1
  9
$REGENMODE
 70
     1
  9
$FILLMODE
 70
     1
  9
$QTEXTMODE
 70
     0
  9
$MIRRTEXT
 70
     0
  9
$DRAGMODE
 70
     2
  9
$LTSCALE
 40
20.0
  9
$OSMODE
 70
  3071
  9
$ATTMODE
 70
     1
  9
$TEXTSIZE
 40
8.0
  9
$TRACEWID
 40
0.05
  9
$TEXTSTYLE
  7
STANDARD
  9
$CLAYER
  8
0
  9
$CELTYPE
  6
BYLAYER
  9
$CECOLOR
 62
   256
  9
$DIMSCALE
 40
2.0
  9
$DIMASZ
 40
3.0
  9
$DIMEXO
 40
2.0
  9
$DIMDLI
 40
0.38
  9
$DIMRND
 40
0.0
  9
$DIMDLE
 40
0.0
  9
$DIMEXE
 40
2.0
  9
$DIMTP
 40
0.0
  9
$DIMTM
 40
0.0
  9
$DIMTXT
 40
3.2000000000000002
  9
$DIMCEN
 40
0.0
  9
$DIMTSZ
 40
0.0
  9
$DIMTOL
 70
     0
  9
$DIMLIM
 70
     0
  9
$DIMTIH
 70
     0
  9
$DIMTOH
 70
     0
  9
$DIMSE1
 70
     0
  9
$DIMSE2
 70
     0
  9
$DIMTAD
 70
     1
  9
$DIMZIN
 70
     0
  9
$DIMBLK
  1

  9
$DIMASO
 70
     1
  9
$DIMSHO
 70
     0
  9
$DIMPOST
  1

  9
$DIMAPOST
  1

  9
$DIMALT
 70
     0
  9
$DIMALTD
 70
     2
  9
$DIMALTF
 40
25.399999999999999
  9
$DIMLFAC
 40
1.0
  9
$DIMTOFL
 70
     0
  9
$DIMTVP
 40
1.6000000000000001
  9
$DIMTIX
 70
     1
  9
$DIMSOXD
 70
     0
  9
$DIMSAH
 70
     0
  9
$DIMBLK1
  1

  9
$DIMBLK2
  1

  9
$DIMSTYLE
  2
STANDARD
  9
$DIMCLRD
 70
     4
  9
$DIMCLRE
 70
     4
  9
$DIMCLRT
 70
     4
  9
$DIMTFAC
 40
1.0
  9
$DIMGAP
 40
0.09
  9
$LUNITS
 70
     2
  9
$LUPREC
 70
     1
  9
$SKETCHINC
 40
0.1
  9
$FILLETRAD
 40
1.0
  9
$AUNITS
 70
     0
  9
$AUPREC
 70
     0
  9
$MENU
  1
E:\r13\win\SUPPORT\ACAD
  9
$ELEVATION
 40
0.0
  9
$PELEVATION
 40
0.0
  9
$THICKNESS
 40
0.0
  9
$LIMCHECK
 70
     0
  9
$BLIPMODE
 70
     0
  9
$CHAMFERA
 40
1.1999999999999991
  9
$CHAMFERB
 40
1.1999999999999991
  9
$SKPOLY
 70
     0
  9
$TDCREATE
 40
2449930.586805555
  9
$TDUPDATE
 40
2456597.6540639121
  9
$TDINDWG
 40
0.0012480208
  9
$TDUSRTIMER
 40
0.0012480208
  9
$USRTIMER
 70
     1
  9
$ANGBASE
 50
0.0
  9
$ANGDIR
 70
     0
  9
$PDMODE
 70
     0
  9
$PDSIZE
 40
0.0
  9
$PLINEWID
 40
0.0
  9
$COORDS
 70
     1
  9
$SPLFRAME
 70
     0
  9
$SPLINETYPE
 70
     6
  9
$SPLINESEGS
 70
     8
  9
$ATTDIA
 70
     0
  9
$ATTREQ
 70
     1
  9
$HANDLING
 70
     1
  9
$HANDSEED
  5
2D5
  9
$SURFTAB1
 70
     6
  9
$SURFTAB2
 70
     6
  9
$SURFTYPE
 70
     6
  9
$SURFU
 70
     6
  9
$SURFV
 70
     6
  9
$UCSNAME
  2

  9
$UCSORG
 10
0.0
 20
0.0
 30
0.0
  9
$UCSXDIR
 10
1.0
 20
0.0
 30
0.0
  9
$UCSYDIR
 10
0.0
 20
1.0
 30
0.0
  9
$PUCSNAME
  2

  9
$PUCSORG
 10
0.0
 20
0.0
 30
0.0
  9
$PUCSXDIR
 10
1.0
 20
0.0
 30
0.0
  9
$PUCSYDIR
 10
0.0
 20
1.0
 30
0.0
  9
$USERI1
 70
     0
  9
$USERI2
 70
     1
  9
$USERI3
 70
     1
  9
$USERI4
 70
     0
  9
$USERI5
 70
     0
  9
$USERR1
 40
0.0
  9
$USERR2
 40
0.0
  9
$USERR3
 40
0.0
  9
$USERR4
 40
0.0
  9
$USERR5
 40
0.0
  9
$WORLDVIEW
 70
     1
  9
$SHADEDGE
 70
     3
  9
$SHADEDIF
 70
    70
  9
$TILEMODE
 70
     1
  9
$MAXACTVP
 70
    16
  9
$PLIMCHECK
 70
     0
  9
$PEXTMIN
 10
1.0000000000000000E+020
 20
1.0000000000000000E+020
 30
1.0000000000000000E+020
  9
$PEXTMAX
 10
-1.0000000000000000E+020
 20
-1.0000000000000000E+020
 30
-1.0000000000000000E+020
  9
$PLIMMIN
 10
0.0
 20
0.0
  9
$PLIMMAX
 10
12.0
 20
9.0
  9
$UNITMODE
 70
     0
  9
$VISRETAIN
 70
     0
  9
$PLINEGEN
 70
     0
  9
$PSLTSCALE
 70
     0
  0
ENDSEC
  0
SECTION
  2
TABLES
  0
TABLE
  2
VPORT
 70
     1
  0
VPORT
  2
*ACTIVE
 70
     0
 10
0.0
 20
0.0
 11
1.0
 21
1.0
 12
374.98855678130462
 22
269.68405869568772
 13
0.0
 23
0.0
 14
20.0
 24
20.0
 15
20.0
 25
20.0
 16
0.0
 26
0.0
 36
1.0
 17
0.0
 27
0.0
 37
0.0
 40
551.57487251346481
 41
2.304913294797688
 42
50.0
 43
0.0
 44
0.0
 50
0.0
 51
0.0
 71
     0
 72
   500
 73
     1
 74
     0
 75
     0
 76
     0
 77
     0
 78
     2
  0
ENDTAB
  0
TABLE
  2
LTYPE
 70
     4
  0
LTYPE
  2
CONTINUOUS
 70
     0
  3
Solid Line
 72
    65
 73
     0
 40
0.0
  0
LTYPE
  2
CENTER
 70
     0
  3
____ _ ____ _ ____ _ ____ _ ____ _ ____ _ ____
 72
    65
 73
     4
 40
2.0
 49
1.25
 49
-0.25
 49
0.25
 49
-0.25
  0
LTYPE
  2
HIDDEN
 70
     0
  3
_ _ _ _ _ _ _ _ _ _ _ _ _ _ _ _ _ _ _ _ _ _ _
 72
    65
 73
     2
 40
0.375
 49
0.25
 49
-0.125
  0
LTYPE
  2
PHANTOM2
 70
     0
  3
___ _ _ ___ _ _ ___ _ _ ___ _ _
 72
    65
 73
     6
 40
1.25
 49
0.625
 49
-0.125
 49
0.125
 49
-0.125
 49
0.125
 49
-0.125
  0
ENDTAB
  0
TABLE
  2
LAYER
 70
     4
  0
LAYER
  2
0
 70
     0
 62
     7
  6
CONTINUOUS
  0
LAYER
  2
1
 70
     0
 62
     1
  6
CENTER
  0
LAYER
  2
3
 70
     0
 62
     3
  6
CONTINUOUS
  0
LAYER
  2
2
 70
     0
 62
     2
  6
HIDDEN
  0
ENDTAB
  0
TABLE
  2
STYLE
 70
     2
  0
STYLE
  2
STANDARD
 70
     0
 40
0.0
 41
1.0
 50
0.0
 71
     0
 42
8.0
  3
SIMPLEX
  4
BIGFONT
  0
STYLE
  2
STANDARD1
 70
     0
 40
0.0
 41
1.0
 50
0.0
 71
     0
 42
3.0
  3
txt
  4

  0
ENDTAB
  0
TABLE
  2
VIEW
 70
     1
  0
VIEW
  2
ALL
 70
     0
 40
571.67746736573099
 10
467.47538719371647
 20
285.8387336828655
 41
934.95077438743294
 11
0.0
 21
0.0
 31
1.0
 12
0.0
 22
0.0
 32
0.0
 42
50.0
 43
0.0
 44
0.0
 50
0.0
 71
     0
  0
ENDTAB
  0
TABLE
  2
UCS
 70
     0
  0
ENDTAB
  0
TABLE
  2
APPID
 70
     3
  0
APPID
  2
ACAD
 70
     0
  0
APPID
  2
ACAD_MLEADERVER
 70
     0
  0
APPID
  2
ACAD_NAV_VCDISPLAY
 70
     0
  0
ENDTAB
  0
TABLE
  2
DIMSTYLE
 70
     1
  0
DIMSTYLE
  2
STANDARD
 70
     0
  3

  4

  5

  6

  7

 40
1.0
 41
0.18
 42
0.0625
 43
0.38
 44
0.18
 45
0.0
 46
0.0
 47
0.0
 48
0.0
140
0.18
141
0.09
142
0.0
143
25.399999999999999
144
1.0
145
0.0
146
1.0
147
0.09
 71
     0
 72
     0
 73
     1
 74
     1
 75
     0
 76
     0
 77
     0
 78
     0
170
     0
171
     2
172
     0
173
     0
174
     0
175
     0
176
     0
177
     0
178
     0
  0
ENDTAB
  0
ENDSEC
  0
SECTION
  2
BLOCKS
  0
BLOCK
  8
0
  2
$MODEL_SPACE
 70
     0
 10
0.0
 20
0.0
 30
0.0
  3
$MODEL_SPACE
  1

  0
ENDBLK
  5
159
  8
0
  0
BLOCK
 67
     1
  8
0
  2
$PAPER_SPACE
 70
     0
 10
0.0
 20
0.0
 30
0.0
  3
$PAPER_SPACE
  1

  0
ENDBLK
  5
157
 67
     1
  8
0
  0
ENDSEC
  0
SECTION
  2
ENTITIES
  0
LINE
  5
2A
  8
0
 10
335.78993791859739
 20
312.90793018457981
 30
0.0
 11
335.78993791859739
 21
326.90793018457981
 31
0.0
  0
LINE
  5
2B
  8
0
 10
337.28993791859727
 20
347.90793018457981
 30
0.0
 11
364.28993791859739
 21
347.90793018457981
 31
0.0
  0
LINE
  5
2C
  8
0
 10
365.78993791859739
 20
312.90793018457981
 30
0.0
 11
365.78993791859739
 21
326.90793018457981
 31
0.0
  0
LINE
  5
2D
  8
1
 10
335.78993791859739
 20
312.90793018457981
 30
0.0
 11
365.78993791859739
 21
312.90793018457981
 31
0.0
  0
ARC
  5
2E
  8
0
 10
350.78993791859739
 20
312.90793018457981
 30
0.0
 40
15.0
 50
180.0
 51
0.0
  0
LINE
  5
2F
  8
0
 10
184.57256250327299
 20
297.90793018457981
 30
0.0
 11
184.57256250327291
 21
326.90793018457981
 31
0.0
  0
LINE
  5
30
  8
0
 10
184.57256250327299
 20
326.90793018457981
 30
0.0
 11
212.57256250327299
 21
326.90793018457981
 31
0.0
  0
LINE
  5
31
  8
0
 10
240.57256250327299
 20
333.80345372244591
 30
0.0
 11
240.57256250327299
 21
345.90793018457993
 31
0.0
  0
LINE
  5
32
  8
0
 10
214.5725625032731
 20
347.90793018457981
 30
0.0
 11
238.57256250327299
 21
347.90793018457981
 31
0.0
  0
LINE
  5
33
  8
0
 10
204.30303267172781
 20
301.03816632704797
 30
0.0
 11
238.78650055170581
 21
329.97323150685099
 31
0.0
  0
LINE
  5
34
  8
0
 10
203.57256250327299
 20
326.90793018457981
 30
0.0
 11
212.57256250327299
 21
334.45982686517539
 31
0.0
  0
LINE
  5
35
  8
0
 10
212.57256250327299
 20
326.90793018457981
 30
0.0
 11
212.57256250327299
 21
345.90793018457981
 31
0.0
  0
LINE
  5
36
  8
1
 10
165.57256250327299
 20
312.90793018457993
 30
0.0
 11
223.4488663921862
 21
312.90793018457993
 31
0.0
  0
LINE
  5
37
  8
1
 10
226.5725625032731
 20
327.90793018457993
 30
0.0
 11
226.5725625032731
 21
407.90793018457993
 31
0.0
  0
ARC
  5
38
  8
0
 10
226.5725625032731
 20
392.90793018457993
 30
0.0
 40
10.0
 50
0.0
 51
180.0
  0
ARC
  5
39
  8
2
 10
226.5725625032731
 20
392.90793018457993
 30
0.0
 40
10.0
 50
180.0
 51
0.0
  0
ARC
  5
3A
  8
0
 10
214.5725625032731
 20
345.90793018457981
 30
0.0
 40
2.0
 50
90.0
 51
180.0
  0
ARC
  5
3B
  8
0
 10
238.57256250327299
 20
345.90793018457993
 30
0.0
 40
2.0
 50
0.0
 51
90.0
  0
LINE
  5
3C
  8
0
 10
171.77256250327301
 20
316.90793018457993
 30
0.0
 11
171.77256250327301
 21
308.90793018457993
 31
0.0
  0
LINE
  5
3D
  8
0
 10
170.57256250327299
 20
310.10793018457991
 30
0.0
 11
171.77256250327301
 21
308.90793018457993
 31
0.0
  0
LINE
  5
3E
  8
0
 10
171.77256250327301
 20
316.90793018457993
 30
0.0
 11
170.57256250327299
 21
315.70793018457982
 31
0.0
  0
LINE
  5
3F
  8
0
 10
170.57256250327299
 20
315.70793018457982
 30
0.0
 11
170.57256250327299
 21
310.10793018457991
 31
0.0
  0
LINE
  5
40
  8
0
 10
182.47984444186781
 20
304.90793018457941
 30
0.0
 11
180.87984444186779
 21
304.90793018457941
 31
0.0
  0
LINE
  5
41
  8
0
 10
182.47984444186781
 20
320.90793018458032
 30
0.0
 11
180.87984444186779
 21
320.90793018458032
 31
0.0
  0
LINE
  5
42
  8
0
 10
180.87984444186779
 20
320.90793018458032
 30
0.0
 11
180.87984444186779
 21
304.90793018457941
 31
0.0
  0
LINE
  5
43
  8
0
 10
182.47984444186781
 20
320.90793018458032
 30
0.0
 11
182.47984444186781
 21
304.90793018457941
 31
0.0
  0
ARC
  5
44
  8
0
 10
177.41293730161971
 20
307.27876505998199
 30
0.0
 40
3.3225695729499738
 50
334.38424746782988
 51
34.38424746804094
  0
ARC
  5
45
  8
0
 10
168.3160634581773
 20
312.9079301845814
 30
0.0
 40
12.41944341639239
 50
342.41204622599253
 51
17.587953773998521
  0
LINE
  5
46
  8
0
 10
180.154950290969
 20
305.40237668511571
 30
0.0
 11
180.87984444186779
 21
306.65793018458191
 31
0.0
  0
LINE
  5
47
  8
0
 10
175.2047385927668
 20
305.40237668511571
 30
0.0
 11
174.47984444186801
 21
306.65793018458191
 31
0.0
  0
ARC
  5
48
  8
0
 10
177.94675158211601
 20
307.27876505998199
 30
0.0
 40
3.3225695729499738
 50
145.61575253195889
 51
205.61575253217009
  0
ARC
  5
49
  8
0
 10
187.04362542555839
 20
312.9079301845814
 30
0.0
 40
12.41944341639239
 50
162.41204622600139
 51
197.58795377400739
  0
LINE
  5
4A
  8
0
 10
180.154950290969
 20
305.40237668511571
 30
0.0
 11
175.2047385927668
 21
305.40237668511571
 31
0.0
  0
LINE
  5
4B
  8
0
 10
180.154950290969
 20
309.15515343484992
 30
0.0
 11
175.20473859276831
 21
309.1551534348481
 31
0.0
  0
LINE
  5
4C
  8
0
 10
180.154950290969
 20
316.66070693431118
 30
0.0
 11
175.20473859276831
 21
316.660706934313
 31
0.0
  0
LINE
  5
4D
  8
0
 10
180.154950290969
 20
320.41348368404539
 30
0.0
 11
175.2047385927668
 21
320.41348368404539
 31
0.0
  0
ARC
  5
4E
  8
0
 10
177.94675158211601
 20
318.53709530917911
 30
0.0
 40
3.3225695729499738
 50
154.38424746782991
 51
214.384247468041
  0
LINE
  5
4F
  8
0
 10
175.2047385927668
 20
320.41348368404539
 30
0.0
 11
174.47984444186801
 21
319.15793018457919
 31
0.0
  0
LINE
  5
50
  8
0
 10
180.154950290969
 20
320.41348368404539
 30
0.0
 11
180.87984444186779
 21
319.15793018457919
 31
0.0
  0
ARC
  5
51
  8
0
 10
177.41293730161971
 20
318.53709530917911
 30
0.0
 40
3.3225695729499738
 50
325.615752531959
 51
25.615752532170031
  0
LINE
  5
52
  8
0
 10
174.47984444186801
 20
319.15793018457919
 30
0.0
 11
174.47984444186801
 21
306.6579301845822
 31
0.0
  0
LINE
  5
53
  8
3
 10
174.47984444186801
 20
309.58443018457979
 30
0.0
 11
171.09606250327309
 21
309.58443018457979
 31
0.0
  0
LINE
  5
54
  8
0
 10
174.47984444186801
 20
308.90793018457993
 30
0.0
 11
171.77256250327301
 21
308.90793018457993
 31
0.0
  0
LINE
  5
55
  8
3
 10
174.47984444186801
 20
316.23143018458001
 30
0.0
 11
171.09606250327309
 21
316.23143018458001
 31
0.0
  0
LINE
  5
56
  8
0
 10
174.47984444186801
 20
316.90793018457993
 30
0.0
 11
171.77256250327301
 21
316.90793018457993
 31
0.0
  0
ARC
  5
57
  8
0
 10
235.57256250327299
 20
333.80345372244591
 30
0.0
 40
5.0
 50
310.0
 51
359.99999999999989
  0
LINE
  5
58
  8
1
 10
241.5725625032731
 20
392.90793018457993
 30
0.0
 11
211.57256250327299
 21
392.90793018457993
 31
0.0
  0
LINE
  5
59
  8
0
 10
335.78993791859739
 20
326.90793018457981
 30
0.0
 11
336.98993791859732
 21
326.90793018457981
 31
0.0
  0
ARC
  5
5A
  8
0
 10
350.78993791859739
 20
312.90793018457981
 30
0.0
 40
14.0
 50
180.0
 51
0.0
  0
LINE
  5
5B
  8
0
 10
337.28993791859727
 20
347.90793018457981
 30
0.0
 11
336.78993791859739
 21
312.90793018457981
 31
0.0
  0
LINE
  5
5C
  8
0
 10
364.28993791859739
 20
347.90793018457981
 30
0.0
 11
364.78993791859739
 21
312.90793018457981
 31
0.0
  0
LINE
  5
5D
  8
0
 10
364.58993791859729
 20
326.90793018457981
 30
0.0
 11
365.78993791859739
 21
326.90793018457981
 31
0.0
  0
LINE
  5
5E
  8
0
 10
184.57256250327299
 20
297.90793018457981
 30
0.0
 11
198.4558492604076
 21
298.71548519532138
 31
0.0
  0
ARC
  5
5F
  8
0
 10
197.87515657486239
 20
308.69861075823781
 30
0.0
 40
10.0
 50
273.32899671650802
 51
310.0
  0
CIRCLE
  5
60
  8
0
 10
350.78993791859739
 20
312.90793018457981
 30
0.0
 40
6.6000000000001364
  0
ARC
  5
61
  8
0
 10
350.78993791859739
 20
317.53696339903951
 30
0.0
 40
13.93495203263152
 50
359.73254392820081
 51
180.26745607179919
  0
CIRCLE
  5
62
  8
0
 10
350.78993791859739
 20
312.90793018457981
 30
0.0
 40
5.6339745962155803
  0
LINE
  5
63
  8
0
 10
347.78993791859762
 20
311.1758793770112
 30
0.0
 11
350.78993791859762
 21
309.4438285694423
 31
0.0
  0
LINE
  5
64
  8
0
 10
350.78993791859762
 20
309.4438285694423
 30
0.0
 11
353.78993791859739
 21
311.1758793770112
 31
0.0
  0
LINE
  5
65
  8
0
 10
353.78993791859739
 20
311.1758793770112
 30
0.0
 11
353.78993791859739
 21
314.63998099214939
 31
0.0
  0
LINE
  5
66
  8
0
 10
353.78993791859739
 20
314.63998099214939
 30
0.0
 11
350.78993791859739
 21
316.37203179971772
 31
0.0
  0
LINE
  5
67
  8
0
 10
350.78993791859739
 20
316.37203179971772
 30
0.0
 11
347.78993791859699
 21
314.63998099214842
 31
0.0
  0
LINE
  5
68
  8
0
 10
347.78993791859699
 20
314.63998099214842
 30
0.0
 11
347.78993791859762
 21
311.1758793770112
 31
0.0
  0
CIRCLE
  5
69
  8
0
 10
350.78993791859739
 20
312.90793018457981
 30
0.0
 40
6.5
  0
LINE
  5
6A
  8
1
 10
245.5725625032731
 20
340.90793018457981
 30
0.0
 11
207.5725625032731
 21
340.90793018457981
 31
0.0
  0
LINE
  5
6B
  8
0
 10
216.57256250327299
 20
347.90793018457981
 30
0.0
 11
216.57256250327299
 21
392.90793018457993
 31
0.0
  0
LINE
  5
6C
  8
0
 10
236.57256250327299
 20
347.90793018457981
 30
0.0
 11
236.57256250327299
 21
392.90793018457993
 31
0.0
  0
CIRCLE
  5
6D
  8
0
 10
350.78993791859727
 20
340.90793018457981
 30
0.0
 40
2.0
  0
LINE
  5
6E
  8
1
 10
357.78993791859727
 20
340.90793018457981
 30
0.0
 11
343.78993791859727
 21
340.90793018457981
 31
0.0
  0
LINE
  5
6F
  8
0
 10
385.78993791859739
 20
402.90793018457993
 30
0.0
 11
515.78993791859727
 21
402.90793018457993
 31
0.0
  0
LINE
  5
70
  8
0
 10
340.78993791859739
 20
347.90793018457981
 30
0.0
 11
340.78993791859727
 21
357.90793018457993
 31
0.0
  0
LINE
  5
71
  8
0
 10
360.78993791859739
 20
347.90793018457981
 30
0.0
 11
360.78993791859739
 21
357.90793018457993
 31
0.0
  0
LINE
  5
72
  8
0
 10
385.78993791859739
 20
382.90793018457993
 30
0.0
 11
515.78993791859727
 21
382.90793018457993
 31
0.0
  0
LINE
  5
73
  8
1
 10
350.78993791859739
 20
292.90793018457981
 30
0.0
 11
350.78993791859739
 21
357.90793018457993
 31
0.0
  0
LINE
  5
74
  8
1
 10
550.78993791859739
 20
292.90793018457981
 30
0.0
 11
550.78993791859739
 21
357.90793018457993
 31
0.0
  0
LINE
  5
75
  8
0
 10
540.78993791859762
 20
347.90793018457981
 30
0.0
 11
540.78993791859762
 21
357.90793018457993
 31
0.0
  0
LINE
  5
76
  8
0
 10
560.78993791859762
 20
347.90793018457981
 30
0.0
 11
560.78993791859762
 21
357.90793018457993
 31
0.0
  0
LINE
  5
77
  8
1
 10
543.78993791859762
 20
340.90793018457981
 30
0.0
 11
557.78993791859762
 21
340.90793018457981
 31
0.0
  0
CIRCLE
  5
78
  8
0
 10
550.78993791859762
 20
340.90793018457981
 30
0.0
 40
2.0
  0
CIRCLE
  5
79
  8
0
 10
550.78993791859762
 20
312.90793018457981
 30
0.0
 40
6.5
  0
LINE
  5
7A
  8
0
 10
553.78993791859784
 20
314.63998099214842
 30
0.0
 11
553.78993791859705
 21
311.1758793770112
 31
0.0
  0
LINE
  5
7B
  8
0
 10
550.78993791859762
 20
316.37203179971772
 30
0.0
 11
553.78993791859784
 21
314.63998099214842
 31
0.0
  0
LINE
  5
7C
  8
0
 10
547.78993791859762
 20
314.63998099214939
 30
0.0
 11
550.78993791859762
 21
316.37203179971772
 31
0.0
  0
LINE
  5
7D
  8
0
 10
547.78993791859762
 20
311.1758793770112
 30
0.0
 11
547.78993791859762
 21
314.63998099214939
 31
0.0
  0
LINE
  5
7E
  8
0
 10
550.78993791859705
 20
309.4438285694423
 30
0.0
 11
547.78993791859762
 21
311.1758793770112
 31
0.0
  0
LINE
  5
7F
  8
0
 10
553.78993791859705
 20
311.1758793770112
 30
0.0
 11
550.78993791859705
 21
309.4438285694423
 31
0.0
  0
CIRCLE
  5
80
  8
0
 10
550.78993791859762
 20
312.90793018457981
 30
0.0
 40
5.6339745962155803
  0
ARC
  5
81
  8
0
 10
550.78993791859739
 20
317.53696339903951
 30
0.0
 40
13.93495203263152
 50
359.73254392820081
 51
180.26745607179919
  0
CIRCLE
  5
82
  8
0
 10
550.78993791859762
 20
312.90793018457981
 30
0.0
 40
6.6000000000001364
  0
LINE
  5
83
  8
0
 10
536.98993791859743
 20
326.90793018457981
 30
0.0
 11
535.78993791859762
 21
326.90793018457981
 31
0.0
  0
LINE
  5
84
  8
0
 10
537.28993791859762
 20
347.90793018457981
 30
0.0
 11
536.78993791859762
 21
312.90793018457981
 31
0.0
  0
LINE
  5
85
  8
0
 10
564.2899379185975
 20
347.90793018457981
 30
0.0
 11
564.78993791859762
 21
312.90793018457981
 31
0.0
  0
ARC
  5
86
  8
0
 10
550.78993791859762
 20
312.90793018457981
 30
0.0
 40
14.0
 50
180.0
 51
0.0
  0
LINE
  5
87
  8
0
 10
565.78993791859727
 20
326.90793018457981
 30
0.0
 11
564.58993791859746
 21
326.90793018457981
 31
0.0
  0
ARC
  5
88
  8
0
 10
550.78993791859739
 20
312.90793018457981
 30
0.0
 40
15.0
 50
180.0
 51
0.0
  0
LINE
  5
89
  8
1
 10
565.78993791859762
 20
312.90793018457981
 30
0.0
 11
535.78993791859762
 21
312.90793018457981
 31
0.0
  0
LINE
  5
8A
  8
0
 10
535.78993791859762
 20
312.90793018457981
 30
0.0
 11
535.78993791859762
 21
326.90793018457981
 31
0.0
  0
LINE
  5
8B
  8
0
 10
564.2899379185975
 20
347.90793018457981
 30
0.0
 11
537.28993791859762
 21
347.90793018457981
 31
0.0
  0
LINE
  5
8C
  8
0
 10
565.78993791859762
 20
312.90793018457981
 30
0.0
 11
565.78993791859762
 21
326.90793018457981
 31
0.0
  0
LINE
  5
8D
  8
1
 10
385.78993791859739
 20
392.90793018457993
 30
0.0
 11
515.78993791859727
 21
392.90793018457993
 31
0.0
  0
ARC
  5
8E
  8
0
 10
385.78993791859739
 20
357.90793018457993
 30
0.0
 40
25.0
 50
89.999999999999986
 51
180.0
  0
ARC
  5
8F
  8
0
 10
385.78993791859739
 20
357.90793018457993
 30
0.0
 40
45.0
 50
89.999999999999986
 51
180.0
  0
ARC
  5
90
  8
1
 10
385.78993791859739
 20
357.90793018457993
 30
0.0
 40
35.0
 50
89.999999999999986
 51
180.0
  0
ARC
  5
91
  8
0
 10
515.78993791859727
 20
357.90793018457993
 30
0.0
 40
45.0
 50
0.0
 51
90.0
  0
ARC
  5
92
  8
1
 10
515.78993791859727
 20
357.90793018457993
 30
0.0
 40
35.0
 50
0.0
 51
90.0
  0
ARC
  5
93
  8
0
 10
515.78993791859727
 20
357.90793018457993
 30
0.0
 40
25.0
 50
0.0
 51
90.0
  0
LINE
  5
94
  8
0
 10
335.78993791859739
 20
171.77175672636571
 30
0.0
 11
365.78993791859739
 21
171.77175672636571
 31
0.0
  0
LINE
  5
95
  8
1
 10
350.78993791859739
 20
152.77175672636579
 30
0.0
 11
350.78993791859739
 21
232.77175672636579
 31
0.0
  0
ARC
  5
96
  8
0
 10
350.78993791859739
 20
214.27175672636579
 30
0.0
 40
13.5
 50
2.01017201050839
 51
177.9898279894916
  0
LINE
  5
97
  8
0
 10
335.78993791859739
 20
171.77175672636571
 30
0.0
 11
337.29824561090498
 21
214.7452951879043
 31
0.0
  0
LINE
  5
98
  8
0
 10
365.78993791859739
 20
171.77175672636571
 30
0.0
 11
364.28163022628968
 21
214.74529518790419
 31
0.0
  0
POLYLINE
  5
99
  8
0
 66
     1
 10
0.0
 20
0.0
 30
0.0
  0
VERTEX
  5
9A
  8
0
 10
336.97894612159502
 20
205.64806061527889
 30
0.0
 42
0.0827663488965848
  0
VERTEX
  5
9B
  8
0
 10
338.06559171660228
 20
199.12849200258631
 30
0.0
 42
0.0905296676239215
  0
VERTEX
  5
9C
  8
0
 10
341.02409196402527
 20
193.8503019597037
 30
0.0
 42
0.1042211828574746
 70
     2
 50
309.61698165889038
  0
VERTEX
  5
9D
  8
0
 10
345.64135415317509
 20
190.1797872642135
 30
0.0
 42
0.1165141120032318
 50
309.61698165889038
  0
VERTEX
  5
9E
  8
0
 10
350.78993791859739
 20
188.96351031895989
 30
0.0
 42
0.1165141120032305
  0
VERTEX
  5
9F
  8
0
 10
355.93852168401958
 20
190.1797872642135
 30
0.0
 42
0.1042211828574737
  0
VERTEX
  5
A0
  8
0
 10
360.5557838731695
 20
193.8503019597037
 30
0.0
 42
0.090529667623925
 70
     2
 50
50.383018341109597
  0
VERTEX
  5
A1
  8
0
 10
363.51428412059249
 20
199.1284920025864
 30
0.0
 42
0.0827663488965858
 50
50.383018341109597
  0
VERTEX
  5
A2
  8
0
 10
364.60092971559982
 20
205.64806061527889
 30
0.0
 42
0.0827663488965858
  0
SEQEND
  5
A3
  8
0
  0
POLYLINE
  5
A4
  8
0
 66
     1
 10
0.0
 20
0.0
 30
0.0
 70
     1
  0
VERTEX
  5
A5
  8
0
 10
350.78993791859739
 20
197.7824869041572
 30
0.0
 42
0.1151415934210808
  0
VERTEX
  5
A6
  8
0
 10
353.25543796268698
 20
198.35787841420591
 30
0.0
 42
0.1039008669419147
  0
VERTEX
  5
A7
  8
0
 10
355.4568426744288
 20
200.08626010622211
 30
0.0
 42
0.0911578734171868
 70
     2
 50
49.999999999999353
  0
VERTEX
  5
A8
  8
0
 10
356.87172925474601
 20
202.578645837068
 30
0.0
 42
0.0838217899890506
 50
49.999999999999353
  0
VERTEX
  5
A9
  8
0
 10
357.38993791859758
 20
205.64806061527901
 30
0.0
 42
0.0838217899890645
  0
VERTEX
  5
AA
  8
0
 10
356.87172925474601
 20
208.71747539349019
 30
0.0
 42
0.0911578734171921
  0
VERTEX
  5
AB
  8
0
 10
355.4568426744288
 20
211.2098611243359
 30
0.0
 42
0.1039008669419211
 70
     2
 50
130.00000000000071
  0
VERTEX
  5
AC
  8
0
 10
353.25543796268693
 20
212.93824281635219
 30
0.0
 42
0.1151415934210804
 50
130.00000000000071
  0
VERTEX
  5
AD
  8
0
 10
350.78993791859739
 20
213.51363432640079
 30
0.0
 42
0.1151415934210832
  0
VERTEX
  5
AE
  8
0
 10
348.32443787450802
 20
212.9382428163521
 30
0.0
 42
0.1039008669419233
  0
VERTEX
  5
AF
  8
0
 10
346.12303316276609
 20
211.2098611243359
 30
0.0
 42
0.0911578734171832
 70
     2
 50
229.99999999999929
  0
VERTEX
  5
B0
  8
0
 10
344.70814658244882
 20
208.71747539348999
 30
0.0
 42
0.083821789989049
 50
229.99999999999929
  0
VERTEX
  5
B1
  8
0
 10
344.18993791859731
 20
205.64806061527901
 30
0.0
 42
0.0838217899890551
  0
VERTEX
  5
B2
  8
0
 10
344.70814658244888
 20
202.5786458370678
 30
0.0
 42
0.0911578734171808
  0
VERTEX
  5
B3
  8
0
 10
346.12303316276609
 20
200.08626010622211
 30
0.0
 42
0.103900866941923
 70
     2
 50
310.00000000000068
  0
VERTEX
  5
B4
  8
0
 10
348.32443787450802
 20
198.35787841420591
 30
0.0
 42
0.1151415934210861
 50
310.00000000000068
  0
SEQEND
  5
B5
  8
0
  0
LINE
  5
B6
  8
1
 10
339.1899379185972
 20
205.64806061527901
 30
0.0
 11
362.3899379185977
 21
205.64806061527901
 31
0.0
  0
LINE
  5
B7
  8
1
 10
562.3899379185973
 20
205.64806061527901
 30
0.0
 11
539.18993791859702
 21
205.64806061527901
 31
0.0
  0
POLYLINE
  5
B8
  8
0
 66
     1
 10
0.0
 20
0.0
 30
0.0
 70
     1
  0
VERTEX
  5
B9
  8
0
 10
550.78993791859705
 20
197.7824869041572
 30
0.0
 42
-0.1151415934210808
  0
VERTEX
  5
BA
  8
0
 10
548.32443787450757
 20
198.35787841420591
 30
0.0
 42
-0.1039008669419147
  0
VERTEX
  5
BB
  8
0
 10
546.12303316276575
 20
200.08626010622211
 30
0.0
 42
-0.0911578734171868
 70
     2
 50
49.999999999999353
  0
VERTEX
  5
BC
  8
0
 10
544.70814658244853
 20
202.578645837068
 30
0.0
 42
-0.0838217899890506
  0
VERTEX
  5
BD
  8
0
 10
544.18993791859691
 20
205.64806061527901
 30
0.0
 42
-0.0838217899890645
  0
VERTEX
  5
BE
  8
0
 10
544.70814658244876
 20
208.71747539349019
 30
0.0
 42
-0.0911578734171921
  0
VERTEX
  5
BF
  8
0
 10
546.12303316276575
 20
211.2098611243359
 30
0.0
 42
-0.1039008669419211
 70
     2
 50
130.00000000000071
  0
VERTEX
  5
C0
  8
0
 10
548.32443787450768
 20
212.93824281635219
 30
0.0
 42
-0.1151415934210804
  0
VERTEX
  5
C1
  8
0
 10
550.78993791859705
 20
213.51363432640079
 30
0.0
 42
-0.1151415934210832
  0
VERTEX
  5
C2
  8
0
 10
553.25543796268653
 20
212.9382428163521
 30
0.0
 42
-0.1039008669419233
  0
VERTEX
  5
C3
  8
0
 10
555.45684267442846
 20
211.2098611243359
 30
0.0
 42
-0.0911578734171832
 70
     2
 50
229.99999999999929
  0
VERTEX
  5
C4
  8
0
 10
556.87172925474567
 20
208.71747539348999
 30
0.0
 42
-0.083821789989049
  0
VERTEX
  5
C5
  8
0
 10
557.3899379185973
 20
205.64806061527901
 30
0.0
 42
-0.0838217899890551
  0
VERTEX
  5
C6
  8
0
 10
556.87172925474567
 20
202.5786458370678
 30
0.0
 42
-0.0911578734171808
  0
VERTEX
  5
C7
  8
0
 10
555.45684267442846
 20
200.08626010622211
 30
0.0
 42
-0.103900866941923
 70
     2
 50
310.00000000000068
  0
VERTEX
  5
C8
  8
0
 10
553.25543796268676
 20
198.35787841420591
 30
0.0
 42
-0.1151415934210861
  0
SEQEND
  5
C9
  8
0
  0
POLYLINE
  5
CA
  8
0
 66
     1
 10
0.0
 20
0.0
 30
0.0
  0
VERTEX
  5
CB
  8
0
 10
564.60092971559959
 20
205.64806061527889
 30
0.0
 42
-0.0827663488965848
  0
VERTEX
  5
CC
  8
0
 10
563.51428412059215
 20
199.12849200258631
 30
0.0
 42
-0.0905296676239215
  0
VERTEX
  5
CD
  8
0
 10
560.55578387316939
 20
193.8503019597037
 30
0.0
 42
-0.1042211828574746
 70
     2
 50
309.61698165889038
  0
VERTEX
  5
CE
  8
0
 10
555.93852168401963
 20
190.1797872642135
 30
0.0
 42
-0.1165141120032318
  0
VERTEX
  5
CF
  8
0
 10
550.78993791859705
 20
188.96351031895989
 30
0.0
 42
-0.1165141120032305
  0
VERTEX
  5
D0
  8
0
 10
545.64135415317492
 20
190.1797872642135
 30
0.0
 42
-0.1042211828574737
  0
VERTEX
  5
D1
  8
0
 10
541.02409196402505
 20
193.8503019597037
 30
0.0
 42
-0.090529667623925
 70
     2
 50
50.383018341109597
  0
VERTEX
  5
D2
  8
0
 10
538.06559171660194
 20
199.1284920025864
 30
0.0
 42
-0.0827663488965858
  0
VERTEX
  5
D3
  8
0
 10
536.97894612159484
 20
205.64806061527889
 30
0.0
 42
-0.0827663488965858
  0
SEQEND
  5
D4
  8
0
  0
LINE
  5
D5
  8
0
 10
535.78993791859716
 20
171.77175672636571
 30
0.0
 11
537.29824561090504
 21
214.74529518790419
 31
0.0
  0
LINE
  5
D6
  8
0
 10
565.78993791859705
 20
171.77175672636571
 30
0.0
 11
564.28163022628951
 21
214.7452951879043
 31
0.0
  0
ARC
  5
D7
  8
0
 10
550.78993791859705
 20
214.27175672636579
 30
0.0
 40
13.5
 50
2.0101720105083949
 51
177.9898279894916
  0
LINE
  5
D8
  8
0
 10
565.78993791859705
 20
171.77175672636571
 30
0.0
 11
535.78993791859727
 21
171.77175672636571
 31
0.0
  0
LINE
  5
D9
  8
0
 10
364.66678520923779
 20
203.77175672636579
 30
0.0
 11
536.91309062795676
 21
203.77175672636579
 31
0.0
  0
LINE
  5
DA
  8
0
 10
360.38160096522279
 20
223.77175672636579
 30
0.0
 11
541.19827487197165
 21
223.77175672636579
 31
0.0
  0
LINE
  5
DB
  8
1
 10
359.31579998756291
 20
213.77175672636579
 30
0.0
 11
542.26407584963181
 21
213.77175672636579
 31
0.0
  0
LINE
  5
DC
  8
0
 10
346.78993791859739
 20
158.9717567263657
 30
0.0
 11
354.78993791859739
 21
158.97175672636581
 31
0.0
  0
LINE
  5
DD
  8
0
 10
353.58993791859729
 20
157.77175672636579
 30
0.0
 11
354.78993791859739
 21
158.97175672636581
 31
0.0
  0
LINE
  5
DE
  8
0
 10
346.78993791859739
 20
158.9717567263657
 30
0.0
 11
347.98993791859738
 21
157.77175672636571
 31
0.0
  0
LINE
  5
DF
  8
0
 10
346.78993791859739
 20
171.77175672636571
 30
0.0
 11
346.78993791859739
 21
169.6790386649605
 31
0.0
  0
LINE
  5
E0
  8
3
 10
347.46643791859719
 20
171.77175672636571
 30
0.0
 11
347.46643791859731
 21
169.6790386649605
 31
0.0
  0
LINE
  5
E1
  8
3
 10
354.11343791859758
 20
171.77175672636571
 30
0.0
 11
354.11343791859758
 21
169.6790386649605
 31
0.0
  0
LINE
  5
E2
  8
0
 10
354.78993791859739
 20
171.77175672636571
 30
0.0
 11
354.78993791859739
 21
169.6790386649605
 31
0.0
  0
LINE
  5
E3
  8
0
 10
347.98993791859738
 20
157.77175672636571
 30
0.0
 11
353.58993791859729
 21
157.77175672636579
 31
0.0
  0
LINE
  5
E4
  8
0
 10
358.78993791859779
 20
169.6790386649605
 30
0.0
 11
358.78993791859779
 21
168.07903866496059
 31
0.0
  0
LINE
  5
E5
  8
0
 10
342.78993791859688
 20
169.6790386649605
 30
0.0
 11
342.78993791859688
 21
168.07903866496059
 31
0.0
  0
LINE
  5
E6
  8
0
 10
342.78993791859688
 20
168.07903866496059
 30
0.0
 11
358.78993791859779
 21
168.07903866496059
 31
0.0
  0
LINE
  5
E7
  8
0
 10
342.78993791859688
 20
169.6790386649605
 30
0.0
 11
358.78993791859779
 21
169.6790386649605
 31
0.0
  0
LINE
  5
E8
  8
3
 10
354.11343791859758
 20
161.67903866496081
 30
0.0
 11
354.11343791859758
 21
158.29525672636589
 31
0.0
  0
LINE
  5
E9
  8
0
 10
354.78993791859739
 20
161.67903866496081
 30
0.0
 11
354.78993791859739
 21
158.97175672636581
 31
0.0
  0
LINE
  5
EA
  8
3
 10
347.46643791859731
 20
161.67903866496081
 30
0.0
 11
347.46643791859731
 21
158.29525672636589
 31
0.0
  0
LINE
  5
EB
  8
0
 10
346.78993791859739
 20
161.67903866496081
 30
0.0
 11
346.78993791859739
 21
158.9717567263657
 31
0.0
  0
LINE
  5
EC
  8
0
 10
357.28993791859722
 20
167.9347010976625
 30
0.0
 11
357.03993791859602
 21
168.07903866496059
 31
0.0
  0
ARC
  5
ED
  8
0
 10
354.03993791859722
 20
158.5475489624138
 30
0.0
 40
9.3871521352487513
 50
69.743841999582827
 51
110.2561580004171
  0
ARC
  5
EE
  8
0
 10
354.03993791859722
 20
171.21052836750749
 30
0.0
 40
9.3871521352487513
 50
249.7438419995828
 51
290.25615800041709
  0
LINE
  5
EF
  8
0
 10
357.28993791859722
 20
161.82337623225879
 30
0.0
 11
357.03993791859602
 21
161.67903866496081
 31
0.0
  0
LINE
  5
F0
  8
0
 10
357.28993791859722
 20
167.9347010976625
 30
0.0
 11
357.28993791859722
 21
161.82337623225879
 31
0.0
  0
LINE
  5
F1
  8
0
 10
350.78993791859739
 20
167.3541445140614
 30
0.0
 11
350.78993791859739
 21
162.4039328158596
 31
0.0
  0
LINE
  5
F2
  8
0
 10
344.28993791859762
 20
167.9347010976625
 30
0.0
 11
344.28993791859762
 21
161.82337623225879
 31
0.0
  0
LINE
  5
F3
  8
0
 10
344.28993791859762
 20
161.82337623225879
 30
0.0
 11
344.53993791859881
 21
161.67903866496081
 31
0.0
  0
ARC
  5
F4
  8
0
 10
347.53993791859762
 20
171.21052836750749
 30
0.0
 40
9.3871521352487513
 50
249.7438419995828
 51
290.25615800041709
  0
ARC
  5
F5
  8
0
 10
347.53993791859762
 20
158.5475489624138
 30
0.0
 40
9.3871521352487513
 50
69.743841999582827
 51
110.2561580004171
  0
LINE
  5
F6
  8
0
 10
344.28993791859762
 20
167.9347010976625
 30
0.0
 11
344.53993791859881
 21
168.07903866496059
 31
0.0
  0
LINE
  5
F7
  8
0
 10
357.03993791859602
 20
161.67903866496081
 30
0.0
 11
344.53993791859881
 21
161.67903866496081
 31
0.0
  0
LINE
  5
F8
  8
0
 10
557.0399379185958
 20
161.67903866496081
 30
0.0
 11
544.53993791859841
 21
161.67903866496081
 31
0.0
  0
LINE
  5
F9
  8
0
 10
544.28993791859727
 20
167.9347010976625
 30
0.0
 11
544.53993791859841
 21
168.07903866496059
 31
0.0
  0
ARC
  5
FA
  8
0
 10
547.53993791859727
 20
158.5475489624138
 30
0.0
 40
9.3871521352487513
 50
69.743841999582827
 51
110.2561580004171
  0
ARC
  5
FB
  8
0
 10
547.53993791859727
 20
171.21052836750749
 30
0.0
 40
9.3871521352487513
 50
249.7438419995828
 51
290.25615800041709
  0
LINE
  5
FC
  8
0
 10
544.28993791859727
 20
161.82337623225879
 30
0.0
 11
544.53993791859841
 21
161.67903866496081
 31
0.0
  0
LINE
  5
FD
  8
0
 10
544.28993791859727
 20
167.9347010976625
 30
0.0
 11
544.28993791859727
 21
161.82337623225879
 31
0.0
  0
LINE
  5
FE
  8
0
 10
550.78993791859705
 20
167.3541445140614
 30
0.0
 11
550.78993791859705
 21
162.4039328158596
 31
0.0
  0
LINE
  5
FF
  8
0
 10
557.28993791859693
 20
167.9347010976625
 30
0.0
 11
557.28993791859693
 21
161.82337623225879
 31
0.0
  0
LINE
  5
100
  8
0
 10
557.28993791859693
 20
161.82337623225879
 30
0.0
 11
557.0399379185958
 21
161.67903866496081
 31
0.0
  0
ARC
  5
101
  8
0
 10
554.03993791859693
 20
171.21052836750749
 30
0.0
 40
9.3871521352487513
 50
249.7438419995828
 51
290.25615800041709
  0
ARC
  5
102
  8
0
 10
554.03993791859693
 20
158.5475489624138
 30
0.0
 40
9.3871521352487513
 50
69.743841999582827
 51
110.2561580004171
  0
LINE
  5
103
  8
0
 10
557.28993791859693
 20
167.9347010976625
 30
0.0
 11
557.0399379185958
 21
168.07903866496059
 31
0.0
  0
LINE
  5
104
  8
0
 10
546.78993791859739
 20
161.67903866496081
 30
0.0
 11
546.78993791859739
 21
158.9717567263657
 31
0.0
  0
LINE
  5
105
  8
3
 10
547.46643791859719
 20
161.67903866496081
 30
0.0
 11
547.46643791859719
 21
158.29525672636589
 31
0.0
  0
LINE
  5
106
  8
0
 10
554.78993791859739
 20
161.67903866496081
 30
0.0
 11
554.78993791859739
 21
158.97175672636581
 31
0.0
  0
LINE
  5
107
  8
3
 10
554.11343791859736
 20
161.67903866496081
 30
0.0
 11
554.11343791859736
 21
158.29525672636589
 31
0.0
  0
LINE
  5
108
  8
0
 10
542.78993791859693
 20
169.6790386649605
 30
0.0
 11
558.78993791859762
 21
169.6790386649605
 31
0.0
  0
LINE
  5
109
  8
0
 10
542.78993791859693
 20
168.07903866496059
 30
0.0
 11
558.78993791859762
 21
168.07903866496059
 31
0.0
  0
LINE
  5
10A
  8
0
 10
542.78993791859693
 20
169.6790386649605
 30
0.0
 11
542.78993791859693
 21
168.07903866496059
 31
0.0
  0
LINE
  5
10B
  8
0
 10
558.78993791859762
 20
169.6790386649605
 30
0.0
 11
558.78993791859762
 21
168.07903866496059
 31
0.0
  0
LINE
  5
10C
  8
0
 10
547.98993791859721
 20
157.77175672636571
 30
0.0
 11
553.58993791859734
 21
157.77175672636579
 31
0.0
  0
LINE
  5
10D
  8
0
 10
554.78993791859705
 20
171.77175672636571
 30
0.0
 11
554.78993791859705
 21
169.6790386649605
 31
0.0
  0
LINE
  5
10E
  8
3
 10
554.11343791859736
 20
171.77175672636571
 30
0.0
 11
554.11343791859736
 21
169.6790386649605
 31
0.0
  0
LINE
  5
10F
  8
3
 10
547.46643791859719
 20
171.77175672636571
 30
0.0
 11
547.46643791859719
 21
169.6790386649605
 31
0.0
  0
LINE
  5
110
  8
0
 10
546.78993791859739
 20
171.77175672636571
 30
0.0
 11
546.78993791859739
 21
169.6790386649605
 31
0.0
  0
LINE
  5
111
  8
0
 10
546.78993791859739
 20
158.9717567263657
 30
0.0
 11
547.98993791859721
 21
157.77175672636571
 31
0.0
  0
LINE
  5
112
  8
0
 10
553.58993791859734
 20
157.77175672636579
 30
0.0
 11
554.78993791859739
 21
158.97175672636581
 31
0.0
  0
LINE
  5
113
  8
0
 10
546.78993791859705
 20
158.9717567263657
 30
0.0
 11
554.78993791859739
 21
158.97175672636581
 31
0.0
  0
LINE
  5
114
  8
1
 10
550.78993791859705
 20
152.77175672636579
 30
0.0
 11
550.78993791859705
 21
232.77175672636579
 31
0.0
  0
LINE
  5
123
  8
0
 10
184.57256250327299
 20
308.90793018457993
 30
0.0
 11
182.47984444186781
 21
308.90793018457993
 31
0.0
  0
LINE
  5
124
  8
3
 10
184.57256250327299
 20
309.5844301845799
 30
0.0
 11
182.47984444186781
 21
309.5844301845799
 31
0.0
  0
LINE
  5
125
  8
3
 10
184.57256250327299
 20
316.23143018457978
 30
0.0
 11
182.47984444186781
 21
316.23143018457978
 31
0.0
  0
LINE
  5
126
  8
0
 10
184.57256250327299
 20
316.90793018457993
 30
0.0
 11
182.47984444186781
 21
316.90793018457993
 31
0.0
  0
TEXT
  5
247
  8
0
 62
     3
 10
0.0
 20
0.0
 30
0.0
 40
10.0
  1
MH13-200B
  7
STANDARD1
  0
ENDSEC
  0
EOF
