  0
SECTION
  2
HEADER
  9
$ACADVER
  1
AC1009
  9
$INSBASE
 10
0.0
 20
0.0
 30
0.0
  9
$EXTMIN
 10
0.0
 20
-2.960436562073669
 30
0.0
  9
$EXTMAX
 10
556.00035346987977
 20
404.0027641911646
 30
0.0
  9
$LIMMIN
 10
0.0
 20
0.0
  9
$LIMMAX
 10
750.0
 20
540.0
  9
$ORTHOMODE
 70
     1
  9
$REGENMODE
 70
     1
  9
$FILLMODE
 70
     1
  9
$QTEXTMODE
 70
     0
  9
$MIRRTEXT
 70
     0
  9
$DRAGMODE
 70
     2
  9
$LTSCALE
 40
20.0
  9
$OSMODE
 70
  3071
  9
$ATTMODE
 70
     1
  9
$TEXTSIZE
 40
8.0
  9
$TRACEWID
 40
0.05
  9
$TEXTSTYLE
  7
STANDARD
  9
$CLAYER
  8
0
  9
$CELTYPE
  6
BYLAYER
  9
$CECOLOR
 62
   256
  9
$DIMSCALE
 40
2.0
  9
$DIMASZ
 40
3.0
  9
$DIMEXO
 40
2.0
  9
$DIMDLI
 40
0.38
  9
$DIMRND
 40
0.0
  9
$DIMDLE
 40
0.0
  9
$DIMEXE
 40
2.0
  9
$DIMTP
 40
0.0
  9
$DIMTM
 40
0.0
  9
$DIMTXT
 40
3.2000000000000002
  9
$DIMCEN
 40
0.0
  9
$DIMTSZ
 40
0.0
  9
$DIMTOL
 70
     0
  9
$DIMLIM
 70
     0
  9
$DIMTIH
 70
     0
  9
$DIMTOH
 70
     0
  9
$DIMSE1
 70
     0
  9
$DIMSE2
 70
     0
  9
$DIMTAD
 70
     1
  9
$DIMZIN
 70
     0
  9
$DIMBLK
  1

  9
$DIMASO
 70
     1
  9
$DIMSHO
 70
     0
  9
$DIMPOST
  1

  9
$DIMAPOST
  1

  9
$DIMALT
 70
     0
  9
$DIMALTD
 70
     2
  9
$DIMALTF
 40
25.399999999999999
  9
$DIMLFAC
 40
1.0
  9
$DIMTOFL
 70
     0
  9
$DIMTVP
 40
1.6000000000000001
  9
$DIMTIX
 70
     1
  9
$DIMSOXD
 70
     0
  9
$DIMSAH
 70
     0
  9
$DIMBLK1
  1

  9
$DIMBLK2
  1

  9
$DIMSTYLE
  2
STANDARD
  9
$DIMCLRD
 70
     4
  9
$DIMCLRE
 70
     4
  9
$DIMCLRT
 70
     4
  9
$DIMTFAC
 40
1.0
  9
$DIMGAP
 40
0.09
  9
$LUNITS
 70
     2
  9
$LUPREC
 70
     1
  9
$SKETCHINC
 40
0.1
  9
$FILLETRAD
 40
1.0
  9
$AUNITS
 70
     0
  9
$AUPREC
 70
     0
  9
$MENU
  1
E:\r13\win\SUPPORT\ACAD
  9
$ELEVATION
 40
0.0
  9
$PELEVATION
 40
0.0
  9
$THICKNESS
 40
0.0
  9
$LIMCHECK
 70
     0
  9
$BLIPMODE
 70
     0
  9
$CHAMFERA
 40
1.1999999999999991
  9
$CHAMFERB
 40
1.1999999999999991
  9
$SKPOLY
 70
     0
  9
$TDCREATE
 40
2449930.5891782409
  9
$TDUPDATE
 40
2456597.6540862969
  9
$TDINDWG
 40
0.001676956
  9
$TDUSRTIMER
 40
0.001676956
  9
$USRTIMER
 70
     1
  9
$ANGBASE
 50
0.0
  9
$ANGDIR
 70
     0
  9
$PDMODE
 70
     0
  9
$PDSIZE
 40
0.0
  9
$PLINEWID
 40
0.0
  9
$COORDS
 70
     1
  9
$SPLFRAME
 70
     0
  9
$SPLINETYPE
 70
     6
  9
$SPLINESEGS
 70
     8
  9
$ATTDIA
 70
     0
  9
$ATTREQ
 70
     1
  9
$HANDLING
 70
     1
  9
$HANDSEED
  5
2D5
  9
$SURFTAB1
 70
     6
  9
$SURFTAB2
 70
     6
  9
$SURFTYPE
 70
     6
  9
$SURFU
 70
     6
  9
$SURFV
 70
     6
  9
$UCSNAME
  2

  9
$UCSORG
 10
0.0
 20
0.0
 30
0.0
  9
$UCSXDIR
 10
1.0
 20
0.0
 30
0.0
  9
$UCSYDIR
 10
0.0
 20
1.0
 30
0.0
  9
$PUCSNAME
  2

  9
$PUCSORG
 10
0.0
 20
0.0
 30
0.0
  9
$PUCSXDIR
 10
1.0
 20
0.0
 30
0.0
  9
$PUCSYDIR
 10
0.0
 20
1.0
 30
0.0
  9
$USERI1
 70
     0
  9
$USERI2
 70
     1
  9
$USERI3
 70
     1
  9
$USERI4
 70
     0
  9
$USERI5
 70
     0
  9
$USERR1
 40
0.0
  9
$USERR2
 40
0.0
  9
$USERR3
 40
0.0
  9
$USERR4
 40
0.0
  9
$USERR5
 40
0.0
  9
$WORLDVIEW
 70
     1
  9
$SHADEDGE
 70
     3
  9
$SHADEDIF
 70
    70
  9
$TILEMODE
 70
     1
  9
$MAXACTVP
 70
    16
  9
$PLIMCHECK
 70
     0
  9
$PEXTMIN
 10
1.0000000000000000E+020
 20
1.0000000000000000E+020
 30
1.0000000000000000E+020
  9
$PEXTMAX
 10
-1.0000000000000000E+020
 20
-1.0000000000000000E+020
 30
-1.0000000000000000E+020
  9
$PLIMMIN
 10
0.0
 20
0.0
  9
$PLIMMAX
 10
12.0
 20
9.0
  9
$UNITMODE
 70
     0
  9
$VISRETAIN
 70
     0
  9
$PLINEGEN
 70
     0
  9
$PSLTSCALE
 70
     0
  0
ENDSEC
  0
SECTION
  2
TABLES
  0
TABLE
  2
VPORT
 70
     1
  0
VPORT
  2
*ACTIVE
 70
     0
 10
0.0
 20
0.0
 11
1.0
 21
1.0
 12
374.98855678130462
 22
269.68405869568772
 13
0.0
 23
0.0
 14
20.0
 24
20.0
 15
20.0
 25
20.0
 16
0.0
 26
0.0
 36
1.0
 17
0.0
 27
0.0
 37
0.0
 40
551.57487251346481
 41
2.304913294797688
 42
50.0
 43
0.0
 44
0.0
 50
0.0
 51
0.0
 71
     0
 72
   500
 73
     1
 74
     0
 75
     0
 76
     0
 77
     0
 78
     2
  0
ENDTAB
  0
TABLE
  2
LTYPE
 70
     4
  0
LTYPE
  2
CONTINUOUS
 70
     0
  3
Solid Line
 72
    65
 73
     0
 40
0.0
  0
LTYPE
  2
CENTER
 70
     0
  3
____ _ ____ _ ____ _ ____ _ ____ _ ____ _ ____
 72
    65
 73
     4
 40
2.0
 49
1.25
 49
-0.25
 49
0.25
 49
-0.25
  0
LTYPE
  2
HIDDEN
 70
     0
  3
_ _ _ _ _ _ _ _ _ _ _ _ _ _ _ _ _ _ _ _ _ _ _
 72
    65
 73
     2
 40
0.375
 49
0.25
 49
-0.125
  0
LTYPE
  2
PHANTOM2
 70
     0
  3
___ _ _ ___ _ _ ___ _ _ ___ _ _
 72
    65
 73
     6
 40
1.25
 49
0.625
 49
-0.125
 49
0.125
 49
-0.125
 49
0.125
 49
-0.125
  0
ENDTAB
  0
TABLE
  2
LAYER
 70
     4
  0
LAYER
  2
0
 70
     0
 62
     7
  6
CONTINUOUS
  0
LAYER
  2
1
 70
     0
 62
     1
  6
CENTER
  0
LAYER
  2
3
 70
     0
 62
     3
  6
CONTINUOUS
  0
LAYER
  2
2
 70
     0
 62
     2
  6
HIDDEN
  0
ENDTAB
  0
TABLE
  2
STYLE
 70
     2
  0
STYLE
  2
STANDARD
 70
     0
 40
0.0
 41
1.0
 50
0.0
 71
     0
 42
8.0
  3
SIMPLEX
  4
BIGFONT
  0
STYLE
  2
STANDARD1
 70
     0
 40
0.0
 41
1.0
 50
0.0
 71
     0
 42
3.0
  3
txt
  4

  0
ENDTAB
  0
TABLE
  2
VIEW
 70
     1
  0
VIEW
  2
ALL
 70
     0
 40
571.67746736573099
 10
467.47538719371647
 20
285.8387336828655
 41
934.95077438743294
 11
0.0
 21
0.0
 31
1.0
 12
0.0
 22
0.0
 32
0.0
 42
50.0
 43
0.0
 44
0.0
 50
0.0
 71
     0
  0
ENDTAB
  0
TABLE
  2
UCS
 70
     0
  0
ENDTAB
  0
TABLE
  2
APPID
 70
     3
  0
APPID
  2
ACAD
 70
     0
  0
APPID
  2
ACAD_MLEADERVER
 70
     0
  0
APPID
  2
ACAD_NAV_VCDISPLAY
 70
     0
  0
ENDTAB
  0
TABLE
  2
DIMSTYLE
 70
     1
  0
DIMSTYLE
  2
STANDARD
 70
     0
  3

  4

  5

  6

  7

 40
1.0
 41
0.18
 42
0.0625
 43
0.38
 44
0.18
 45
0.0
 46
0.0
 47
0.0
 48
0.0
140
0.18
141
0.09
142
0.0
143
25.399999999999999
144
1.0
145
0.0
146
1.0
147
0.09
 71
     0
 72
     0
 73
     1
 74
     1
 75
     0
 76
     0
 77
     0
 78
     0
170
     0
171
     2
172
     0
173
     0
174
     0
175
     0
176
     0
177
     0
178
     0
  0
ENDTAB
  0
ENDSEC
  0
SECTION
  2
BLOCKS
  0
BLOCK
  8
0
  2
$MODEL_SPACE
 70
     0
 10
0.0
 20
0.0
 30
0.0
  3
$MODEL_SPACE
  1

  0
ENDBLK
  5
159
  8
0
  0
BLOCK
 67
     1
  8
0
  2
$PAPER_SPACE
 70
     0
 10
0.0
 20
0.0
 30
0.0
  3
$PAPER_SPACE
  1

  0
ENDBLK
  5
157
 67
     1
  8
0
  0
ENDSEC
  0
SECTION
  2
ENTITIES
  0
LINE
  5
38
  8
0
 10
276.0003534698796
 20
309.0027641911646
 30
0.0
 11
276.0003534698796
 21
323.00276419116449
 31
0.0
  0
LINE
  5
39
  8
0
 10
277.50035346987949
 20
344.00276419116449
 30
0.0
 11
304.50035346987949
 21
344.00276419116449
 31
0.0
  0
LINE
  5
3A
  8
0
 10
306.00035346987949
 20
309.0027641911646
 30
0.0
 11
306.00035346987949
 21
323.00276419116449
 31
0.0
  0
LINE
  5
3B
  8
1
 10
276.0003534698796
 20
309.0027641911646
 30
0.0
 11
306.00035346987949
 21
309.0027641911646
 31
0.0
  0
ARC
  5
3C
  8
0
 10
291.0003534698796
 20
309.0027641911646
 30
0.0
 40
15.0
 50
180.0
 51
0.0
  0
LINE
  5
3D
  8
0
 10
124.7829780545552
 20
294.0027641911646
 30
0.0
 11
124.7829780545552
 21
323.0027641911646
 31
0.0
  0
LINE
  5
3E
  8
0
 10
124.7829780545552
 20
323.0027641911646
 30
0.0
 11
152.7829780545552
 21
323.00276419116449
 31
0.0
  0
LINE
  5
3F
  8
0
 10
180.7829780545552
 20
329.8982877290307
 30
0.0
 11
180.7829780545552
 21
342.00276419116472
 31
0.0
  0
LINE
  5
40
  8
0
 10
154.7829780545552
 20
344.00276419116449
 30
0.0
 11
178.7829780545552
 21
344.00276419116449
 31
0.0
  0
LINE
  5
41
  8
0
 10
144.5134482230099
 20
297.13300033363271
 30
0.0
 11
178.99691610298791
 21
326.0680655134359
 31
0.0
  0
LINE
  5
42
  8
0
 10
143.7829780545552
 20
323.0027641911646
 30
0.0
 11
152.7829780545552
 21
330.55466087176012
 31
0.0
  0
LINE
  5
43
  8
0
 10
152.7829780545552
 20
323.0027641911646
 30
0.0
 11
152.7829780545552
 21
342.00276419116449
 31
0.0
  0
LINE
  5
44
  8
1
 10
105.7829780545552
 20
309.0027641911646
 30
0.0
 11
163.65928194346839
 21
309.0027641911646
 31
0.0
  0
LINE
  5
45
  8
1
 10
166.7829780545552
 20
324.0027641911646
 30
0.0
 11
166.7829780545552
 21
404.0027641911646
 31
0.0
  0
ARC
  5
46
  8
0
 10
166.7829780545552
 20
389.00276419116472
 30
0.0
 40
10.0
 50
0.0
 51
180.0
  0
ARC
  5
47
  8
2
 10
166.7829780545552
 20
389.00276419116472
 30
0.0
 40
10.0
 50
180.0
 51
0.0
  0
ARC
  5
48
  8
0
 10
154.7829780545552
 20
342.00276419116449
 30
0.0
 40
2.0
 50
90.0
 51
180.0
  0
ARC
  5
49
  8
0
 10
178.7829780545552
 20
342.00276419116472
 30
0.0
 40
2.0
 50
0.0
 51
90.0
  0
LINE
  5
4A
  8
0
 10
111.9829780545552
 20
313.0027641911646
 30
0.0
 11
111.9829780545552
 21
305.0027641911646
 31
0.0
  0
LINE
  5
4B
  8
0
 10
110.7829780545553
 20
306.2027641911647
 30
0.0
 11
111.9829780545552
 21
305.0027641911646
 31
0.0
  0
LINE
  5
4C
  8
0
 10
111.9829780545552
 20
313.0027641911646
 30
0.0
 11
110.7829780545552
 21
311.80276419116461
 31
0.0
  0
LINE
  5
4D
  8
0
 10
124.7829780545552
 20
313.0027641911646
 30
0.0
 11
122.69025999314999
 21
313.0027641911646
 31
0.0
  0
LINE
  5
4E
  8
3
 10
124.7829780545552
 20
312.32626419116468
 30
0.0
 11
122.69025999314999
 21
312.32626419116468
 31
0.0
  0
LINE
  5
4F
  8
3
 10
124.7829780545552
 20
305.67926419116452
 30
0.0
 11
122.69025999314999
 21
305.67926419116452
 31
0.0
  0
LINE
  5
50
  8
0
 10
124.7829780545552
 20
305.0027641911646
 30
0.0
 11
122.69025999314999
 21
305.0027641911646
 31
0.0
  0
LINE
  5
51
  8
0
 10
110.7829780545552
 20
311.80276419116461
 30
0.0
 11
110.7829780545553
 21
306.2027641911647
 31
0.0
  0
LINE
  5
52
  8
0
 10
122.69025999314999
 20
301.0027641911642
 30
0.0
 11
121.09025999315
 21
301.0027641911642
 31
0.0
  0
LINE
  5
53
  8
0
 10
122.69025999314999
 20
317.00276419116511
 30
0.0
 11
121.09025999315
 21
317.00276419116511
 31
0.0
  0
LINE
  5
54
  8
0
 10
121.09025999315
 20
317.00276419116511
 30
0.0
 11
121.09025999315
 21
301.0027641911642
 31
0.0
  0
LINE
  5
55
  8
0
 10
122.69025999314999
 20
317.00276419116511
 30
0.0
 11
122.69025999314999
 21
301.0027641911642
 31
0.0
  0
ARC
  5
56
  8
0
 10
117.623352852902
 20
303.37359906656673
 30
0.0
 40
3.3225695729499738
 50
334.38424746782988
 51
34.38424746804094
  0
ARC
  5
57
  8
0
 10
108.52647900945961
 20
309.00276419116619
 30
0.0
 40
12.41944341639239
 50
342.41204622599253
 51
17.587953773998521
  0
LINE
  5
58
  8
0
 10
120.36536584225119
 20
301.49721069170039
 30
0.0
 11
121.09025999315
 21
302.7527641911667
 31
0.0
  0
LINE
  5
59
  8
0
 10
115.415154144049
 20
301.49721069170039
 30
0.0
 11
114.69025999315021
 21
302.7527641911667
 31
0.0
  0
ARC
  5
5A
  8
0
 10
118.1571671333983
 20
303.37359906656673
 30
0.0
 40
3.3225695729499738
 50
145.61575253195889
 51
205.61575253217009
  0
ARC
  5
5B
  8
0
 10
127.2540409768406
 20
309.00276419116619
 30
0.0
 40
12.41944341639239
 50
162.41204622600139
 51
197.58795377400739
  0
LINE
  5
5C
  8
0
 10
120.36536584225119
 20
301.49721069170039
 30
0.0
 11
115.415154144049
 21
301.49721069170039
 31
0.0
  0
LINE
  5
5D
  8
0
 10
120.36536584225119
 20
305.24998744143471
 30
0.0
 11
115.4151541440506
 21
305.24998744143289
 31
0.0
  0
LINE
  5
5E
  8
0
 10
120.36536584225119
 20
312.75554094089591
 30
0.0
 11
115.4151541440506
 21
312.75554094089767
 31
0.0
  0
LINE
  5
5F
  8
0
 10
120.36536584225119
 20
316.50831769063018
 30
0.0
 11
115.415154144049
 21
316.50831769063018
 31
0.0
  0
ARC
  5
60
  8
0
 10
118.1571671333983
 20
314.6319293157639
 30
0.0
 40
3.3225695729499738
 50
154.38424746782991
 51
214.384247468041
  0
LINE
  5
61
  8
0
 10
115.415154144049
 20
316.50831769063018
 30
0.0
 11
114.69025999315021
 21
315.25276419116392
 31
0.0
  0
LINE
  5
62
  8
0
 10
120.36536584225119
 20
316.50831769063018
 30
0.0
 11
121.09025999315
 21
315.25276419116392
 31
0.0
  0
ARC
  5
63
  8
0
 10
117.623352852902
 20
314.6319293157639
 30
0.0
 40
3.3225695729499738
 50
325.615752531959
 51
25.615752532170031
  0
LINE
  5
64
  8
0
 10
114.69025999315021
 20
315.25276419116392
 30
0.0
 11
114.69025999315021
 21
302.75276419116688
 31
0.0
  0
LINE
  5
65
  8
3
 10
114.69025999315021
 20
305.67926419116452
 30
0.0
 11
111.3064780545553
 21
305.67926419116452
 31
0.0
  0
LINE
  5
66
  8
0
 10
114.69025999315021
 20
305.0027641911646
 30
0.0
 11
111.9829780545552
 21
305.0027641911646
 31
0.0
  0
LINE
  5
67
  8
3
 10
114.69025999315021
 20
312.32626419116468
 30
0.0
 11
111.3064780545553
 21
312.32626419116468
 31
0.0
  0
LINE
  5
68
  8
0
 10
114.69025999315021
 20
313.0027641911646
 30
0.0
 11
111.9829780545552
 21
313.0027641911646
 31
0.0
  0
ARC
  5
69
  8
0
 10
175.7829780545552
 20
329.8982877290307
 30
0.0
 40
5.0
 50
310.0
 51
359.99999999999989
  0
LINE
  5
6A
  8
1
 10
181.7829780545552
 20
389.00276419116472
 30
0.0
 11
151.7829780545552
 21
389.00276419116472
 31
0.0
  0
LINE
  5
6B
  8
0
 10
276.0003534698796
 20
323.00276419116449
 30
0.0
 11
277.20035346987947
 21
323.00276419116449
 31
0.0
  0
ARC
  5
6C
  8
0
 10
291.0003534698796
 20
309.0027641911646
 30
0.0
 40
14.0
 50
180.0
 51
0.0
  0
LINE
  5
6D
  8
0
 10
277.50035346987949
 20
344.00276419116449
 30
0.0
 11
277.00035346987949
 21
309.0027641911646
 31
0.0
  0
LINE
  5
6E
  8
0
 10
304.50035346987949
 20
344.00276419116449
 30
0.0
 11
305.0003534698796
 21
309.0027641911646
 31
0.0
  0
LINE
  5
6F
  8
0
 10
304.8003534698795
 20
323.00276419116449
 30
0.0
 11
306.00035346987949
 21
323.00276419116449
 31
0.0
  0
LINE
  5
70
  8
0
 10
124.7829780545552
 20
294.0027641911646
 30
0.0
 11
138.66626481168981
 21
294.81031920190622
 31
0.0
  0
ARC
  5
71
  8
0
 10
138.0855721261446
 20
304.79344476482248
 30
0.0
 40
10.0
 50
273.32899671650802
 51
310.0
  0
CIRCLE
  5
72
  8
0
 10
291.0003534698796
 20
309.0027641911646
 30
0.0
 40
6.6000000000001364
  0
ARC
  5
73
  8
0
 10
291.0003534698796
 20
313.63179740562418
 30
0.0
 40
13.93495203263152
 50
359.73254392820081
 51
180.26745607179919
  0
CIRCLE
  5
74
  8
0
 10
291.0003534698796
 20
309.0027641911646
 30
0.0
 40
5.6339745962155803
  0
LINE
  5
75
  8
0
 10
288.00035346987988
 20
307.27071338359588
 30
0.0
 11
291.00035346987988
 21
305.53866257602698
 31
0.0
  0
LINE
  5
76
  8
0
 10
291.00035346987988
 20
305.53866257602698
 30
0.0
 11
294.00035346987949
 21
307.27071338359588
 31
0.0
  0
LINE
  5
77
  8
0
 10
294.00035346987949
 20
307.27071338359588
 30
0.0
 11
294.00035346987949
 21
310.73481499873418
 31
0.0
  0
LINE
  5
78
  8
0
 10
294.00035346987949
 20
310.73481499873418
 30
0.0
 11
291.0003534698796
 21
312.46686580630251
 31
0.0
  0
LINE
  5
79
  8
0
 10
291.0003534698796
 20
312.46686580630251
 30
0.0
 11
288.0003534698792
 21
310.7348149987331
 31
0.0
  0
LINE
  5
7A
  8
0
 10
288.0003534698792
 20
310.7348149987331
 30
0.0
 11
288.00035346987988
 21
307.27071338359588
 31
0.0
  0
CIRCLE
  5
7B
  8
0
 10
291.0003534698796
 20
309.0027641911646
 30
0.0
 40
6.5
  0
LINE
  5
7C
  8
1
 10
185.7829780545552
 20
337.00276419116449
 30
0.0
 11
147.7829780545552
 21
337.00276419116449
 31
0.0
  0
LINE
  5
7D
  8
0
 10
156.7829780545552
 20
344.00276419116449
 30
0.0
 11
156.7829780545552
 21
389.00276419116472
 31
0.0
  0
LINE
  5
7E
  8
0
 10
176.7829780545552
 20
344.00276419116449
 30
0.0
 11
176.7829780545552
 21
389.00276419116472
 31
0.0
  0
CIRCLE
  5
7F
  8
0
 10
291.00035346987949
 20
337.00276419116449
 30
0.0
 40
2.0
  0
LINE
  5
80
  8
1
 10
298.00035346987949
 20
337.00276419116449
 30
0.0
 11
284.00035346987949
 21
337.00276419116449
 31
0.0
  0
LINE
  5
81
  8
0
 10
326.0003534698796
 20
399.0027641911646
 30
0.0
 11
506.00035346987949
 21
399.0027641911646
 31
0.0
  0
LINE
  5
82
  8
0
 10
281.00035346987949
 20
344.00276419116449
 30
0.0
 11
281.00035346987949
 21
354.00276419116472
 31
0.0
  0
LINE
  5
83
  8
0
 10
301.0003534698796
 20
344.00276419116449
 30
0.0
 11
301.0003534698796
 21
354.00276419116472
 31
0.0
  0
LINE
  5
84
  8
0
 10
326.0003534698796
 20
379.00276419116472
 30
0.0
 11
506.00035346987949
 21
379.0027641911646
 31
0.0
  0
LINE
  5
85
  8
1
 10
291.0003534698796
 20
289.00276419116449
 30
0.0
 11
291.0003534698796
 21
354.00276419116472
 31
0.0
  0
LINE
  5
86
  8
1
 10
541.00035346987954
 20
289.00276419116449
 30
0.0
 11
541.00035346987954
 21
354.00276419116472
 31
0.0
  0
LINE
  5
87
  8
0
 10
531.00035346987977
 20
344.00276419116449
 30
0.0
 11
531.00035346987977
 21
354.00276419116472
 31
0.0
  0
LINE
  5
88
  8
0
 10
551.00035346987966
 20
344.00276419116449
 30
0.0
 11
551.00035346987966
 21
354.00276419116472
 31
0.0
  0
LINE
  5
89
  8
1
 10
534.00035346987966
 20
337.00276419116449
 30
0.0
 11
548.00035346987977
 21
337.00276419116449
 31
0.0
  0
CIRCLE
  5
8A
  8
0
 10
541.00035346987966
 20
337.00276419116449
 30
0.0
 40
2.0
  0
CIRCLE
  5
8B
  8
0
 10
541.00035346987966
 20
309.0027641911646
 30
0.0
 40
6.5
  0
LINE
  5
8C
  8
0
 10
544.00035346987988
 20
310.7348149987331
 30
0.0
 11
544.00035346987931
 21
307.27071338359588
 31
0.0
  0
LINE
  5
8D
  8
0
 10
541.00035346987966
 20
312.46686580630251
 30
0.0
 11
544.00035346987988
 21
310.7348149987331
 31
0.0
  0
LINE
  5
8E
  8
0
 10
538.00035346987966
 20
310.73481499873418
 30
0.0
 11
541.00035346987966
 21
312.46686580630251
 31
0.0
  0
LINE
  5
8F
  8
0
 10
538.00035346987966
 20
307.27071338359588
 30
0.0
 11
538.00035346987966
 21
310.73481499873418
 31
0.0
  0
LINE
  5
90
  8
0
 10
541.00035346987931
 20
305.53866257602698
 30
0.0
 11
538.00035346987966
 21
307.27071338359588
 31
0.0
  0
LINE
  5
91
  8
0
 10
544.00035346987931
 20
307.27071338359588
 30
0.0
 11
541.00035346987931
 21
305.53866257602698
 31
0.0
  0
CIRCLE
  5
92
  8
0
 10
541.00035346987966
 20
309.0027641911646
 30
0.0
 40
5.6339745962155803
  0
ARC
  5
93
  8
0
 10
541.00035346987954
 20
313.63179740562418
 30
0.0
 40
13.93495203263152
 50
359.73254392820081
 51
180.26745607179919
  0
CIRCLE
  5
94
  8
0
 10
541.00035346987966
 20
309.0027641911646
 30
0.0
 40
6.6000000000001364
  0
LINE
  5
95
  8
0
 10
527.20035346987959
 20
323.00276419116449
 30
0.0
 11
526.00035346987966
 21
323.00276419116449
 31
0.0
  0
LINE
  5
96
  8
0
 10
527.50035346987977
 20
344.00276419116449
 30
0.0
 11
527.00035346987977
 21
309.0027641911646
 31
0.0
  0
LINE
  5
97
  8
0
 10
554.50035346987966
 20
344.00276419116449
 30
0.0
 11
555.00035346987966
 21
309.0027641911646
 31
0.0
  0
ARC
  5
98
  8
0
 10
541.00035346987966
 20
309.0027641911646
 30
0.0
 40
14.0
 50
180.0
 51
0.0
  0
LINE
  5
99
  8
0
 10
556.00035346987954
 20
323.00276419116449
 30
0.0
 11
554.80035346987972
 21
323.00276419116449
 31
0.0
  0
ARC
  5
9A
  8
0
 10
541.00035346987954
 20
309.0027641911646
 30
0.0
 40
15.0
 50
180.0
 51
0.0
  0
LINE
  5
9B
  8
1
 10
556.00035346987977
 20
309.0027641911646
 30
0.0
 11
526.00035346987966
 21
309.0027641911646
 31
0.0
  0
LINE
  5
9C
  8
0
 10
526.00035346987966
 20
309.0027641911646
 30
0.0
 11
526.00035346987966
 21
323.00276419116449
 31
0.0
  0
LINE
  5
9D
  8
0
 10
554.50035346987966
 20
344.00276419116449
 30
0.0
 11
527.50035346987977
 21
344.00276419116449
 31
0.0
  0
LINE
  5
9E
  8
0
 10
556.00035346987977
 20
309.0027641911646
 30
0.0
 11
556.00035346987977
 21
323.00276419116449
 31
0.0
  0
LINE
  5
9F
  8
1
 10
326.0003534698796
 20
389.00276419116472
 30
0.0
 11
506.00035346987949
 21
389.00276419116472
 31
0.0
  0
ARC
  5
A0
  8
0
 10
326.0003534698796
 20
354.00276419116472
 30
0.0
 40
25.0
 50
89.999999999999986
 51
180.0
  0
ARC
  5
A1
  8
0
 10
326.0003534698796
 20
354.00276419116472
 30
0.0
 40
45.0
 50
89.999999999999986
 51
180.0
  0
ARC
  5
A2
  8
1
 10
326.0003534698796
 20
354.00276419116472
 30
0.0
 40
35.0
 50
89.999999999999986
 51
180.0
  0
ARC
  5
A3
  8
0
 10
506.00035346987949
 20
354.00276419116472
 30
0.0
 40
45.0
 50
0.0
 51
90.0
  0
ARC
  5
A4
  8
1
 10
506.00035346987949
 20
354.00276419116472
 30
0.0
 40
35.0
 50
0.0
 51
90.0
  0
ARC
  5
A5
  8
0
 10
506.00035346987949
 20
354.00276419116472
 30
0.0
 40
25.0
 50
0.0
 51
90.0
  0
LINE
  5
A6
  8
0
 10
276.0003534698796
 20
167.8665907329505
 30
0.0
 11
306.00035346987949
 21
167.8665907329505
 31
0.0
  0
LINE
  5
A7
  8
1
 10
291.0003534698796
 20
148.8665907329505
 30
0.0
 11
291.0003534698796
 21
228.8665907329505
 31
0.0
  0
ARC
  5
A8
  8
0
 10
291.0003534698796
 20
210.3665907329505
 30
0.0
 40
13.5
 50
2.01017201050839
 51
177.9898279894916
  0
LINE
  5
A9
  8
0
 10
276.0003534698796
 20
167.8665907329505
 30
0.0
 11
277.50866116218731
 21
210.84012919448901
 31
0.0
  0
LINE
  5
AA
  8
0
 10
306.0003534698796
 20
167.8665907329505
 30
0.0
 11
304.49204577757189
 21
210.8401291944889
 31
0.0
  0
POLYLINE
  5
AB
  8
0
 66
     1
 10
0.0
 20
0.0
 30
0.0
  0
VERTEX
  5
AC
  8
0
 10
277.18936167287711
 20
201.7428946218636
 30
0.0
 42
0.0827663488965848
  0
VERTEX
  5
AD
  8
0
 10
278.27600726788449
 20
195.2233260091711
 30
0.0
 42
0.0905296676239215
  0
VERTEX
  5
AE
  8
0
 10
281.23450751530748
 20
189.94513596628849
 30
0.0
 42
0.1042211828574746
 70
     2
 50
309.61698165889038
  0
VERTEX
  5
AF
  8
0
 10
285.8517697044573
 20
186.27462127079829
 30
0.0
 42
0.1165141120032318
 50
309.61698165889038
  0
VERTEX
  5
B0
  8
0
 10
291.0003534698796
 20
185.05834432554471
 30
0.0
 42
0.1165141120032305
  0
VERTEX
  5
B1
  8
0
 10
296.1489372353019
 20
186.27462127079829
 30
0.0
 42
0.1042211828574737
  0
VERTEX
  5
B2
  8
0
 10
300.76619942445183
 20
189.94513596628849
 30
0.0
 42
0.090529667623925
 70
     2
 50
50.383018341109597
  0
VERTEX
  5
B3
  8
0
 10
303.7246996718747
 20
195.22332600917119
 30
0.0
 42
0.0827663488965858
 50
50.383018341109597
  0
VERTEX
  5
B4
  8
0
 10
304.81134526688197
 20
201.7428946218636
 30
0.0
 42
0.0827663488965858
  0
SEQEND
  5
B5
  8
0
  0
POLYLINE
  5
B6
  8
0
 66
     1
 10
0.0
 20
0.0
 30
0.0
 70
     1
  0
VERTEX
  5
B7
  8
0
 10
291.0003534698796
 20
193.8773209107419
 30
0.0
 42
0.1151415934210808
  0
VERTEX
  5
B8
  8
0
 10
293.46585351396919
 20
194.45271242079059
 30
0.0
 42
0.1039008669419147
  0
VERTEX
  5
B9
  8
0
 10
295.66725822571101
 20
196.18109411280679
 30
0.0
 42
0.0911578734171868
 70
     2
 50
49.999999999999353
  0
VERTEX
  5
BA
  8
0
 10
297.08214480602828
 20
198.6734798436527
 30
0.0
 42
0.0838217899890506
 50
49.999999999999353
  0
VERTEX
  5
BB
  8
0
 10
297.60035346987991
 20
201.74289462186371
 30
0.0
 42
0.0838217899890645
  0
VERTEX
  5
BC
  8
0
 10
297.08214480602823
 20
204.81230940007489
 30
0.0
 42
0.0911578734171921
  0
VERTEX
  5
BD
  8
0
 10
295.66725822571101
 20
207.30469513092061
 30
0.0
 42
0.1039008669419211
 70
     2
 50
130.00000000000071
  0
VERTEX
  5
BE
  8
0
 10
293.46585351396908
 20
209.03307682293689
 30
0.0
 42
0.1151415934210804
 50
130.00000000000071
  0
VERTEX
  5
BF
  8
0
 10
291.0003534698796
 20
209.60846833298561
 30
0.0
 42
0.1151415934210832
  0
VERTEX
  5
C0
  8
0
 10
288.53485342579017
 20
209.03307682293689
 30
0.0
 42
0.1039008669419233
  0
VERTEX
  5
C1
  8
0
 10
286.3334487140483
 20
207.30469513092061
 30
0.0
 42
0.0911578734171832
 70
     2
 50
229.99999999999929
  0
VERTEX
  5
C2
  8
0
 10
284.91856213373097
 20
204.81230940007481
 30
0.0
 42
0.083821789989049
 50
229.99999999999929
  0
VERTEX
  5
C3
  8
0
 10
284.40035346987952
 20
201.74289462186371
 30
0.0
 42
0.0838217899890551
  0
VERTEX
  5
C4
  8
0
 10
284.91856213373109
 20
198.67347984365259
 30
0.0
 42
0.0911578734171808
  0
VERTEX
  5
C5
  8
0
 10
286.3334487140483
 20
196.18109411280679
 30
0.0
 42
0.103900866941923
 70
     2
 50
310.00000000000068
  0
VERTEX
  5
C6
  8
0
 10
288.53485342579017
 20
194.45271242079059
 30
0.0
 42
0.1151415934210861
 50
310.00000000000068
  0
SEQEND
  5
C7
  8
0
  0
LINE
  5
C8
  8
1
 10
279.40035346987952
 20
201.74289462186371
 30
0.0
 11
302.60035346987979
 21
201.74289462186371
 31
0.0
  0
LINE
  5
C9
  8
1
 10
552.60035346987945
 20
201.74289462186371
 30
0.0
 11
529.40035346987906
 21
201.74289462186371
 31
0.0
  0
POLYLINE
  5
CA
  8
0
 66
     1
 10
0.0
 20
0.0
 30
0.0
 70
     1
  0
VERTEX
  5
CB
  8
0
 10
541.00035346987931
 20
193.8773209107419
 30
0.0
 42
-0.1151415934210808
  0
VERTEX
  5
CC
  8
0
 10
538.53485342578972
 20
194.45271242079059
 30
0.0
 42
-0.1039008669419147
  0
VERTEX
  5
CD
  8
0
 10
536.3334487140479
 20
196.18109411280679
 30
0.0
 42
-0.0911578734171868
 70
     2
 50
49.999999999999353
  0
VERTEX
  5
CE
  8
0
 10
534.91856213373069
 20
198.6734798436527
 30
0.0
 42
-0.0838217899890506
  0
VERTEX
  5
CF
  8
0
 10
534.40035346987906
 20
201.74289462186371
 30
0.0
 42
-0.0838217899890645
  0
VERTEX
  5
D0
  8
0
 10
534.91856213373092
 20
204.81230940007489
 30
0.0
 42
-0.0911578734171921
  0
VERTEX
  5
D1
  8
0
 10
536.3334487140479
 20
207.30469513092061
 30
0.0
 42
-0.1039008669419211
 70
     2
 50
130.00000000000071
  0
VERTEX
  5
D2
  8
0
 10
538.53485342578995
 20
209.03307682293689
 30
0.0
 42
-0.1151415934210804
  0
VERTEX
  5
D3
  8
0
 10
541.00035346987931
 20
209.60846833298561
 30
0.0
 42
-0.1151415934210832
  0
VERTEX
  5
D4
  8
0
 10
543.46585351396857
 20
209.03307682293689
 30
0.0
 42
-0.1039008669419233
  0
VERTEX
  5
D5
  8
0
 10
545.66725822571073
 20
207.30469513092061
 30
0.0
 42
-0.0911578734171832
 70
     2
 50
229.99999999999929
  0
VERTEX
  5
D6
  8
0
 10
547.08214480602794
 20
204.81230940007481
 30
0.0
 42
-0.083821789989049
  0
VERTEX
  5
D7
  8
0
 10
547.60035346987945
 20
201.74289462186371
 30
0.0
 42
-0.0838217899890551
  0
VERTEX
  5
D8
  8
0
 10
547.08214480602794
 20
198.67347984365259
 30
0.0
 42
-0.0911578734171808
  0
VERTEX
  5
D9
  8
0
 10
545.66725822571073
 20
196.18109411280679
 30
0.0
 42
-0.103900866941923
 70
     2
 50
310.00000000000068
  0
VERTEX
  5
DA
  8
0
 10
543.4658535139688
 20
194.45271242079059
 30
0.0
 42
-0.1151415934210861
  0
SEQEND
  5
DB
  8
0
  0
POLYLINE
  5
DC
  8
0
 66
     1
 10
0.0
 20
0.0
 30
0.0
  0
VERTEX
  5
DD
  8
0
 10
554.81134526688174
 20
201.7428946218636
 30
0.0
 42
-0.0827663488965848
  0
VERTEX
  5
DE
  8
0
 10
553.72469967187442
 20
195.2233260091711
 30
0.0
 42
-0.0905296676239215
  0
VERTEX
  5
DF
  8
0
 10
550.76619942445166
 20
189.94513596628849
 30
0.0
 42
-0.1042211828574746
 70
     2
 50
309.61698165889038
  0
VERTEX
  5
E0
  8
0
 10
546.14893723530179
 20
186.27462127079829
 30
0.0
 42
-0.1165141120032318
  0
VERTEX
  5
E1
  8
0
 10
541.00035346987931
 20
185.05834432554471
 30
0.0
 42
-0.1165141120032305
  0
VERTEX
  5
E2
  8
0
 10
535.85176970445696
 20
186.27462127079829
 30
0.0
 42
-0.1042211828574737
  0
VERTEX
  5
E3
  8
0
 10
531.23450751530709
 20
189.94513596628849
 30
0.0
 42
-0.090529667623925
 70
     2
 50
50.383018341109597
  0
VERTEX
  5
E4
  8
0
 10
528.27600726788421
 20
195.22332600917119
 30
0.0
 42
-0.0827663488965858
  0
VERTEX
  5
E5
  8
0
 10
527.18936167287688
 20
201.7428946218636
 30
0.0
 42
-0.0827663488965858
  0
SEQEND
  5
E6
  8
0
  0
LINE
  5
E7
  8
0
 10
526.00035346987931
 20
167.8665907329505
 30
0.0
 11
527.5086611621872
 21
210.8401291944889
 31
0.0
  0
LINE
  5
E8
  8
0
 10
556.0003534698792
 20
167.8665907329505
 30
0.0
 11
554.49204577757155
 21
210.84012919448901
 31
0.0
  0
ARC
  5
E9
  8
0
 10
541.00035346987931
 20
210.3665907329505
 30
0.0
 40
13.5
 50
2.0101720105083949
 51
177.9898279894916
  0
LINE
  5
EA
  8
0
 10
556.0003534698792
 20
167.8665907329505
 30
0.0
 11
526.00035346987954
 21
167.8665907329505
 31
0.0
  0
LINE
  5
EB
  8
0
 10
304.87720076052
 20
199.8665907329505
 30
0.0
 11
527.1235061792388
 21
199.8665907329505
 31
0.0
  0
LINE
  5
EC
  8
0
 10
300.592016516505
 20
219.8665907329505
 30
0.0
 11
531.40869042325392
 21
219.8665907329505
 31
0.0
  0
LINE
  5
ED
  8
1
 10
299.52621553884512
 20
209.86659073295061
 30
0.0
 11
532.47449140091385
 21
209.86659073295061
 31
0.0
  0
LINE
  5
EE
  8
0
 10
287.0003534698796
 20
155.06659073295049
 30
0.0
 11
295.0003534698796
 21
155.06659073295049
 31
0.0
  0
LINE
  5
EF
  8
0
 10
293.80035346987961
 20
153.8665907329505
 30
0.0
 11
295.0003534698796
 21
155.06659073295049
 31
0.0
  0
LINE
  5
F0
  8
0
 10
287.0003534698796
 20
155.06659073295049
 30
0.0
 11
288.20035346987959
 21
153.8665907329505
 31
0.0
  0
LINE
  5
F1
  8
0
 10
287.0003534698796
 20
167.8665907329505
 30
0.0
 11
287.0003534698796
 21
165.77387267154529
 31
0.0
  0
LINE
  5
F2
  8
3
 10
287.67685346987952
 20
167.8665907329505
 30
0.0
 11
287.67685346987952
 21
165.77387267154529
 31
0.0
  0
LINE
  5
F3
  8
3
 10
294.32385346987968
 20
167.8665907329505
 30
0.0
 11
294.32385346987968
 21
165.77387267154529
 31
0.0
  0
LINE
  5
F4
  8
0
 10
295.0003534698796
 20
167.8665907329505
 30
0.0
 11
295.0003534698796
 21
165.77387267154529
 31
0.0
  0
LINE
  5
F5
  8
0
 10
288.20035346987959
 20
153.8665907329505
 30
0.0
 11
293.80035346987961
 21
153.8665907329505
 31
0.0
  0
LINE
  5
F6
  8
0
 10
299.00035346988
 20
165.77387267154529
 30
0.0
 11
299.00035346988
 21
164.1738726715453
 31
0.0
  0
LINE
  5
F7
  8
0
 10
283.0003534698792
 20
165.77387267154529
 30
0.0
 11
283.0003534698792
 21
164.1738726715453
 31
0.0
  0
LINE
  5
F8
  8
0
 10
283.0003534698792
 20
164.1738726715453
 30
0.0
 11
299.00035346988
 21
164.1738726715453
 31
0.0
  0
LINE
  5
F9
  8
0
 10
283.0003534698792
 20
165.77387267154529
 30
0.0
 11
299.00035346988
 21
165.77387267154529
 31
0.0
  0
LINE
  5
FA
  8
3
 10
294.32385346987968
 20
157.77387267154549
 30
0.0
 11
294.32385346987968
 21
154.3900907329506
 31
0.0
  0
LINE
  5
FB
  8
0
 10
295.0003534698796
 20
157.77387267154549
 30
0.0
 11
295.0003534698796
 21
155.06659073295049
 31
0.0
  0
LINE
  5
FC
  8
3
 10
287.67685346987952
 20
157.77387267154549
 30
0.0
 11
287.67685346987952
 21
154.3900907329506
 31
0.0
  0
LINE
  5
FD
  8
0
 10
287.0003534698796
 20
157.77387267154549
 30
0.0
 11
287.0003534698796
 21
155.06659073295049
 31
0.0
  0
LINE
  5
FE
  8
0
 10
297.50035346987943
 20
164.0295351042472
 30
0.0
 11
297.25035346987818
 21
164.1738726715453
 31
0.0
  0
ARC
  5
FF
  8
0
 10
294.25035346987931
 20
154.6423829689985
 30
0.0
 40
9.3871521352487513
 50
69.743841999582827
 51
110.2561580004171
  0
ARC
  5
100
  8
0
 10
294.25035346987931
 20
167.30536237409231
 30
0.0
 40
9.3871521352487513
 50
249.7438419995828
 51
290.25615800041709
  0
LINE
  5
101
  8
0
 10
297.50035346987943
 20
157.9182102388435
 30
0.0
 11
297.25035346987818
 21
157.77387267154549
 31
0.0
  0
LINE
  5
102
  8
0
 10
297.50035346987943
 20
164.0295351042472
 30
0.0
 11
297.50035346987943
 21
157.9182102388435
 31
0.0
  0
LINE
  5
103
  8
0
 10
291.0003534698796
 20
163.44897852064611
 30
0.0
 11
291.0003534698796
 21
158.49876682244431
 31
0.0
  0
LINE
  5
104
  8
0
 10
284.50035346987983
 20
164.0295351042472
 30
0.0
 11
284.50035346987983
 21
157.9182102388435
 31
0.0
  0
LINE
  5
105
  8
0
 10
284.50035346987983
 20
157.9182102388435
 30
0.0
 11
284.75035346988102
 21
157.77387267154549
 31
0.0
  0
ARC
  5
106
  8
0
 10
287.75035346987983
 20
167.30536237409231
 30
0.0
 40
9.3871521352487513
 50
249.7438419995828
 51
290.25615800041709
  0
ARC
  5
107
  8
0
 10
287.75035346987983
 20
154.6423829689985
 30
0.0
 40
9.3871521352487513
 50
69.743841999582827
 51
110.2561580004171
  0
LINE
  5
108
  8
0
 10
284.50035346987983
 20
164.0295351042472
 30
0.0
 11
284.75035346988102
 21
164.1738726715453
 31
0.0
  0
LINE
  5
109
  8
0
 10
297.25035346987818
 20
157.77387267154549
 30
0.0
 11
284.75035346988102
 21
157.77387267154549
 31
0.0
  0
LINE
  5
10A
  8
0
 10
547.25035346987795
 20
157.77387267154549
 30
0.0
 11
534.75035346988057
 21
157.77387267154549
 31
0.0
  0
LINE
  5
10B
  8
0
 10
534.50035346987954
 20
164.0295351042472
 30
0.0
 11
534.75035346988057
 21
164.1738726715453
 31
0.0
  0
ARC
  5
10C
  8
0
 10
537.75035346987954
 20
154.6423829689985
 30
0.0
 40
9.3871521352487513
 50
69.743841999582827
 51
110.2561580004171
  0
ARC
  5
10D
  8
0
 10
537.75035346987954
 20
167.30536237409231
 30
0.0
 40
9.3871521352487513
 50
249.7438419995828
 51
290.25615800041709
  0
LINE
  5
10E
  8
0
 10
534.50035346987954
 20
157.9182102388435
 30
0.0
 11
534.75035346988057
 21
157.77387267154549
 31
0.0
  0
LINE
  5
10F
  8
0
 10
534.50035346987954
 20
164.0295351042472
 30
0.0
 11
534.50035346987954
 21
157.9182102388435
 31
0.0
  0
LINE
  5
110
  8
0
 10
541.00035346987931
 20
163.44897852064611
 30
0.0
 11
541.00035346987931
 21
158.49876682244431
 31
0.0
  0
LINE
  5
111
  8
0
 10
547.50035346987909
 20
164.0295351042472
 30
0.0
 11
547.50035346987909
 21
157.9182102388435
 31
0.0
  0
LINE
  5
112
  8
0
 10
547.50035346987909
 20
157.9182102388435
 30
0.0
 11
547.25035346987795
 21
157.77387267154549
 31
0.0
  0
ARC
  5
113
  8
0
 10
544.25035346987909
 20
167.30536237409231
 30
0.0
 40
9.3871521352487513
 50
249.7438419995828
 51
290.25615800041709
  0
ARC
  5
114
  8
0
 10
544.25035346987909
 20
154.6423829689985
 30
0.0
 40
9.3871521352487513
 50
69.743841999582827
 51
110.2561580004171
  0
LINE
  5
115
  8
0
 10
547.50035346987909
 20
164.0295351042472
 30
0.0
 11
547.25035346987795
 21
164.1738726715453
 31
0.0
  0
LINE
  5
116
  8
0
 10
537.00035346987954
 20
157.77387267154549
 30
0.0
 11
537.00035346987954
 21
155.06659073295049
 31
0.0
  0
LINE
  5
117
  8
3
 10
537.67685346987935
 20
157.77387267154549
 30
0.0
 11
537.67685346987935
 21
154.3900907329506
 31
0.0
  0
LINE
  5
118
  8
0
 10
545.00035346987954
 20
157.77387267154549
 30
0.0
 11
545.00035346987954
 21
155.06659073295049
 31
0.0
  0
LINE
  5
119
  8
3
 10
544.32385346987951
 20
157.77387267154549
 30
0.0
 11
544.32385346987951
 21
154.3900907329506
 31
0.0
  0
LINE
  5
11A
  8
0
 10
533.00035346987897
 20
165.77387267154529
 30
0.0
 11
549.00035346987966
 21
165.77387267154529
 31
0.0
  0
LINE
  5
11B
  8
0
 10
533.00035346987897
 20
164.1738726715453
 30
0.0
 11
549.00035346987966
 21
164.1738726715453
 31
0.0
  0
LINE
  5
11C
  8
0
 10
533.00035346987897
 20
165.77387267154529
 30
0.0
 11
533.00035346987897
 21
164.1738726715453
 31
0.0
  0
LINE
  5
11D
  8
0
 10
549.00035346987966
 20
165.77387267154529
 30
0.0
 11
549.00035346987966
 21
164.1738726715453
 31
0.0
  0
LINE
  5
11E
  8
0
 10
538.20035346987925
 20
153.8665907329505
 30
0.0
 11
543.80035346987938
 21
153.8665907329505
 31
0.0
  0
LINE
  5
11F
  8
0
 10
545.00035346987931
 20
167.8665907329505
 30
0.0
 11
545.00035346987931
 21
165.77387267154529
 31
0.0
  0
LINE
  5
120
  8
3
 10
544.32385346987951
 20
167.8665907329505
 30
0.0
 11
544.32385346987951
 21
165.77387267154529
 31
0.0
  0
LINE
  5
121
  8
3
 10
537.67685346987935
 20
167.8665907329505
 30
0.0
 11
537.67685346987935
 21
165.77387267154529
 31
0.0
  0
LINE
  5
122
  8
0
 10
537.00035346987954
 20
167.8665907329505
 30
0.0
 11
537.00035346987954
 21
165.77387267154529
 31
0.0
  0
LINE
  5
123
  8
0
 10
537.00035346987954
 20
155.06659073295049
 30
0.0
 11
538.20035346987925
 21
153.8665907329505
 31
0.0
  0
LINE
  5
124
  8
0
 10
543.80035346987938
 20
153.8665907329505
 30
0.0
 11
545.00035346987954
 21
155.06659073295049
 31
0.0
  0
LINE
  5
125
  8
0
 10
537.00035346987931
 20
155.06659073295049
 30
0.0
 11
545.00035346987954
 21
155.06659073295049
 31
0.0
  0
LINE
  5
126
  8
1
 10
541.00035346987931
 20
148.8665907329505
 30
0.0
 11
541.00035346987931
 21
228.8665907329505
 31
0.0
  0
TEXT
  5
247
  8
0
 62
     3
 10
0.0
 20
0.0
 30
0.0
 40
10.0
  1
MH13-250B
  7
STANDARD1
  0
ENDSEC
  0
EOF
