  0
SECTION
  2
HEADER
  9
$ACADVER
  1
AC1009
  9
$INSBASE
 10
0.0
 20
0.0
 30
0.0
  9
$EXTMIN
 10
0.0
 20
-2.960436562073669
 30
0.0
  9
$EXTMAX
 10
598.42657480741491
 20
417.57263417795298
 30
0.0
  9
$LIMMIN
 10
0.0
 20
0.0
  9
$LIMMAX
 10
750.0
 20
540.0
  9
$ORTHOMODE
 70
     1
  9
$REGENMODE
 70
     1
  9
$FILLMODE
 70
     1
  9
$QTEXTMODE
 70
     0
  9
$MIRRTEXT
 70
     0
  9
$DRAGMODE
 70
     2
  9
$LTSCALE
 40
20.0
  9
$OSMODE
 70
  3071
  9
$ATTMODE
 70
     1
  9
$TEXTSIZE
 40
8.0
  9
$TRACEWID
 40
0.05
  9
$TEXTSTYLE
  7
STANDARD
  9
$CLAYER
  8
0
  9
$CELTYPE
  6
BYLAYER
  9
$CECOLOR
 62
   256
  9
$DIMSCALE
 40
2.0
  9
$DIMASZ
 40
3.0
  9
$DIMEXO
 40
2.0
  9
$DIMDLI
 40
0.38
  9
$DIMRND
 40
0.0
  9
$DIMDLE
 40
0.0
  9
$DIMEXE
 40
2.0
  9
$DIMTP
 40
0.0
  9
$DIMTM
 40
0.0
  9
$DIMTXT
 40
3.2000000000000002
  9
$DIMCEN
 40
0.0
  9
$DIMTSZ
 40
0.0
  9
$DIMTOL
 70
     0
  9
$DIMLIM
 70
     0
  9
$DIMTIH
 70
     0
  9
$DIMTOH
 70
     0
  9
$DIMSE1
 70
     0
  9
$DIMSE2
 70
     0
  9
$DIMTAD
 70
     1
  9
$DIMZIN
 70
     0
  9
$DIMBLK
  1

  9
$DIMASO
 70
     1
  9
$DIMSHO
 70
     0
  9
$DIMPOST
  1

  9
$DIMAPOST
  1

  9
$DIMALT
 70
     0
  9
$DIMALTD
 70
     2
  9
$DIMALTF
 40
25.399999999999999
  9
$DIMLFAC
 40
1.0
  9
$DIMTOFL
 70
     0
  9
$DIMTVP
 40
1.6000000000000001
  9
$DIMTIX
 70
     1
  9
$DIMSOXD
 70
     0
  9
$DIMSAH
 70
     0
  9
$DIMBLK1
  1

  9
$DIMBLK2
  1

  9
$DIMSTYLE
  2
STANDARD
  9
$DIMCLRD
 70
     4
  9
$DIMCLRE
 70
     4
  9
$DIMCLRT
 70
     4
  9
$DIMTFAC
 40
1.0
  9
$DIMGAP
 40
0.09
  9
$LUNITS
 70
     2
  9
$LUPREC
 70
     1
  9
$SKETCHINC
 40
0.1
  9
$FILLETRAD
 40
1.0
  9
$AUNITS
 70
     0
  9
$AUPREC
 70
     0
  9
$MENU
  1
E:\r13\win\SUPPORT\ACAD
  9
$ELEVATION
 40
0.0
  9
$PELEVATION
 40
0.0
  9
$THICKNESS
 40
0.0
  9
$LIMCHECK
 70
     0
  9
$BLIPMODE
 70
     0
  9
$CHAMFERA
 40
1.1999999999999991
  9
$CHAMFERB
 40
1.1999999999999991
  9
$SKPOLY
 70
     0
  9
$TDCREATE
 40
2449930.5934606488
  9
$TDUPDATE
 40
2456597.654109051
  9
$TDINDWG
 40
0.0012677083
  9
$TDUSRTIMER
 40
0.0012677083
  9
$USRTIMER
 70
     1
  9
$ANGBASE
 50
0.0
  9
$ANGDIR
 70
     0
  9
$PDMODE
 70
     0
  9
$PDSIZE
 40
0.0
  9
$PLINEWID
 40
0.0
  9
$COORDS
 70
     1
  9
$SPLFRAME
 70
     0
  9
$SPLINETYPE
 70
     6
  9
$SPLINESEGS
 70
     8
  9
$ATTDIA
 70
     0
  9
$ATTREQ
 70
     1
  9
$HANDLING
 70
     1
  9
$HANDSEED
  5
2D5
  9
$SURFTAB1
 70
     6
  9
$SURFTAB2
 70
     6
  9
$SURFTYPE
 70
     6
  9
$SURFU
 70
     6
  9
$SURFV
 70
     6
  9
$UCSNAME
  2

  9
$UCSORG
 10
0.0
 20
0.0
 30
0.0
  9
$UCSXDIR
 10
1.0
 20
0.0
 30
0.0
  9
$UCSYDIR
 10
0.0
 20
1.0
 30
0.0
  9
$PUCSNAME
  2

  9
$PUCSORG
 10
0.0
 20
0.0
 30
0.0
  9
$PUCSXDIR
 10
1.0
 20
0.0
 30
0.0
  9
$PUCSYDIR
 10
0.0
 20
1.0
 30
0.0
  9
$USERI1
 70
     0
  9
$USERI2
 70
     1
  9
$USERI3
 70
     1
  9
$USERI4
 70
     0
  9
$USERI5
 70
     0
  9
$USERR1
 40
0.0
  9
$USERR2
 40
0.0
  9
$USERR3
 40
0.0
  9
$USERR4
 40
0.0
  9
$USERR5
 40
0.0
  9
$WORLDVIEW
 70
     1
  9
$SHADEDGE
 70
     3
  9
$SHADEDIF
 70
    70
  9
$TILEMODE
 70
     1
  9
$MAXACTVP
 70
    16
  9
$PLIMCHECK
 70
     0
  9
$PEXTMIN
 10
1.0000000000000000E+020
 20
1.0000000000000000E+020
 30
1.0000000000000000E+020
  9
$PEXTMAX
 10
-1.0000000000000000E+020
 20
-1.0000000000000000E+020
 30
-1.0000000000000000E+020
  9
$PLIMMIN
 10
0.0
 20
0.0
  9
$PLIMMAX
 10
12.0
 20
9.0
  9
$UNITMODE
 70
     0
  9
$VISRETAIN
 70
     0
  9
$PLINEGEN
 70
     0
  9
$PSLTSCALE
 70
     0
  0
ENDSEC
  0
SECTION
  2
TABLES
  0
TABLE
  2
VPORT
 70
     1
  0
VPORT
  2
*ACTIVE
 70
     0
 10
0.0
 20
0.0
 11
1.0
 21
1.0
 12
374.98855678130462
 22
269.68405869568772
 13
0.0
 23
0.0
 14
20.0
 24
20.0
 15
20.0
 25
20.0
 16
0.0
 26
0.0
 36
1.0
 17
0.0
 27
0.0
 37
0.0
 40
551.57487251346481
 41
2.304913294797688
 42
50.0
 43
0.0
 44
0.0
 50
0.0
 51
0.0
 71
     0
 72
   500
 73
     1
 74
     0
 75
     0
 76
     0
 77
     0
 78
     2
  0
ENDTAB
  0
TABLE
  2
LTYPE
 70
     4
  0
LTYPE
  2
CONTINUOUS
 70
     0
  3
Solid Line
 72
    65
 73
     0
 40
0.0
  0
LTYPE
  2
CENTER
 70
     0
  3
____ _ ____ _ ____ _ ____ _ ____ _ ____ _ ____
 72
    65
 73
     4
 40
2.0
 49
1.25
 49
-0.25
 49
0.25
 49
-0.25
  0
LTYPE
  2
HIDDEN
 70
     0
  3
_ _ _ _ _ _ _ _ _ _ _ _ _ _ _ _ _ _ _ _ _ _ _
 72
    65
 73
     2
 40
0.375
 49
0.25
 49
-0.125
  0
LTYPE
  2
PHANTOM2
 70
     0
  3
___ _ _ ___ _ _ ___ _ _ ___ _ _
 72
    65
 73
     6
 40
1.25
 49
0.625
 49
-0.125
 49
0.125
 49
-0.125
 49
0.125
 49
-0.125
  0
ENDTAB
  0
TABLE
  2
LAYER
 70
     4
  0
LAYER
  2
0
 70
     0
 62
     7
  6
CONTINUOUS
  0
LAYER
  2
1
 70
     0
 62
     1
  6
CENTER
  0
LAYER
  2
3
 70
     0
 62
     3
  6
CONTINUOUS
  0
LAYER
  2
2
 70
     0
 62
     2
  6
HIDDEN
  0
ENDTAB
  0
TABLE
  2
STYLE
 70
     2
  0
STYLE
  2
STANDARD
 70
     0
 40
0.0
 41
1.0
 50
0.0
 71
     0
 42
8.0
  3
SIMPLEX
  4
BIGFONT
  0
STYLE
  2
STANDARD1
 70
     0
 40
0.0
 41
1.0
 50
0.0
 71
     0
 42
3.0
  3
txt
  4

  0
ENDTAB
  0
TABLE
  2
VIEW
 70
     1
  0
VIEW
  2
ALL
 70
     0
 40
571.67746736573099
 10
467.47538719371647
 20
285.8387336828655
 41
934.95077438743294
 11
0.0
 21
0.0
 31
1.0
 12
0.0
 22
0.0
 32
0.0
 42
50.0
 43
0.0
 44
0.0
 50
0.0
 71
     0
  0
ENDTAB
  0
TABLE
  2
UCS
 70
     0
  0
ENDTAB
  0
TABLE
  2
APPID
 70
     3
  0
APPID
  2
ACAD
 70
     0
  0
APPID
  2
ACAD_MLEADERVER
 70
     0
  0
APPID
  2
ACAD_NAV_VCDISPLAY
 70
     0
  0
ENDTAB
  0
TABLE
  2
DIMSTYLE
 70
     1
  0
DIMSTYLE
  2
STANDARD
 70
     0
  3

  4

  5

  6

  7

 40
1.0
 41
0.18
 42
0.0625
 43
0.38
 44
0.18
 45
0.0
 46
0.0
 47
0.0
 48
0.0
140
0.18
141
0.09
142
0.0
143
25.399999999999999
144
1.0
145
0.0
146
1.0
147
0.09
 71
     0
 72
     0
 73
     1
 74
     1
 75
     0
 76
     0
 77
     0
 78
     0
170
     0
171
     2
172
     0
173
     0
174
     0
175
     0
176
     0
177
     0
178
     0
  0
ENDTAB
  0
ENDSEC
  0
SECTION
  2
BLOCKS
  0
BLOCK
  8
0
  2
$MODEL_SPACE
 70
     0
 10
0.0
 20
0.0
 30
0.0
  3
$MODEL_SPACE
  1

  0
ENDBLK
  5
159
  8
0
  0
BLOCK
 67
     1
  8
0
  2
$PAPER_SPACE
 70
     0
 10
0.0
 20
0.0
 30
0.0
  3
$PAPER_SPACE
  1

  0
ENDBLK
  5
157
 67
     1
  8
0
  0
ENDSEC
  0
SECTION
  2
ENTITIES
  0
LINE
  5
37
  8
0
 10
268.4265748074148
 20
322.57263417795292
 30
0.0
 11
268.4265748074148
 21
336.57263417795292
 31
0.0
  0
LINE
  5
38
  8
0
 10
269.92657480741468
 20
357.57263417795292
 30
0.0
 11
296.9265748074148
 21
357.57263417795292
 31
0.0
  0
LINE
  5
39
  8
0
 10
298.4265748074148
 20
322.57263417795292
 30
0.0
 11
298.4265748074148
 21
336.57263417795292
 31
0.0
  0
LINE
  5
3A
  8
1
 10
268.4265748074148
 20
322.57263417795292
 30
0.0
 11
298.4265748074148
 21
322.57263417795292
 31
0.0
  0
ARC
  5
3B
  8
0
 10
283.42657480741491
 20
322.57263417795292
 30
0.0
 40
15.0
 50
180.0
 51
0.0
  0
LINE
  5
3C
  8
0
 10
144.67051942478
 20
307.57263417795292
 30
0.0
 11
144.67051942478
 21
336.57263417795292
 31
0.0
  0
LINE
  5
3D
  8
0
 10
144.67051942478
 20
336.57263417795292
 30
0.0
 11
172.67051942478011
 21
336.57263417795292
 31
0.0
  0
LINE
  5
3E
  8
0
 10
200.67051942478011
 20
343.46815771581902
 30
0.0
 11
200.6705194247802
 21
355.57263417795298
 31
0.0
  0
LINE
  5
3F
  8
0
 10
174.6705194247802
 20
357.57263417795292
 30
0.0
 11
198.6705194247802
 21
357.57263417795292
 31
0.0
  0
LINE
  5
40
  8
0
 10
164.40098959323481
 20
310.70287032042108
 30
0.0
 11
198.88445747321279
 21
339.63793550022422
 31
0.0
  0
LINE
  5
41
  8
0
 10
163.67051942478
 20
336.57263417795292
 30
0.0
 11
172.67051942478011
 21
344.1245308585485
 31
0.0
  0
LINE
  5
42
  8
0
 10
172.67051942478011
 20
336.57263417795292
 30
0.0
 11
172.67051942478011
 21
355.57263417795292
 31
0.0
  0
LINE
  5
43
  8
1
 10
125.67051942478
 20
322.57263417795292
 30
0.0
 11
183.5468233136933
 21
322.57263417795292
 31
0.0
  0
LINE
  5
44
  8
1
 10
186.67051942478011
 20
337.57263417795298
 30
0.0
 11
186.67051942478011
 21
417.57263417795298
 31
0.0
  0
ARC
  5
45
  8
0
 10
186.67051942478011
 20
402.57263417795298
 30
0.0
 40
10.0
 50
0.0
 51
180.0
  0
ARC
  5
46
  8
2
 10
186.67051942478011
 20
402.57263417795298
 30
0.0
 40
10.0
 50
180.0
 51
0.0
  0
ARC
  5
47
  8
0
 10
174.6705194247802
 20
355.57263417795292
 30
0.0
 40
2.0
 50
90.0
 51
180.0
  0
ARC
  5
48
  8
0
 10
198.6705194247802
 20
355.57263417795298
 30
0.0
 40
2.0
 50
0.0
 51
90.0
  0
LINE
  5
49
  8
0
 10
131.8705194247801
 20
326.57263417795298
 30
0.0
 11
131.8705194247801
 21
318.57263417795292
 31
0.0
  0
LINE
  5
4A
  8
0
 10
130.67051942478011
 20
319.77263417795302
 30
0.0
 11
131.8705194247801
 21
318.57263417795292
 31
0.0
  0
LINE
  5
4B
  8
0
 10
131.8705194247801
 20
326.57263417795292
 30
0.0
 11
130.67051942478
 21
325.37263417795288
 31
0.0
  0
LINE
  5
4C
  8
0
 10
144.67051942478
 20
326.57263417795292
 30
0.0
 11
142.57780136337479
 21
326.57263417795292
 31
0.0
  0
LINE
  5
4D
  8
3
 10
144.67051942478
 20
325.89613417795312
 30
0.0
 11
142.57780136337479
 21
325.89613417795312
 31
0.0
  0
LINE
  5
4E
  8
3
 10
144.67051942478
 20
319.2491341779529
 30
0.0
 11
142.57780136337479
 21
319.2491341779529
 31
0.0
  0
LINE
  5
4F
  8
0
 10
144.67051942478
 20
318.57263417795298
 30
0.0
 11
142.57780136337479
 21
318.57263417795298
 31
0.0
  0
LINE
  5
50
  8
0
 10
130.67051942478
 20
325.37263417795288
 30
0.0
 11
130.67051942478011
 21
319.77263417795302
 31
0.0
  0
LINE
  5
51
  8
0
 10
142.57780136337479
 20
314.57263417795252
 30
0.0
 11
140.97780136337491
 21
314.57263417795252
 31
0.0
  0
LINE
  5
52
  8
0
 10
142.57780136337479
 20
330.57263417795338
 30
0.0
 11
140.97780136337491
 21
330.57263417795338
 31
0.0
  0
LINE
  5
53
  8
0
 10
140.97780136337491
 20
330.57263417795338
 30
0.0
 11
140.97780136337491
 21
314.57263417795252
 31
0.0
  0
LINE
  5
54
  8
0
 10
142.57780136337479
 20
330.57263417795338
 30
0.0
 11
142.57780136337479
 21
314.57263417795252
 31
0.0
  0
ARC
  5
55
  8
0
 10
137.51089422312691
 20
316.9434690533551
 30
0.0
 40
3.3225695729499738
 50
334.38424746782988
 51
34.38424746804094
  0
ARC
  5
56
  8
0
 10
128.4140203796845
 20
322.57263417795451
 30
0.0
 40
12.41944341639239
 50
342.41204622599253
 51
17.587953773998521
  0
LINE
  5
57
  8
0
 10
140.252907212476
 20
315.06708067848871
 30
0.0
 11
140.97780136337491
 21
316.32263417795502
 31
0.0
  0
LINE
  5
58
  8
0
 10
135.30269551427389
 20
315.06708067848871
 30
0.0
 11
134.57780136337499
 21
316.32263417795502
 31
0.0
  0
ARC
  5
59
  8
0
 10
138.0447085036231
 20
316.9434690533551
 30
0.0
 40
3.3225695729499738
 50
145.61575253195889
 51
205.61575253217009
  0
ARC
  5
5A
  8
0
 10
147.14158234706551
 20
322.57263417795451
 30
0.0
 40
12.41944341639239
 50
162.41204622600139
 51
197.58795377400739
  0
LINE
  5
5B
  8
0
 10
140.252907212476
 20
315.06708067848871
 30
0.0
 11
135.30269551427389
 21
315.06708067848871
 31
0.0
  0
LINE
  5
5C
  8
0
 10
140.252907212476
 20
318.81985742822297
 30
0.0
 11
135.3026955142754
 21
318.8198574282211
 31
0.0
  0
LINE
  5
5D
  8
0
 10
140.252907212476
 20
326.32541092768429
 30
0.0
 11
135.3026955142754
 21
326.32541092768611
 31
0.0
  0
LINE
  5
5E
  8
0
 10
140.252907212476
 20
330.0781876774185
 30
0.0
 11
135.30269551427389
 21
330.0781876774185
 31
0.0
  0
ARC
  5
5F
  8
0
 10
138.0447085036231
 20
328.2017993025521
 30
0.0
 40
3.3225695729499738
 50
154.38424746782991
 51
214.384247468041
  0
LINE
  5
60
  8
0
 10
135.30269551427389
 20
330.0781876774185
 30
0.0
 11
134.57780136337499
 21
328.82263417795218
 31
0.0
  0
LINE
  5
61
  8
0
 10
140.252907212476
 20
330.0781876774185
 30
0.0
 11
140.97780136337491
 21
328.82263417795218
 31
0.0
  0
ARC
  5
62
  8
0
 10
137.51089422312691
 20
328.2017993025521
 30
0.0
 40
3.3225695729499738
 50
325.615752531959
 51
25.615752532170031
  0
LINE
  5
63
  8
0
 10
134.57780136337499
 20
328.82263417795218
 30
0.0
 11
134.57780136337499
 21
316.32263417795519
 31
0.0
  0
LINE
  5
64
  8
3
 10
134.57780136337499
 20
319.2491341779529
 30
0.0
 11
131.19401942478009
 21
319.2491341779529
 31
0.0
  0
LINE
  5
65
  8
0
 10
134.57780136337499
 20
318.57263417795292
 30
0.0
 11
131.8705194247801
 21
318.57263417795292
 31
0.0
  0
LINE
  5
66
  8
3
 10
134.57780136337499
 20
325.89613417795312
 30
0.0
 11
131.19401942478009
 21
325.89613417795312
 31
0.0
  0
LINE
  5
67
  8
0
 10
134.57780136337499
 20
326.57263417795292
 30
0.0
 11
131.8705194247801
 21
326.57263417795292
 31
0.0
  0
ARC
  5
68
  8
0
 10
195.67051942478
 20
343.46815771581907
 30
0.0
 40
5.0
 50
310.0
 51
359.99999999999989
  0
LINE
  5
69
  8
1
 10
201.6705194247802
 20
402.57263417795298
 30
0.0
 11
171.67051942478011
 21
402.57263417795298
 31
0.0
  0
LINE
  5
6A
  8
0
 10
268.42657480741491
 20
336.57263417795292
 30
0.0
 11
269.62657480741478
 21
336.57263417795292
 31
0.0
  0
ARC
  5
6B
  8
0
 10
283.4265748074148
 20
322.57263417795292
 30
0.0
 40
14.0
 50
180.0
 51
0.0
  0
LINE
  5
6C
  8
0
 10
269.92657480741468
 20
357.57263417795292
 30
0.0
 11
269.4265748074148
 21
322.57263417795292
 31
0.0
  0
LINE
  5
6D
  8
0
 10
296.9265748074148
 20
357.57263417795292
 30
0.0
 11
297.4265748074148
 21
322.57263417795292
 31
0.0
  0
LINE
  5
6E
  8
0
 10
297.22657480741481
 20
336.57263417795292
 30
0.0
 11
298.4265748074148
 21
336.57263417795292
 31
0.0
  0
LINE
  5
6F
  8
0
 10
144.67051942478
 20
307.57263417795292
 30
0.0
 11
158.55380618191469
 21
308.38018918869449
 31
0.0
  0
ARC
  5
70
  8
0
 10
157.97311349636939
 20
318.36331475161091
 30
0.0
 40
10.0
 50
273.32899671650802
 51
310.0
  0
CIRCLE
  5
71
  8
0
 10
283.4265748074148
 20
322.57263417795292
 30
0.0
 40
6.6000000000001364
  0
ARC
  5
72
  8
0
 10
283.42657480741491
 20
327.2016673924125
 30
0.0
 40
13.93495203263152
 50
359.73254392820081
 51
180.26745607179919
  0
CIRCLE
  5
73
  8
0
 10
283.4265748074148
 20
322.57263417795292
 30
0.0
 40
5.6339745962155803
  0
LINE
  5
74
  8
0
 10
280.42657480741508
 20
320.84058337038431
 30
0.0
 11
283.42657480741508
 21
319.1085325628153
 31
0.0
  0
LINE
  5
75
  8
0
 10
283.42657480741508
 20
319.1085325628153
 30
0.0
 11
286.4265748074148
 21
320.84058337038431
 31
0.0
  0
LINE
  5
76
  8
0
 10
286.4265748074148
 20
320.84058337038431
 30
0.0
 11
286.4265748074148
 21
324.30468498552261
 31
0.0
  0
LINE
  5
77
  8
0
 10
286.4265748074148
 20
324.30468498552261
 30
0.0
 11
283.4265748074148
 21
326.03673579309083
 31
0.0
  0
LINE
  5
78
  8
0
 10
283.4265748074148
 20
326.03673579309083
 30
0.0
 11
280.4265748074144
 21
324.30468498552148
 31
0.0
  0
LINE
  5
79
  8
0
 10
280.4265748074144
 20
324.30468498552148
 30
0.0
 11
280.42657480741508
 21
320.84058337038431
 31
0.0
  0
CIRCLE
  5
7A
  8
0
 10
283.4265748074148
 20
322.57263417795292
 30
0.0
 40
6.5
  0
LINE
  5
7B
  8
1
 10
205.6705194247802
 20
350.57263417795292
 30
0.0
 11
167.67051942478011
 21
350.57263417795292
 31
0.0
  0
LINE
  5
7C
  8
0
 10
176.67051942478
 20
357.57263417795292
 30
0.0
 11
176.67051942478
 21
402.57263417795298
 31
0.0
  0
LINE
  5
7D
  8
0
 10
196.67051942478011
 20
357.57263417795292
 30
0.0
 11
196.67051942478
 21
402.57263417795298
 31
0.0
  0
CIRCLE
  5
7E
  8
0
 10
283.42657480741468
 20
350.57263417795292
 30
0.0
 40
2.0
  0
LINE
  5
7F
  8
1
 10
290.4265748074148
 20
350.57263417795292
 30
0.0
 11
276.42657480741468
 21
350.57263417795292
 31
0.0
  0
LINE
  5
80
  8
0
 10
318.4265748074148
 20
412.57263417795298
 30
0.0
 11
548.42657480741468
 21
412.57263417795298
 31
0.0
  0
LINE
  5
81
  8
0
 10
273.4265748074148
 20
357.57263417795292
 30
0.0
 11
273.42657480741468
 21
367.57263417795298
 31
0.0
  0
LINE
  5
82
  8
0
 10
293.4265748074148
 20
357.57263417795292
 30
0.0
 11
293.4265748074148
 21
367.57263417795298
 31
0.0
  0
LINE
  5
83
  8
0
 10
318.4265748074148
 20
392.57263417795298
 30
0.0
 11
548.42657480741468
 21
392.57263417795292
 31
0.0
  0
LINE
  5
84
  8
1
 10
283.42657480741491
 20
302.57263417795292
 30
0.0
 11
283.42657480741491
 21
367.57263417795298
 31
0.0
  0
LINE
  5
85
  8
1
 10
583.42657480741457
 20
302.57263417795292
 30
0.0
 11
583.42657480741457
 21
367.57263417795298
 31
0.0
  0
LINE
  5
86
  8
0
 10
573.42657480741491
 20
357.57263417795292
 30
0.0
 11
573.42657480741491
 21
367.57263417795298
 31
0.0
  0
LINE
  5
87
  8
0
 10
593.42657480741491
 20
357.57263417795292
 30
0.0
 11
593.42657480741491
 21
367.57263417795298
 31
0.0
  0
LINE
  5
88
  8
1
 10
576.42657480741491
 20
350.57263417795292
 30
0.0
 11
590.4265748074148
 21
350.57263417795292
 31
0.0
  0
CIRCLE
  5
89
  8
0
 10
583.42657480741491
 20
350.57263417795292
 30
0.0
 40
2.0
  0
CIRCLE
  5
8A
  8
0
 10
583.42657480741491
 20
322.57263417795292
 30
0.0
 40
6.5
  0
LINE
  5
8B
  8
0
 10
586.42657480741514
 20
324.30468498552148
 30
0.0
 11
586.42657480741445
 21
320.84058337038431
 31
0.0
  0
LINE
  5
8C
  8
0
 10
583.42657480741491
 20
326.03673579309083
 30
0.0
 11
586.42657480741514
 21
324.30468498552148
 31
0.0
  0
LINE
  5
8D
  8
0
 10
580.42657480741491
 20
324.30468498552261
 30
0.0
 11
583.42657480741491
 21
326.03673579309083
 31
0.0
  0
LINE
  5
8E
  8
0
 10
580.42657480741491
 20
320.84058337038431
 30
0.0
 11
580.42657480741491
 21
324.30468498552261
 31
0.0
  0
LINE
  5
8F
  8
0
 10
583.42657480741445
 20
319.1085325628153
 30
0.0
 11
580.42657480741491
 21
320.84058337038431
 31
0.0
  0
LINE
  5
90
  8
0
 10
586.42657480741445
 20
320.84058337038431
 30
0.0
 11
583.42657480741445
 21
319.1085325628153
 31
0.0
  0
CIRCLE
  5
91
  8
0
 10
583.42657480741491
 20
322.57263417795292
 30
0.0
 40
5.6339745962155803
  0
ARC
  5
92
  8
0
 10
583.42657480741457
 20
327.2016673924125
 30
0.0
 40
13.93495203263152
 50
359.73254392820081
 51
180.26745607179919
  0
CIRCLE
  5
93
  8
0
 10
583.42657480741491
 20
322.57263417795292
 30
0.0
 40
6.6000000000001364
  0
LINE
  5
94
  8
0
 10
569.62657480741461
 20
336.57263417795292
 30
0.0
 11
568.42657480741491
 21
336.57263417795292
 31
0.0
  0
LINE
  5
95
  8
0
 10
569.9265748074148
 20
357.57263417795292
 30
0.0
 11
569.4265748074148
 21
322.57263417795292
 31
0.0
  0
LINE
  5
96
  8
0
 10
596.92657480741491
 20
357.57263417795292
 30
0.0
 11
597.42657480741491
 21
322.57263417795292
 31
0.0
  0
ARC
  5
97
  8
0
 10
583.42657480741491
 20
322.57263417795292
 30
0.0
 40
14.0
 50
180.0
 51
0.0
  0
LINE
  5
98
  8
0
 10
598.42657480741468
 20
336.57263417795292
 30
0.0
 11
597.22657480741475
 21
336.57263417795292
 31
0.0
  0
ARC
  5
99
  8
0
 10
583.42657480741457
 20
322.57263417795292
 30
0.0
 40
15.0
 50
180.0
 51
0.0
  0
LINE
  5
9A
  8
1
 10
598.42657480741491
 20
322.57263417795292
 30
0.0
 11
568.42657480741491
 21
322.57263417795292
 31
0.0
  0
LINE
  5
9B
  8
0
 10
568.42657480741491
 20
322.57263417795292
 30
0.0
 11
568.42657480741491
 21
336.57263417795292
 31
0.0
  0
LINE
  5
9C
  8
0
 10
596.92657480741491
 20
357.57263417795292
 30
0.0
 11
569.9265748074148
 21
357.57263417795292
 31
0.0
  0
LINE
  5
9D
  8
0
 10
598.42657480741491
 20
322.57263417795292
 30
0.0
 11
598.42657480741491
 21
336.57263417795292
 31
0.0
  0
LINE
  5
9E
  8
1
 10
318.4265748074148
 20
402.57263417795298
 30
0.0
 11
548.42657480741468
 21
402.57263417795298
 31
0.0
  0
ARC
  5
9F
  8
0
 10
318.4265748074148
 20
367.57263417795298
 30
0.0
 40
25.0
 50
89.999999999999986
 51
180.0
  0
ARC
  5
A0
  8
0
 10
318.4265748074148
 20
367.57263417795298
 30
0.0
 40
45.0
 50
89.999999999999986
 51
180.0
  0
ARC
  5
A1
  8
1
 10
318.4265748074148
 20
367.57263417795298
 30
0.0
 40
35.0
 50
89.999999999999986
 51
180.0
  0
ARC
  5
A2
  8
0
 10
548.42657480741468
 20
367.57263417795298
 30
0.0
 40
45.0
 50
0.0
 51
90.0
  0
ARC
  5
A3
  8
1
 10
548.42657480741468
 20
367.57263417795298
 30
0.0
 40
35.0
 50
0.0
 51
90.0
  0
ARC
  5
A4
  8
0
 10
548.42657480741468
 20
367.57263417795298
 30
0.0
 40
25.0
 50
0.0
 51
90.0
  0
LINE
  5
A5
  8
0
 10
268.42657480741491
 20
187.70727652614309
 30
0.0
 11
298.4265748074148
 21
187.70727652614309
 31
0.0
  0
LINE
  5
A6
  8
1
 10
283.42657480741491
 20
168.70727652614309
 30
0.0
 11
283.42657480741491
 21
248.70727652614309
 31
0.0
  0
ARC
  5
A7
  8
0
 10
283.42657480741491
 20
230.20727652614309
 30
0.0
 40
13.5
 50
2.01017201050839
 51
177.9898279894916
  0
LINE
  5
A8
  8
0
 10
268.42657480741491
 20
187.70727652614309
 30
0.0
 11
269.93488249972262
 21
230.6808149876816
 31
0.0
  0
LINE
  5
A9
  8
0
 10
298.42657480741491
 20
187.70727652614309
 30
0.0
 11
296.9182671151072
 21
230.6808149876816
 31
0.0
  0
POLYLINE
  5
AA
  8
0
 66
     1
 10
0.0
 20
0.0
 30
0.0
  0
VERTEX
  5
AB
  8
0
 10
269.61558301041242
 20
221.5835804150563
 30
0.0
 42
0.0827663488965848
  0
VERTEX
  5
AC
  8
0
 10
270.70222860541969
 20
215.06401180236369
 30
0.0
 42
0.0905296676239215
  0
VERTEX
  5
AD
  8
0
 10
273.66072885284268
 20
209.78582175948111
 30
0.0
 42
0.1042211828574746
 70
     2
 50
309.61698165889038
  0
VERTEX
  5
AE
  8
0
 10
278.27799104199249
 20
206.11530706399091
 30
0.0
 42
0.1165141120032318
 50
309.61698165889038
  0
VERTEX
  5
AF
  8
0
 10
283.42657480741491
 20
204.89903011873739
 30
0.0
 42
0.1165141120032305
  0
VERTEX
  5
B0
  8
0
 10
288.5751585728371
 20
206.11530706399091
 30
0.0
 42
0.1042211828574737
  0
VERTEX
  5
B1
  8
0
 10
293.19242076198702
 20
209.78582175948111
 30
0.0
 42
0.090529667623925
 70
     2
 50
50.383018341109597
  0
VERTEX
  5
B2
  8
0
 10
296.1509210094099
 20
215.06401180236381
 30
0.0
 42
0.0827663488965858
 50
50.383018341109597
  0
VERTEX
  5
B3
  8
0
 10
297.23756660441728
 20
221.5835804150563
 30
0.0
 42
0.0827663488965858
  0
SEQEND
  5
B4
  8
0
  0
POLYLINE
  5
B5
  8
0
 66
     1
 10
0.0
 20
0.0
 30
0.0
 70
     1
  0
VERTEX
  5
B6
  8
0
 10
283.42657480741491
 20
213.71800670393461
 30
0.0
 42
0.1151415934210808
  0
VERTEX
  5
B7
  8
0
 10
285.89207485150439
 20
214.29339821398329
 30
0.0
 42
0.1039008669419147
  0
VERTEX
  5
B8
  8
0
 10
288.09347956324621
 20
216.02177990599949
 30
0.0
 42
0.0911578734171868
 70
     2
 50
49.999999999999353
  0
VERTEX
  5
B9
  8
0
 10
289.50836614356348
 20
218.51416563684541
 30
0.0
 42
0.0838217899890506
 50
49.999999999999353
  0
VERTEX
  5
BA
  8
0
 10
290.0265748074151
 20
221.58358041505639
 30
0.0
 42
0.0838217899890645
  0
VERTEX
  5
BB
  8
0
 10
289.50836614356342
 20
224.6529951932676
 30
0.0
 42
0.0911578734171921
  0
VERTEX
  5
BC
  8
0
 10
288.09347956324621
 20
227.14538092411331
 30
0.0
 42
0.1039008669419211
 70
     2
 50
130.00000000000071
  0
VERTEX
  5
BD
  8
0
 10
285.89207485150428
 20
228.87376261612951
 30
0.0
 42
0.1151415934210804
 50
130.00000000000071
  0
VERTEX
  5
BE
  8
0
 10
283.42657480741491
 20
229.4491541261782
 30
0.0
 42
0.1151415934210832
  0
VERTEX
  5
BF
  8
0
 10
280.96107476332548
 20
228.87376261612951
 30
0.0
 42
0.1039008669419233
  0
VERTEX
  5
C0
  8
0
 10
278.75967005158361
 20
227.14538092411331
 30
0.0
 42
0.0911578734171832
 70
     2
 50
229.99999999999929
  0
VERTEX
  5
C1
  8
0
 10
277.34478347126628
 20
224.6529951932674
 30
0.0
 42
0.083821789989049
 50
229.99999999999929
  0
VERTEX
  5
C2
  8
0
 10
276.82657480741472
 20
221.58358041505639
 30
0.0
 42
0.0838217899890551
  0
VERTEX
  5
C3
  8
0
 10
277.34478347126628
 20
218.51416563684521
 30
0.0
 42
0.0911578734171808
  0
VERTEX
  5
C4
  8
0
 10
278.75967005158361
 20
216.02177990599949
 30
0.0
 42
0.103900866941923
 70
     2
 50
310.00000000000068
  0
VERTEX
  5
C5
  8
0
 10
280.96107476332543
 20
214.29339821398329
 30
0.0
 42
0.1151415934210861
 50
310.00000000000068
  0
SEQEND
  5
C6
  8
0
  0
LINE
  5
C7
  8
1
 10
271.82657480741472
 20
221.58358041505639
 30
0.0
 11
295.0265748074151
 21
221.58358041505639
 31
0.0
  0
LINE
  5
C8
  8
1
 10
595.02657480741448
 20
221.58358041505639
 30
0.0
 11
571.82657480741432
 21
221.58358041505639
 31
0.0
  0
POLYLINE
  5
C9
  8
0
 66
     1
 10
0.0
 20
0.0
 30
0.0
 70
     1
  0
VERTEX
  5
CA
  8
0
 10
583.42657480741445
 20
213.71800670393461
 30
0.0
 42
-0.1151415934210808
  0
VERTEX
  5
CB
  8
0
 10
580.96107476332475
 20
214.29339821398329
 30
0.0
 42
-0.1039008669419147
  0
VERTEX
  5
CC
  8
0
 10
578.75967005158304
 20
216.02177990599949
 30
0.0
 42
-0.0911578734171868
 70
     2
 50
49.999999999999353
  0
VERTEX
  5
CD
  8
0
 10
577.34478347126583
 20
218.51416563684541
 30
0.0
 42
-0.0838217899890506
  0
VERTEX
  5
CE
  8
0
 10
576.82657480741432
 20
221.58358041505639
 30
0.0
 42
-0.0838217899890645
  0
VERTEX
  5
CF
  8
0
 10
577.34478347126606
 20
224.6529951932676
 30
0.0
 42
-0.0911578734171921
  0
VERTEX
  5
D0
  8
0
 10
578.75967005158304
 20
227.14538092411331
 30
0.0
 42
-0.1039008669419211
 70
     2
 50
130.00000000000071
  0
VERTEX
  5
D1
  8
0
 10
580.96107476332497
 20
228.87376261612951
 30
0.0
 42
-0.1151415934210804
  0
VERTEX
  5
D2
  8
0
 10
583.42657480741445
 20
229.4491541261782
 30
0.0
 42
-0.1151415934210832
  0
VERTEX
  5
D3
  8
0
 10
585.89207485150382
 20
228.87376261612951
 30
0.0
 42
-0.1039008669419233
  0
VERTEX
  5
D4
  8
0
 10
588.09347956324575
 20
227.14538092411331
 30
0.0
 42
-0.0911578734171832
 70
     2
 50
229.99999999999929
  0
VERTEX
  5
D5
  8
0
 10
589.50836614356308
 20
224.6529951932674
 30
0.0
 42
-0.083821789989049
  0
VERTEX
  5
D6
  8
0
 10
590.02657480741448
 20
221.58358041505639
 30
0.0
 42
-0.0838217899890551
  0
VERTEX
  5
D7
  8
0
 10
589.50836614356308
 20
218.51416563684521
 30
0.0
 42
-0.0911578734171808
  0
VERTEX
  5
D8
  8
0
 10
588.09347956324575
 20
216.02177990599949
 30
0.0
 42
-0.103900866941923
 70
     2
 50
310.00000000000068
  0
VERTEX
  5
D9
  8
0
 10
585.89207485150405
 20
214.29339821398329
 30
0.0
 42
-0.1151415934210861
  0
SEQEND
  5
DA
  8
0
  0
POLYLINE
  5
DB
  8
0
 66
     1
 10
0.0
 20
0.0
 30
0.0
  0
VERTEX
  5
DC
  8
0
 10
597.237566604417
 20
221.5835804150563
 30
0.0
 42
-0.0827663488965848
  0
VERTEX
  5
DD
  8
0
 10
596.15092100940944
 20
215.06401180236369
 30
0.0
 42
-0.0905296676239215
  0
VERTEX
  5
DE
  8
0
 10
593.1924207619868
 20
209.78582175948111
 30
0.0
 42
-0.1042211828574746
 70
     2
 50
309.61698165889038
  0
VERTEX
  5
DF
  8
0
 10
588.57515857283693
 20
206.11530706399091
 30
0.0
 42
-0.1165141120032318
  0
VERTEX
  5
E0
  8
0
 10
583.42657480741445
 20
204.89903011873739
 30
0.0
 42
-0.1165141120032305
  0
VERTEX
  5
E1
  8
0
 10
578.27799104199221
 20
206.11530706399091
 30
0.0
 42
-0.1042211828574737
  0
VERTEX
  5
E2
  8
0
 10
573.66072885284234
 20
209.78582175948111
 30
0.0
 42
-0.090529667623925
 70
     2
 50
50.383018341109597
  0
VERTEX
  5
E3
  8
0
 10
570.70222860541935
 20
215.06401180236381
 30
0.0
 42
-0.0827663488965858
  0
VERTEX
  5
E4
  8
0
 10
569.61558301041214
 20
221.5835804150563
 30
0.0
 42
-0.0827663488965858
  0
SEQEND
  5
E5
  8
0
  0
LINE
  5
E6
  8
0
 10
568.42657480741445
 20
187.70727652614309
 30
0.0
 11
569.93488249972233
 21
230.6808149876816
 31
0.0
  0
LINE
  5
E7
  8
0
 10
598.42657480741445
 20
187.70727652614309
 30
0.0
 11
596.9182671151068
 21
230.6808149876816
 31
0.0
  0
ARC
  5
E8
  8
0
 10
583.42657480741445
 20
230.20727652614309
 30
0.0
 40
13.5
 50
2.0101720105083949
 51
177.9898279894916
  0
LINE
  5
E9
  8
0
 10
598.42657480741445
 20
187.70727652614309
 30
0.0
 11
568.42657480741457
 21
187.70727652614309
 31
0.0
  0
LINE
  5
EA
  8
0
 10
297.30342209805531
 20
219.7072765261432
 30
0.0
 11
569.54972751677406
 21
219.7072765261432
 31
0.0
  0
LINE
  5
EB
  8
0
 10
293.01823785404019
 20
239.7072765261432
 30
0.0
 11
573.83491176078905
 21
239.7072765261432
 31
0.0
  0
LINE
  5
EC
  8
1
 10
291.95243687638032
 20
229.7072765261432
 30
0.0
 11
574.9007127384491
 21
229.7072765261432
 31
0.0
  0
LINE
  5
ED
  8
0
 10
279.42657480741491
 20
174.90727652614311
 30
0.0
 11
287.42657480741491
 21
174.90727652614319
 31
0.0
  0
LINE
  5
EE
  8
0
 10
286.22657480741492
 20
173.7072765261432
 30
0.0
 11
287.42657480741491
 21
174.90727652614319
 31
0.0
  0
LINE
  5
EF
  8
0
 10
279.42657480741491
 20
174.90727652614311
 30
0.0
 11
280.6265748074149
 21
173.70727652614309
 31
0.0
  0
LINE
  5
F0
  8
0
 10
279.42657480741491
 20
187.70727652614309
 30
0.0
 11
279.42657480741491
 21
185.61455846473791
 31
0.0
  0
LINE
  5
F1
  8
3
 10
280.10307480741471
 20
187.70727652614309
 30
0.0
 11
280.10307480741483
 21
185.61455846473791
 31
0.0
  0
LINE
  5
F2
  8
3
 10
286.75007480741499
 20
187.70727652614309
 30
0.0
 11
286.75007480741499
 21
185.61455846473791
 31
0.0
  0
LINE
  5
F3
  8
0
 10
287.42657480741491
 20
187.70727652614309
 30
0.0
 11
287.42657480741491
 21
185.61455846473791
 31
0.0
  0
LINE
  5
F4
  8
0
 10
280.6265748074149
 20
173.70727652614309
 30
0.0
 11
286.22657480741492
 21
173.7072765261432
 31
0.0
  0
LINE
  5
F5
  8
0
 10
291.42657480741531
 20
185.61455846473791
 30
0.0
 11
291.42657480741531
 21
184.01455846473789
 31
0.0
  0
LINE
  5
F6
  8
0
 10
275.42657480741451
 20
185.61455846473791
 30
0.0
 11
275.42657480741451
 21
184.01455846473789
 31
0.0
  0
LINE
  5
F7
  8
0
 10
275.42657480741451
 20
184.01455846473789
 30
0.0
 11
291.42657480741531
 21
184.01455846473789
 31
0.0
  0
LINE
  5
F8
  8
0
 10
275.42657480741451
 20
185.61455846473791
 30
0.0
 11
291.42657480741531
 21
185.61455846473791
 31
0.0
  0
LINE
  5
F9
  8
3
 10
286.75007480741499
 20
177.61455846473811
 30
0.0
 11
286.75007480741499
 21
174.23077652614319
 31
0.0
  0
LINE
  5
FA
  8
0
 10
287.42657480741491
 20
177.61455846473811
 30
0.0
 11
287.42657480741491
 21
174.90727652614319
 31
0.0
  0
LINE
  5
FB
  8
3
 10
280.10307480741483
 20
177.61455846473811
 30
0.0
 11
280.10307480741483
 21
174.23077652614319
 31
0.0
  0
LINE
  5
FC
  8
0
 10
279.42657480741491
 20
177.61455846473811
 30
0.0
 11
279.42657480741491
 21
174.90727652614311
 31
0.0
  0
LINE
  5
FD
  8
0
 10
289.92657480741462
 20
183.87022089743991
 30
0.0
 11
289.67657480741349
 21
184.01455846473789
 31
0.0
  0
ARC
  5
FE
  8
0
 10
286.67657480741462
 20
174.48306876219121
 30
0.0
 40
9.3871521352487513
 50
69.743841999582827
 51
110.2561580004171
  0
ARC
  5
FF
  8
0
 10
286.67657480741462
 20
187.1460481672849
 30
0.0
 40
9.3871521352487513
 50
249.7438419995828
 51
290.25615800041709
  0
LINE
  5
100
  8
0
 10
289.92657480741462
 20
177.7588960320362
 30
0.0
 11
289.67657480741349
 21
177.61455846473811
 31
0.0
  0
LINE
  5
101
  8
0
 10
289.92657480741462
 20
183.87022089743991
 30
0.0
 11
289.92657480741462
 21
177.7588960320362
 31
0.0
  0
LINE
  5
102
  8
0
 10
283.42657480741491
 20
183.2896643138387
 30
0.0
 11
283.42657480741491
 21
178.33945261563699
 31
0.0
  0
LINE
  5
103
  8
0
 10
276.92657480741508
 20
183.87022089743991
 30
0.0
 11
276.92657480741508
 21
177.7588960320362
 31
0.0
  0
LINE
  5
104
  8
0
 10
276.92657480741508
 20
177.7588960320362
 30
0.0
 11
277.17657480741622
 21
177.61455846473811
 31
0.0
  0
ARC
  5
105
  8
0
 10
280.17657480741508
 20
187.1460481672849
 30
0.0
 40
9.3871521352487513
 50
249.7438419995828
 51
290.25615800041709
  0
ARC
  5
106
  8
0
 10
280.17657480741508
 20
174.48306876219121
 30
0.0
 40
9.3871521352487513
 50
69.743841999582827
 51
110.2561580004171
  0
LINE
  5
107
  8
0
 10
276.92657480741508
 20
183.87022089743991
 30
0.0
 11
277.17657480741622
 21
184.01455846473789
 31
0.0
  0
LINE
  5
108
  8
0
 10
289.67657480741349
 20
177.61455846473811
 30
0.0
 11
277.17657480741622
 21
177.61455846473811
 31
0.0
  0
LINE
  5
109
  8
0
 10
589.67657480741298
 20
177.61455846473811
 30
0.0
 11
577.17657480741582
 21
177.61455846473811
 31
0.0
  0
LINE
  5
10A
  8
0
 10
576.92657480741457
 20
183.87022089743991
 30
0.0
 11
577.17657480741582
 21
184.01455846473789
 31
0.0
  0
ARC
  5
10B
  8
0
 10
580.17657480741468
 20
174.48306876219121
 30
0.0
 40
9.3871521352487513
 50
69.743841999582827
 51
110.2561580004171
  0
ARC
  5
10C
  8
0
 10
580.17657480741468
 20
187.1460481672849
 30
0.0
 40
9.3871521352487513
 50
249.7438419995828
 51
290.25615800041709
  0
LINE
  5
10D
  8
0
 10
576.92657480741457
 20
177.7588960320362
 30
0.0
 11
577.17657480741582
 21
177.61455846473811
 31
0.0
  0
LINE
  5
10E
  8
0
 10
576.92657480741457
 20
183.87022089743991
 30
0.0
 11
576.92657480741457
 21
177.7588960320362
 31
0.0
  0
LINE
  5
10F
  8
0
 10
583.42657480741445
 20
183.2896643138387
 30
0.0
 11
583.42657480741445
 21
178.33945261563699
 31
0.0
  0
LINE
  5
110
  8
0
 10
589.92657480741411
 20
183.87022089743991
 30
0.0
 11
589.92657480741411
 21
177.7588960320362
 31
0.0
  0
LINE
  5
111
  8
0
 10
589.92657480741411
 20
177.7588960320362
 30
0.0
 11
589.67657480741298
 21
177.61455846473811
 31
0.0
  0
ARC
  5
112
  8
0
 10
586.67657480741423
 20
187.1460481672849
 30
0.0
 40
9.3871521352487513
 50
249.7438419995828
 51
290.25615800041709
  0
ARC
  5
113
  8
0
 10
586.67657480741423
 20
174.48306876219121
 30
0.0
 40
9.3871521352487513
 50
69.743841999582827
 51
110.2561580004171
  0
LINE
  5
114
  8
0
 10
589.92657480741411
 20
183.87022089743991
 30
0.0
 11
589.67657480741298
 21
184.01455846473789
 31
0.0
  0
LINE
  5
115
  8
0
 10
579.42657480741457
 20
177.61455846473811
 30
0.0
 11
579.42657480741457
 21
174.90727652614311
 31
0.0
  0
LINE
  5
116
  8
3
 10
580.10307480741437
 20
177.61455846473811
 30
0.0
 11
580.10307480741437
 21
174.23077652614319
 31
0.0
  0
LINE
  5
117
  8
0
 10
587.42657480741457
 20
177.61455846473811
 30
0.0
 11
587.42657480741457
 21
174.90727652614319
 31
0.0
  0
LINE
  5
118
  8
3
 10
586.75007480741465
 20
177.61455846473811
 30
0.0
 11
586.75007480741465
 21
174.23077652614319
 31
0.0
  0
LINE
  5
119
  8
0
 10
575.42657480741423
 20
185.61455846473791
 30
0.0
 11
591.42657480741491
 21
185.61455846473791
 31
0.0
  0
LINE
  5
11A
  8
0
 10
575.42657480741423
 20
184.01455846473789
 30
0.0
 11
591.42657480741491
 21
184.01455846473789
 31
0.0
  0
LINE
  5
11B
  8
0
 10
575.42657480741423
 20
185.61455846473791
 30
0.0
 11
575.42657480741423
 21
184.01455846473789
 31
0.0
  0
LINE
  5
11C
  8
0
 10
591.42657480741491
 20
185.61455846473791
 30
0.0
 11
591.42657480741491
 21
184.01455846473789
 31
0.0
  0
LINE
  5
11D
  8
0
 10
580.6265748074145
 20
173.70727652614309
 30
0.0
 11
586.22657480741464
 21
173.7072765261432
 31
0.0
  0
LINE
  5
11E
  8
0
 10
587.42657480741445
 20
187.70727652614309
 30
0.0
 11
587.42657480741445
 21
185.61455846473791
 31
0.0
  0
LINE
  5
11F
  8
3
 10
586.75007480741465
 20
187.70727652614309
 30
0.0
 11
586.75007480741465
 21
185.61455846473791
 31
0.0
  0
LINE
  5
120
  8
3
 10
580.10307480741437
 20
187.70727652614309
 30
0.0
 11
580.10307480741437
 21
185.61455846473791
 31
0.0
  0
LINE
  5
121
  8
0
 10
579.42657480741457
 20
187.70727652614309
 30
0.0
 11
579.42657480741457
 21
185.61455846473791
 31
0.0
  0
LINE
  5
122
  8
0
 10
579.42657480741457
 20
174.90727652614311
 30
0.0
 11
580.6265748074145
 21
173.70727652614309
 31
0.0
  0
LINE
  5
123
  8
0
 10
586.22657480741464
 20
173.7072765261432
 30
0.0
 11
587.42657480741457
 21
174.90727652614319
 31
0.0
  0
LINE
  5
124
  8
0
 10
579.42657480741445
 20
174.90727652614311
 30
0.0
 11
587.42657480741457
 21
174.90727652614319
 31
0.0
  0
LINE
  5
125
  8
1
 10
583.42657480741445
 20
168.70727652614309
 30
0.0
 11
583.42657480741445
 21
248.70727652614309
 31
0.0
  0
TEXT
  5
247
  8
0
 62
     3
 10
0.0
 20
0.0
 30
0.0
 40
10.0
  1
MH13-300B
  7
STANDARD1
  0
ENDSEC
  0
EOF
