  0
SECTION
  2
HEADER
  9
$ACADVER
  1
AC1009
  9
$INSBASE
 10
0.0
 20
0.0
 30
0.0
  9
$EXTMIN
 10
0.0
 20
-2.960436562073669
 30
0.0
  9
$EXTMAX
 10
661.20620075176885
 20
453.85297562730119
 30
0.0
  9
$LIMMIN
 10
0.0
 20
0.0
  9
$LIMMAX
 10
750.0
 20
540.0
  9
$ORTHOMODE
 70
     1
  9
$REGENMODE
 70
     1
  9
$FILLMODE
 70
     1
  9
$QTEXTMODE
 70
     0
  9
$MIRRTEXT
 70
     0
  9
$DRAGMODE
 70
     2
  9
$LTSCALE
 40
20.0
  9
$OSMODE
 70
  3071
  9
$ATTMODE
 70
     1
  9
$TEXTSIZE
 40
8.0
  9
$TRACEWID
 40
0.05
  9
$TEXTSTYLE
  7
STANDARD
  9
$CLAYER
  8
0
  9
$CELTYPE
  6
BYLAYER
  9
$CECOLOR
 62
   256
  9
$DIMSCALE
 40
2.0
  9
$DIMASZ
 40
3.0
  9
$DIMEXO
 40
2.0
  9
$DIMDLI
 40
0.38
  9
$DIMRND
 40
0.0
  9
$DIMDLE
 40
0.0
  9
$DIMEXE
 40
2.0
  9
$DIMTP
 40
0.0
  9
$DIMTM
 40
0.0
  9
$DIMTXT
 40
3.2000000000000002
  9
$DIMCEN
 40
0.0
  9
$DIMTSZ
 40
0.0
  9
$DIMTOL
 70
     0
  9
$DIMLIM
 70
     0
  9
$DIMTIH
 70
     0
  9
$DIMTOH
 70
     0
  9
$DIMSE1
 70
     0
  9
$DIMSE2
 70
     0
  9
$DIMTAD
 70
     1
  9
$DIMZIN
 70
     0
  9
$DIMBLK
  1

  9
$DIMASO
 70
     1
  9
$DIMSHO
 70
     0
  9
$DIMPOST
  1

  9
$DIMAPOST
  1

  9
$DIMALT
 70
     0
  9
$DIMALTD
 70
     2
  9
$DIMALTF
 40
25.399999999999999
  9
$DIMLFAC
 40
1.0
  9
$DIMTOFL
 70
     0
  9
$DIMTVP
 40
1.6000000000000001
  9
$DIMTIX
 70
     1
  9
$DIMSOXD
 70
     0
  9
$DIMSAH
 70
     0
  9
$DIMBLK1
  1

  9
$DIMBLK2
  1

  9
$DIMSTYLE
  2
STANDARD
  9
$DIMCLRD
 70
     4
  9
$DIMCLRE
 70
     4
  9
$DIMCLRT
 70
     4
  9
$DIMTFAC
 40
1.0
  9
$DIMGAP
 40
0.09
  9
$LUNITS
 70
     2
  9
$LUPREC
 70
     1
  9
$SKETCHINC
 40
0.1
  9
$FILLETRAD
 40
1.0
  9
$AUNITS
 70
     0
  9
$AUPREC
 70
     0
  9
$MENU
  1
E:\r13\win\SUPPORT\ACAD
  9
$ELEVATION
 40
0.0
  9
$PELEVATION
 40
0.0
  9
$THICKNESS
 40
0.0
  9
$LIMCHECK
 70
     0
  9
$BLIPMODE
 70
     0
  9
$CHAMFERA
 40
1.1999999999999991
  9
$CHAMFERB
 40
1.1999999999999991
  9
$SKPOLY
 70
     0
  9
$TDCREATE
 40
2449930.5978240739
  9
$TDUPDATE
 40
2456597.6541698962
  9
$TDINDWG
 40
0.0007963657
  9
$TDUSRTIMER
 40
0.0007963657
  9
$USRTIMER
 70
     1
  9
$ANGBASE
 50
0.0
  9
$ANGDIR
 70
     0
  9
$PDMODE
 70
     0
  9
$PDSIZE
 40
0.0
  9
$PLINEWID
 40
0.0
  9
$COORDS
 70
     1
  9
$SPLFRAME
 70
     0
  9
$SPLINETYPE
 70
     6
  9
$SPLINESEGS
 70
     8
  9
$ATTDIA
 70
     0
  9
$ATTREQ
 70
     1
  9
$HANDLING
 70
     1
  9
$HANDSEED
  5
2D5
  9
$SURFTAB1
 70
     6
  9
$SURFTAB2
 70
     6
  9
$SURFTYPE
 70
     6
  9
$SURFU
 70
     6
  9
$SURFV
 70
     6
  9
$UCSNAME
  2

  9
$UCSORG
 10
0.0
 20
0.0
 30
0.0
  9
$UCSXDIR
 10
1.0
 20
0.0
 30
0.0
  9
$UCSYDIR
 10
0.0
 20
1.0
 30
0.0
  9
$PUCSNAME
  2

  9
$PUCSORG
 10
0.0
 20
0.0
 30
0.0
  9
$PUCSXDIR
 10
1.0
 20
0.0
 30
0.0
  9
$PUCSYDIR
 10
0.0
 20
1.0
 30
0.0
  9
$USERI1
 70
     0
  9
$USERI2
 70
     1
  9
$USERI3
 70
     1
  9
$USERI4
 70
     0
  9
$USERI5
 70
     0
  9
$USERR1
 40
0.0
  9
$USERR2
 40
0.0
  9
$USERR3
 40
0.0
  9
$USERR4
 40
0.0
  9
$USERR5
 40
0.0
  9
$WORLDVIEW
 70
     1
  9
$SHADEDGE
 70
     3
  9
$SHADEDIF
 70
    70
  9
$TILEMODE
 70
     1
  9
$MAXACTVP
 70
    16
  9
$PLIMCHECK
 70
     0
  9
$PEXTMIN
 10
1.0000000000000000E+020
 20
1.0000000000000000E+020
 30
1.0000000000000000E+020
  9
$PEXTMAX
 10
-1.0000000000000000E+020
 20
-1.0000000000000000E+020
 30
-1.0000000000000000E+020
  9
$PLIMMIN
 10
0.0
 20
0.0
  9
$PLIMMAX
 10
12.0
 20
9.0
  9
$UNITMODE
 70
     0
  9
$VISRETAIN
 70
     0
  9
$PLINEGEN
 70
     0
  9
$PSLTSCALE
 70
     0
  0
ENDSEC
  0
SECTION
  2
TABLES
  0
TABLE
  2
VPORT
 70
     1
  0
VPORT
  2
*ACTIVE
 70
     0
 10
0.0
 20
0.0
 11
1.0
 21
1.0
 12
374.98855678130462
 22
269.68405869568772
 13
0.0
 23
0.0
 14
20.0
 24
20.0
 15
20.0
 25
20.0
 16
0.0
 26
0.0
 36
1.0
 17
0.0
 27
0.0
 37
0.0
 40
551.57487251346481
 41
2.304913294797688
 42
50.0
 43
0.0
 44
0.0
 50
0.0
 51
0.0
 71
     0
 72
   500
 73
     1
 74
     0
 75
     0
 76
     0
 77
     0
 78
     2
  0
ENDTAB
  0
TABLE
  2
LTYPE
 70
     4
  0
LTYPE
  2
CONTINUOUS
 70
     0
  3
Solid Line
 72
    65
 73
     0
 40
0.0
  0
LTYPE
  2
CENTER
 70
     0
  3
____ _ ____ _ ____ _ ____ _ ____ _ ____ _ ____
 72
    65
 73
     4
 40
2.0
 49
1.25
 49
-0.25
 49
0.25
 49
-0.25
  0
LTYPE
  2
HIDDEN
 70
     0
  3
_ _ _ _ _ _ _ _ _ _ _ _ _ _ _ _ _ _ _ _ _ _ _
 72
    65
 73
     2
 40
0.375
 49
0.25
 49
-0.125
  0
LTYPE
  2
PHANTOM2
 70
     0
  3
___ _ _ ___ _ _ ___ _ _ ___ _ _
 72
    65
 73
     6
 40
1.25
 49
0.625
 49
-0.125
 49
0.125
 49
-0.125
 49
0.125
 49
-0.125
  0
ENDTAB
  0
TABLE
  2
LAYER
 70
     4
  0
LAYER
  2
0
 70
     0
 62
     7
  6
CONTINUOUS
  0
LAYER
  2
1
 70
     0
 62
     1
  6
CENTER
  0
LAYER
  2
3
 70
     0
 62
     3
  6
CONTINUOUS
  0
LAYER
  2
2
 70
     0
 62
     2
  6
HIDDEN
  0
ENDTAB
  0
TABLE
  2
STYLE
 70
     2
  0
STYLE
  2
STANDARD
 70
     0
 40
0.0
 41
1.0
 50
0.0
 71
     0
 42
8.0
  3
SIMPLEX
  4
BIGFONT
  0
STYLE
  2
STANDARD1
 70
     0
 40
0.0
 41
1.0
 50
0.0
 71
     0
 42
3.0
  3
txt
  4

  0
ENDTAB
  0
TABLE
  2
VIEW
 70
     1
  0
VIEW
  2
ALL
 70
     0
 40
571.67746736573099
 10
467.47538719371647
 20
285.8387336828655
 41
934.95077438743294
 11
0.0
 21
0.0
 31
1.0
 12
0.0
 22
0.0
 32
0.0
 42
50.0
 43
0.0
 44
0.0
 50
0.0
 71
     0
  0
ENDTAB
  0
TABLE
  2
UCS
 70
     0
  0
ENDTAB
  0
TABLE
  2
APPID
 70
     3
  0
APPID
  2
ACAD
 70
     0
  0
APPID
  2
ACAD_MLEADERVER
 70
     0
  0
APPID
  2
ACAD_NAV_VCDISPLAY
 70
     0
  0
ENDTAB
  0
TABLE
  2
DIMSTYLE
 70
     1
  0
DIMSTYLE
  2
STANDARD
 70
     0
  3

  4

  5

  6

  7

 40
1.0
 41
0.18
 42
0.0625
 43
0.38
 44
0.18
 45
0.0
 46
0.0
 47
0.0
 48
0.0
140
0.18
141
0.09
142
0.0
143
25.399999999999999
144
1.0
145
0.0
146
1.0
147
0.09
 71
     0
 72
     0
 73
     1
 74
     1
 75
     0
 76
     0
 77
     0
 78
     0
170
     0
171
     2
172
     0
173
     0
174
     0
175
     0
176
     0
177
     0
178
     0
  0
ENDTAB
  0
ENDSEC
  0
SECTION
  2
BLOCKS
  0
BLOCK
  8
0
  2
$MODEL_SPACE
 70
     0
 10
0.0
 20
0.0
 30
0.0
  3
$MODEL_SPACE
  1

  0
ENDBLK
  5
159
  8
0
  0
BLOCK
 67
     1
  8
0
  2
$PAPER_SPACE
 70
     0
 10
0.0
 20
0.0
 30
0.0
  3
$PAPER_SPACE
  1

  0
ENDBLK
  5
157
 67
     1
  8
0
  0
ENDSEC
  0
SECTION
  2
ENTITIES
  0
LINE
  5
38
  8
0
 10
231.20620075176871
 20
358.85297562730119
 30
0.0
 11
231.20620075176871
 21
372.85297562730102
 31
0.0
  0
LINE
  5
39
  8
0
 10
232.70620075176859
 20
393.85297562730108
 30
0.0
 11
259.70620075176868
 21
393.85297562730108
 31
0.0
  0
LINE
  5
3A
  8
0
 10
261.20620075176868
 20
358.85297562730119
 30
0.0
 11
261.20620075176868
 21
372.85297562730102
 31
0.0
  0
LINE
  5
3B
  8
1
 10
231.20620075176871
 20
358.85297562730119
 30
0.0
 11
261.20620075176868
 21
358.85297562730119
 31
0.0
  0
ARC
  5
3C
  8
0
 10
246.20620075176871
 20
358.85297562730119
 30
0.0
 40
15.0
 50
180.0
 51
0.0
  0
LINE
  5
3D
  8
0
 10
104.551569519422
 20
343.85297562730108
 30
0.0
 11
104.551569519422
 21
372.85297562730108
 31
0.0
  0
LINE
  5
3E
  8
0
 10
104.551569519422
 20
372.85297562730108
 30
0.0
 11
132.55156951942209
 21
372.85297562730102
 31
0.0
  0
LINE
  5
3F
  8
0
 10
160.551569519422
 20
379.74849916516717
 30
0.0
 11
160.55156951942209
 21
391.8529756273013
 31
0.0
  0
LINE
  5
40
  8
0
 10
134.55156951942209
 20
393.85297562730108
 30
0.0
 11
158.55156951942209
 21
393.85297562730108
 31
0.0
  0
LINE
  5
41
  8
0
 10
124.2820396878768
 20
346.98321176976918
 30
0.0
 11
158.7655075678548
 21
375.91827694957237
 31
0.0
  0
LINE
  5
42
  8
0
 10
123.551569519422
 20
372.85297562730108
 30
0.0
 11
132.55156951942209
 21
380.40487230789671
 31
0.0
  0
LINE
  5
43
  8
0
 10
132.55156951942209
 20
372.85297562730108
 30
0.0
 11
132.55156951942209
 21
391.85297562730108
 31
0.0
  0
LINE
  5
44
  8
1
 10
85.551569519422074
 20
358.85297562730119
 30
0.0
 11
143.4278734083353
 21
358.85297562730119
 31
0.0
  0
LINE
  5
45
  8
1
 10
146.55156951942209
 20
373.85297562730108
 30
0.0
 11
146.55156951942209
 21
453.85297562730119
 31
0.0
  0
ARC
  5
46
  8
0
 10
146.55156951942209
 20
438.85297562730119
 30
0.0
 40
10.0
 50
0.0
 51
180.0
  0
ARC
  5
47
  8
2
 10
146.55156951942209
 20
438.85297562730119
 30
0.0
 40
10.0
 50
180.0
 51
0.0
  0
ARC
  5
48
  8
0
 10
134.55156951942209
 20
391.85297562730108
 30
0.0
 40
2.0
 50
90.0
 51
180.0
  0
ARC
  5
49
  8
0
 10
158.55156951942209
 20
391.8529756273013
 30
0.0
 40
2.0
 50
0.0
 51
90.0
  0
LINE
  5
4A
  8
0
 10
91.751569519422034
 20
362.85297562730108
 30
0.0
 11
91.751569519422105
 21
354.85297562730119
 31
0.0
  0
LINE
  5
4B
  8
0
 10
90.551569519422117
 20
356.05297562730118
 30
0.0
 11
91.751569519422105
 21
354.85297562730119
 31
0.0
  0
LINE
  5
4C
  8
0
 10
91.751569519422034
 20
362.85297562730108
 30
0.0
 11
90.551569519422074
 21
361.65297562730109
 31
0.0
  0
LINE
  5
4D
  8
0
 10
104.551569519422
 20
362.85297562730108
 30
0.0
 11
102.4588514580168
 21
362.85297562730108
 31
0.0
  0
LINE
  5
4E
  8
3
 10
104.551569519422
 20
362.17647562730122
 30
0.0
 11
102.4588514580168
 21
362.17647562730122
 31
0.0
  0
LINE
  5
4F
  8
3
 10
104.551569519422
 20
355.529475627301
 30
0.0
 11
102.4588514580168
 21
355.529475627301
 31
0.0
  0
LINE
  5
50
  8
0
 10
104.551569519422
 20
354.85297562730119
 30
0.0
 11
102.4588514580168
 21
354.85297562730119
 31
0.0
  0
LINE
  5
51
  8
0
 10
90.551569519422074
 20
361.65297562730109
 30
0.0
 11
90.551569519422117
 21
356.05297562730118
 31
0.0
  0
LINE
  5
52
  8
0
 10
102.4588514580168
 20
350.85297562730068
 30
0.0
 11
100.8588514580169
 21
350.85297562730068
 31
0.0
  0
LINE
  5
53
  8
0
 10
102.4588514580168
 20
366.85297562730159
 30
0.0
 11
100.8588514580169
 21
366.85297562730159
 31
0.0
  0
LINE
  5
54
  8
0
 10
100.8588514580169
 20
366.85297562730159
 30
0.0
 11
100.8588514580169
 21
350.85297562730068
 31
0.0
  0
LINE
  5
55
  8
0
 10
102.4588514580168
 20
366.85297562730159
 30
0.0
 11
102.4588514580168
 21
350.85297562730068
 31
0.0
  0
ARC
  5
56
  8
0
 10
97.391944317768832
 20
353.22381050270332
 30
0.0
 40
3.3225695729499738
 50
334.38424746782988
 51
34.38424746804094
  0
ARC
  5
57
  8
0
 10
88.295070474326451
 20
358.85297562730273
 30
0.0
 40
12.41944341639239
 50
342.41204622599253
 51
17.587953773998521
  0
LINE
  5
58
  8
0
 10
100.133957307118
 20
351.34742212783692
 30
0.0
 11
100.8588514580169
 21
352.60297562730318
 31
0.0
  0
LINE
  5
59
  8
0
 10
95.183745608915899
 20
351.34742212783692
 30
0.0
 11
94.458851458017094
 21
352.60297562730318
 31
0.0
  0
ARC
  5
5A
  8
0
 10
97.925758598265134
 20
353.22381050270332
 30
0.0
 40
3.3225695729499738
 50
145.61575253195889
 51
205.61575253217009
  0
ARC
  5
5B
  8
0
 10
107.0226324417075
 20
358.85297562730273
 30
0.0
 40
12.41944341639239
 50
162.41204622600139
 51
197.58795377400739
  0
LINE
  5
5C
  8
0
 10
100.133957307118
 20
351.34742212783692
 30
0.0
 11
95.183745608915899
 21
351.34742212783692
 31
0.0
  0
LINE
  5
5D
  8
0
 10
100.133957307118
 20
355.10019887757119
 30
0.0
 11
95.183745608917434
 21
355.10019887756943
 31
0.0
  0
LINE
  5
5E
  8
0
 10
100.133957307118
 20
362.60575237703239
 30
0.0
 11
95.183745608917434
 21
362.60575237703421
 31
0.0
  0
LINE
  5
5F
  8
0
 10
100.133957307118
 20
366.35852912676671
 30
0.0
 11
95.183745608915899
 21
366.35852912676671
 31
0.0
  0
ARC
  5
60
  8
0
 10
97.925758598265134
 20
364.48214075190037
 30
0.0
 40
3.3225695729499738
 50
154.38424746782991
 51
214.384247468041
  0
LINE
  5
61
  8
0
 10
95.183745608915899
 20
366.35852912676671
 30
0.0
 11
94.458851458017094
 21
365.1029756273004
 31
0.0
  0
LINE
  5
62
  8
0
 10
100.133957307118
 20
366.35852912676671
 30
0.0
 11
100.8588514580169
 21
365.1029756273004
 31
0.0
  0
ARC
  5
63
  8
0
 10
97.391944317768832
 20
364.48214075190037
 30
0.0
 40
3.3225695729499738
 50
325.615752531959
 51
25.615752532170031
  0
LINE
  5
64
  8
0
 10
94.458851458017094
 20
365.1029756273004
 30
0.0
 11
94.458851458017094
 21
352.60297562730341
 31
0.0
  0
LINE
  5
65
  8
3
 10
94.458851458017094
 20
355.529475627301
 30
0.0
 11
91.075069519422186
 21
355.529475627301
 31
0.0
  0
LINE
  5
66
  8
0
 10
94.458851458017094
 20
354.85297562730119
 30
0.0
 11
91.751569519422105
 21
354.85297562730119
 31
0.0
  0
LINE
  5
67
  8
3
 10
94.458851458017094
 20
362.17647562730122
 30
0.0
 11
91.075069519422186
 21
362.17647562730122
 31
0.0
  0
LINE
  5
68
  8
0
 10
94.458851458017094
 20
362.85297562730108
 30
0.0
 11
91.751569519422034
 21
362.85297562730108
 31
0.0
  0
ARC
  5
69
  8
0
 10
155.551569519422
 20
379.74849916516717
 30
0.0
 40
5.0
 50
310.0
 51
359.99999999999989
  0
LINE
  5
6A
  8
1
 10
161.55156951942209
 20
438.85297562730119
 30
0.0
 11
131.55156951942209
 21
438.85297562730119
 31
0.0
  0
LINE
  5
6B
  8
0
 10
231.20620075176871
 20
372.85297562730102
 30
0.0
 11
232.40620075176861
 21
372.85297562730102
 31
0.0
  0
ARC
  5
6C
  8
0
 10
246.20620075176871
 20
358.85297562730119
 30
0.0
 40
14.0
 50
180.0
 51
0.0
  0
LINE
  5
6D
  8
0
 10
232.70620075176859
 20
393.85297562730108
 30
0.0
 11
232.20620075176871
 21
358.85297562730119
 31
0.0
  0
LINE
  5
6E
  8
0
 10
259.70620075176868
 20
393.85297562730108
 30
0.0
 11
260.20620075176868
 21
358.85297562730119
 31
0.0
  0
LINE
  5
6F
  8
0
 10
260.00620075176857
 20
372.85297562730102
 30
0.0
 11
261.20620075176868
 21
372.85297562730102
 31
0.0
  0
LINE
  5
70
  8
0
 10
104.551569519422
 20
343.85297562730108
 30
0.0
 11
118.4348562765567
 21
344.6605306380427
 31
0.0
  0
ARC
  5
71
  8
0
 10
117.8541635910114
 20
354.64365620095907
 30
0.0
 40
10.0
 50
273.32899671650802
 51
310.0
  0
CIRCLE
  5
72
  8
0
 10
246.20620075176871
 20
358.85297562730119
 30
0.0
 40
6.6000000000001364
  0
ARC
  5
73
  8
0
 10
246.20620075176879
 20
363.48200884176072
 30
0.0
 40
13.93495203263152
 50
359.73254392820081
 51
180.26745607179919
  0
CIRCLE
  5
74
  8
0
 10
246.20620075176871
 20
358.85297562730119
 30
0.0
 40
5.6339745962155803
  0
LINE
  5
75
  8
0
 10
243.20620075176899
 20
357.12092481973252
 30
0.0
 11
246.20620075176899
 21
355.38887401216363
 31
0.0
  0
LINE
  5
76
  8
0
 10
246.20620075176899
 20
355.38887401216363
 30
0.0
 11
249.20620075176871
 21
357.12092481973252
 31
0.0
  0
LINE
  5
77
  8
0
 10
249.20620075176871
 20
357.12092481973252
 30
0.0
 11
249.20620075176871
 21
360.58502643487083
 31
0.0
  0
LINE
  5
78
  8
0
 10
249.20620075176871
 20
360.58502643487083
 30
0.0
 11
246.20620075176871
 21
362.3170772424391
 31
0.0
  0
LINE
  5
79
  8
0
 10
246.20620075176871
 20
362.3170772424391
 30
0.0
 11
243.20620075176831
 21
360.58502643486969
 31
0.0
  0
LINE
  5
7A
  8
0
 10
243.20620075176831
 20
360.58502643486969
 30
0.0
 11
243.20620075176899
 21
357.12092481973252
 31
0.0
  0
CIRCLE
  5
7B
  8
0
 10
246.20620075176871
 20
358.85297562730119
 30
0.0
 40
6.5
  0
LINE
  5
7C
  8
1
 10
165.55156951942209
 20
386.85297562730108
 30
0.0
 11
127.5515695194221
 21
386.85297562730108
 31
0.0
  0
LINE
  5
7D
  8
0
 10
136.551569519422
 20
393.85297562730119
 30
0.0
 11
136.551569519422
 21
438.85297562730119
 31
0.0
  0
LINE
  5
7E
  8
0
 10
156.55156951942209
 20
393.85297562730119
 30
0.0
 11
156.551569519422
 21
438.85297562730119
 31
0.0
  0
CIRCLE
  5
7F
  8
0
 10
246.20620075176859
 20
386.85297562730108
 30
0.0
 40
2.0
  0
LINE
  5
80
  8
1
 10
253.20620075176859
 20
386.85297562730108
 30
0.0
 11
239.20620075176859
 21
386.85297562730108
 31
0.0
  0
LINE
  5
81
  8
0
 10
281.20620075176868
 20
448.85297562730119
 30
0.0
 11
611.20620075176851
 21
448.85297562730119
 31
0.0
  0
LINE
  5
82
  8
0
 10
236.20620075176871
 20
393.85297562730108
 30
0.0
 11
236.20620075176851
 21
403.85297562730119
 31
0.0
  0
LINE
  5
83
  8
0
 10
256.20620075176868
 20
393.85297562730108
 30
0.0
 11
256.20620075176868
 21
403.85297562730119
 31
0.0
  0
LINE
  5
84
  8
0
 10
281.20620075176868
 20
428.85297562730119
 30
0.0
 11
611.20620075176851
 21
428.85297562730108
 31
0.0
  0
LINE
  5
85
  8
1
 10
246.20620075176871
 20
338.85297562730108
 30
0.0
 11
246.20620075176871
 21
403.85297562730119
 31
0.0
  0
LINE
  5
86
  8
1
 10
646.20620075176862
 20
338.85297562730108
 30
0.0
 11
646.20620075176862
 21
403.85297562730119
 31
0.0
  0
LINE
  5
87
  8
0
 10
636.20620075176885
 20
393.85297562730108
 30
0.0
 11
636.20620075176885
 21
403.85297562730119
 31
0.0
  0
LINE
  5
88
  8
0
 10
656.20620075176885
 20
393.85297562730108
 30
0.0
 11
656.20620075176885
 21
403.85297562730119
 31
0.0
  0
LINE
  5
89
  8
1
 10
639.20620075176885
 20
386.85297562730108
 30
0.0
 11
653.20620075176885
 21
386.85297562730108
 31
0.0
  0
CIRCLE
  5
8A
  8
0
 10
646.20620075176885
 20
386.85297562730108
 30
0.0
 40
2.0
  0
CIRCLE
  5
8B
  8
0
 10
646.20620075176885
 20
358.85297562730119
 30
0.0
 40
6.5
  0
LINE
  5
8C
  8
0
 10
649.20620075176907
 20
360.58502643486969
 30
0.0
 11
649.20620075176839
 21
357.12092481973252
 31
0.0
  0
LINE
  5
8D
  8
0
 10
646.20620075176885
 20
362.3170772424391
 30
0.0
 11
649.20620075176907
 21
360.58502643486969
 31
0.0
  0
LINE
  5
8E
  8
0
 10
643.20620075176885
 20
360.58502643487083
 30
0.0
 11
646.20620075176885
 21
362.3170772424391
 31
0.0
  0
LINE
  5
8F
  8
0
 10
643.20620075176885
 20
357.12092481973252
 30
0.0
 11
643.20620075176885
 21
360.58502643487083
 31
0.0
  0
LINE
  5
90
  8
0
 10
646.20620075176828
 20
355.38887401216363
 30
0.0
 11
643.20620075176885
 21
357.12092481973252
 31
0.0
  0
LINE
  5
91
  8
0
 10
649.20620075176839
 20
357.12092481973252
 30
0.0
 11
646.20620075176828
 21
355.38887401216363
 31
0.0
  0
CIRCLE
  5
92
  8
0
 10
646.20620075176885
 20
358.85297562730119
 30
0.0
 40
5.6339745962155803
  0
ARC
  5
93
  8
0
 10
646.20620075176862
 20
363.48200884176072
 30
0.0
 40
13.93495203263152
 50
359.73254392820081
 51
180.26745607179919
  0
CIRCLE
  5
94
  8
0
 10
646.20620075176885
 20
358.85297562730119
 30
0.0
 40
6.6000000000001364
  0
LINE
  5
95
  8
0
 10
632.40620075176855
 20
372.85297562730102
 30
0.0
 11
631.20620075176885
 21
372.85297562730102
 31
0.0
  0
LINE
  5
96
  8
0
 10
632.70620075176885
 20
393.85297562730108
 30
0.0
 11
632.20620075176885
 21
358.85297562730119
 31
0.0
  0
LINE
  5
97
  8
0
 10
659.70620075176885
 20
393.85297562730108
 30
0.0
 11
660.20620075176885
 21
358.85297562730119
 31
0.0
  0
ARC
  5
98
  8
0
 10
646.20620075176885
 20
358.85297562730119
 30
0.0
 40
14.0
 50
180.0
 51
0.0
  0
LINE
  5
99
  8
0
 10
661.20620075176851
 20
372.85297562730102
 30
0.0
 11
660.0062007517688
 21
372.85297562730102
 31
0.0
  0
ARC
  5
9A
  8
0
 10
646.20620075176862
 20
358.85297562730119
 30
0.0
 40
15.0
 50
180.0
 51
0.0
  0
LINE
  5
9B
  8
1
 10
661.20620075176885
 20
358.85297562730119
 30
0.0
 11
631.20620075176885
 21
358.85297562730119
 31
0.0
  0
LINE
  5
9C
  8
0
 10
631.20620075176885
 20
358.85297562730119
 30
0.0
 11
631.20620075176885
 21
372.85297562730102
 31
0.0
  0
LINE
  5
9D
  8
0
 10
659.70620075176885
 20
393.85297562730108
 30
0.0
 11
632.70620075176885
 21
393.85297562730108
 31
0.0
  0
LINE
  5
9E
  8
0
 10
661.20620075176885
 20
358.85297562730119
 30
0.0
 11
661.20620075176885
 21
372.85297562730102
 31
0.0
  0
LINE
  5
9F
  8
1
 10
281.20620075176868
 20
438.85297562730119
 30
0.0
 11
611.20620075176851
 21
438.85297562730119
 31
0.0
  0
ARC
  5
A0
  8
0
 10
281.20620075176868
 20
403.85297562730119
 30
0.0
 40
25.0
 50
89.999999999999986
 51
180.0
  0
ARC
  5
A1
  8
0
 10
281.20620075176868
 20
403.85297562730119
 30
0.0
 40
45.0
 50
89.999999999999986
 51
180.0
  0
ARC
  5
A2
  8
1
 10
281.20620075176868
 20
403.85297562730119
 30
0.0
 40
35.0
 50
89.999999999999986
 51
180.0
  0
ARC
  5
A3
  8
0
 10
611.20620075176851
 20
403.85297562730119
 30
0.0
 40
45.0
 50
0.0
 51
90.0
  0
ARC
  5
A4
  8
1
 10
611.20620075176851
 20
403.85297562730119
 30
0.0
 40
35.0
 50
0.0
 51
90.0
  0
ARC
  5
A5
  8
0
 10
611.20620075176851
 20
403.85297562730119
 30
0.0
 40
25.0
 50
0.0
 51
90.0
  0
LINE
  5
A6
  8
0
 10
231.20620075176871
 20
176.25186900666179
 30
0.0
 11
261.20620075176868
 21
176.25186900666179
 31
0.0
  0
LINE
  5
A7
  8
1
 10
246.20620075176871
 20
157.25186900666179
 30
0.0
 11
246.20620075176871
 21
237.25186900666179
 31
0.0
  0
ARC
  5
A8
  8
0
 10
246.20620075176871
 20
218.75186900666179
 30
0.0
 40
13.5
 50
2.01017201050839
 51
177.9898279894916
  0
LINE
  5
A9
  8
0
 10
231.20620075176871
 20
176.25186900666179
 30
0.0
 11
232.71450844407639
 21
219.2254074682003
 31
0.0
  0
LINE
  5
AA
  8
0
 10
261.20620075176868
 20
176.25186900666179
 30
0.0
 11
259.69789305946102
 21
219.2254074682003
 31
0.0
  0
POLYLINE
  5
AB
  8
0
 66
     1
 10
0.0
 20
0.0
 30
0.0
  0
VERTEX
  5
AC
  8
0
 10
232.39520895476619
 20
210.12817289557501
 30
0.0
 42
0.0827663488965848
  0
VERTEX
  5
AD
  8
0
 10
233.4818545497736
 20
203.6086042828824
 30
0.0
 42
0.0905296676239215
  0
VERTEX
  5
AE
  8
0
 10
236.44035479719659
 20
198.33041423999981
 30
0.0
 42
0.1042211828574746
 70
     2
 50
309.61698165889038
  0
VERTEX
  5
AF
  8
0
 10
241.0576169863464
 20
194.65989954450961
 30
0.0
 42
0.1165141120032318
 50
309.61698165889038
  0
VERTEX
  5
B0
  8
0
 10
246.20620075176871
 20
193.443622599256
 30
0.0
 42
0.1165141120032305
  0
VERTEX
  5
B1
  8
0
 10
251.35478451719101
 20
194.65989954450961
 30
0.0
 42
0.1042211828574737
  0
VERTEX
  5
B2
  8
0
 10
255.9720467063409
 20
198.33041423999981
 30
0.0
 42
0.090529667623925
 70
     2
 50
50.383018341109597
  0
VERTEX
  5
B3
  8
0
 10
258.93054695376378
 20
203.60860428288251
 30
0.0
 42
0.0827663488965858
 50
50.383018341109597
  0
VERTEX
  5
B4
  8
0
 10
260.01719254877111
 20
210.12817289557501
 30
0.0
 42
0.0827663488965858
  0
SEQEND
  5
B5
  8
0
  0
POLYLINE
  5
B6
  8
0
 66
     1
 10
0.0
 20
0.0
 30
0.0
 70
     1
  0
VERTEX
  5
B7
  8
0
 10
246.20620075176879
 20
202.26259918445319
 30
0.0
 42
0.1151415934210808
  0
VERTEX
  5
B8
  8
0
 10
248.6717007958583
 20
202.83799069450191
 30
0.0
 42
0.1039008669419147
  0
VERTEX
  5
B9
  8
0
 10
250.87310550760009
 20
204.5663723865182
 30
0.0
 42
0.0911578734171868
 70
     2
 50
49.999999999999353
  0
VERTEX
  5
BA
  8
0
 10
252.28799208791739
 20
207.05875811736411
 30
0.0
 42
0.0838217899890506
 50
49.999999999999353
  0
VERTEX
  5
BB
  8
0
 10
252.8062007517689
 20
210.12817289557509
 30
0.0
 42
0.0838217899890645
  0
VERTEX
  5
BC
  8
0
 10
252.2879920879173
 20
213.19758767378619
 30
0.0
 42
0.0911578734171921
  0
VERTEX
  5
BD
  8
0
 10
250.87310550760009
 20
215.6899734046319
 30
0.0
 42
0.1039008669419211
 70
     2
 50
130.00000000000071
  0
VERTEX
  5
BE
  8
0
 10
248.6717007958581
 20
217.41835509664821
 30
0.0
 42
0.1151415934210804
 50
130.00000000000071
  0
VERTEX
  5
BF
  8
0
 10
246.20620075176879
 20
217.9937466066969
 30
0.0
 42
0.1151415934210832
  0
VERTEX
  5
C0
  8
0
 10
243.74070070767931
 20
217.4183550966481
 30
0.0
 42
0.1039008669419233
  0
VERTEX
  5
C1
  8
0
 10
241.53929599593741
 20
215.6899734046319
 30
0.0
 42
0.0911578734171832
 70
     2
 50
229.99999999999929
  0
VERTEX
  5
C2
  8
0
 10
240.12440941562019
 20
213.1975876737861
 30
0.0
 42
0.083821789989049
 50
229.99999999999929
  0
VERTEX
  5
C3
  8
0
 10
239.60620075176851
 20
210.12817289557509
 30
0.0
 42
0.0838217899890551
  0
VERTEX
  5
C4
  8
0
 10
240.12440941562019
 20
207.05875811736391
 30
0.0
 42
0.0911578734171808
  0
VERTEX
  5
C5
  8
0
 10
241.53929599593741
 20
204.5663723865182
 30
0.0
 42
0.103900866941923
 70
     2
 50
310.00000000000068
  0
VERTEX
  5
C6
  8
0
 10
243.74070070767931
 20
202.837990694502
 30
0.0
 42
0.1151415934210861
 50
310.00000000000068
  0
SEQEND
  5
C7
  8
0
  0
LINE
  5
C8
  8
1
 10
234.60620075176851
 20
210.12817289557509
 30
0.0
 11
257.80620075176893
 21
210.12817289557509
 31
0.0
  0
LINE
  5
C9
  8
1
 10
657.80620075176853
 20
210.12817289557509
 30
0.0
 11
634.60620075176826
 21
210.12817289557509
 31
0.0
  0
POLYLINE
  5
CA
  8
0
 66
     1
 10
0.0
 20
0.0
 30
0.0
 70
     1
  0
VERTEX
  5
CB
  8
0
 10
646.20620075176828
 20
202.26259918445319
 30
0.0
 42
-0.1151415934210808
  0
VERTEX
  5
CC
  8
0
 10
643.7407007076788
 20
202.83799069450191
 30
0.0
 42
-0.1039008669419147
  0
VERTEX
  5
CD
  8
0
 10
641.53929599593687
 20
204.5663723865182
 30
0.0
 42
-0.0911578734171868
 70
     2
 50
49.999999999999353
  0
VERTEX
  5
CE
  8
0
 10
640.12440941561965
 20
207.05875811736411
 30
0.0
 42
-0.0838217899890506
  0
VERTEX
  5
CF
  8
0
 10
639.60620075176826
 20
210.12817289557509
 30
0.0
 42
-0.0838217899890645
  0
VERTEX
  5
D0
  8
0
 10
640.12440941561999
 20
213.19758767378619
 30
0.0
 42
-0.0911578734171921
  0
VERTEX
  5
D1
  8
0
 10
641.53929599593687
 20
215.6899734046319
 30
0.0
 42
-0.1039008669419211
 70
     2
 50
130.00000000000071
  0
VERTEX
  5
D2
  8
0
 10
643.74070070767903
 20
217.41835509664821
 30
0.0
 42
-0.1151415934210804
  0
VERTEX
  5
D3
  8
0
 10
646.20620075176828
 20
217.9937466066969
 30
0.0
 42
-0.1151415934210832
  0
VERTEX
  5
D4
  8
0
 10
648.67170079585765
 20
217.4183550966481
 30
0.0
 42
-0.1039008669419233
  0
VERTEX
  5
D5
  8
0
 10
650.8731055075998
 20
215.6899734046319
 30
0.0
 42
-0.0911578734171832
 70
     2
 50
229.99999999999929
  0
VERTEX
  5
D6
  8
0
 10
652.2879920879169
 20
213.1975876737861
 30
0.0
 42
-0.083821789989049
  0
VERTEX
  5
D7
  8
0
 10
652.80620075176853
 20
210.12817289557509
 30
0.0
 42
-0.0838217899890551
  0
VERTEX
  5
D8
  8
0
 10
652.2879920879169
 20
207.05875811736391
 30
0.0
 42
-0.0911578734171808
  0
VERTEX
  5
D9
  8
0
 10
650.8731055075998
 20
204.5663723865182
 30
0.0
 42
-0.103900866941923
 70
     2
 50
310.00000000000068
  0
VERTEX
  5
DA
  8
0
 10
648.67170079585799
 20
202.837990694502
 30
0.0
 42
-0.1151415934210861
  0
SEQEND
  5
DB
  8
0
  0
POLYLINE
  5
DC
  8
0
 66
     1
 10
0.0
 20
0.0
 30
0.0
  0
VERTEX
  5
DD
  8
0
 10
660.01719254877094
 20
210.12817289557501
 30
0.0
 42
-0.0827663488965848
  0
VERTEX
  5
DE
  8
0
 10
658.93054695376338
 20
203.6086042828824
 30
0.0
 42
-0.0905296676239215
  0
VERTEX
  5
DF
  8
0
 10
655.97204670634073
 20
198.33041423999981
 30
0.0
 42
-0.1042211828574746
 70
     2
 50
309.61698165889038
  0
VERTEX
  5
E0
  8
0
 10
651.35478451719075
 20
194.65989954450961
 30
0.0
 42
-0.1165141120032318
  0
VERTEX
  5
E1
  8
0
 10
646.20620075176828
 20
193.443622599256
 30
0.0
 42
-0.1165141120032305
  0
VERTEX
  5
E2
  8
0
 10
641.05761698634615
 20
194.65989954450961
 30
0.0
 42
-0.1042211828574737
  0
VERTEX
  5
E3
  8
0
 10
636.44035479719628
 20
198.33041423999981
 30
0.0
 42
-0.090529667623925
 70
     2
 50
50.383018341109597
  0
VERTEX
  5
E4
  8
0
 10
633.48185454977317
 20
203.60860428288251
 30
0.0
 42
-0.0827663488965858
  0
VERTEX
  5
E5
  8
0
 10
632.39520895476608
 20
210.12817289557501
 30
0.0
 42
-0.0827663488965858
  0
SEQEND
  5
E6
  8
0
  0
LINE
  5
E7
  8
0
 10
631.20620075176839
 20
176.25186900666179
 30
0.0
 11
632.71450844407616
 21
219.2254074682003
 31
0.0
  0
LINE
  5
E8
  8
0
 10
661.20620075176839
 20
176.25186900666179
 30
0.0
 11
659.69789305946074
 21
219.2254074682003
 31
0.0
  0
ARC
  5
E9
  8
0
 10
646.20620075176828
 20
218.75186900666179
 30
0.0
 40
13.5
 50
2.0101720105083949
 51
177.9898279894916
  0
LINE
  5
EA
  8
0
 10
661.20620075176839
 20
176.25186900666179
 30
0.0
 11
631.20620075176862
 21
176.25186900666179
 31
0.0
  0
LINE
  5
EB
  8
0
 10
260.08304804240908
 20
208.25186900666191
 30
0.0
 11
632.32935346112799
 21
208.25186900666179
 31
0.0
  0
LINE
  5
EC
  8
0
 10
255.7978637983941
 20
228.25186900666191
 30
0.0
 11
636.61453770514299
 21
228.25186900666191
 31
0.0
  0
LINE
  5
ED
  8
1
 10
254.73206282073409
 20
218.25186900666191
 30
0.0
 11
637.68033868280304
 21
218.25186900666191
 31
0.0
  0
LINE
  5
EE
  8
0
 10
242.20620075176871
 20
163.45186900666181
 30
0.0
 11
250.20620075176879
 21
163.45186900666181
 31
0.0
  0
LINE
  5
EF
  8
0
 10
249.00620075176869
 20
162.25186900666191
 30
0.0
 11
250.20620075176879
 21
163.45186900666181
 31
0.0
  0
LINE
  5
F0
  8
0
 10
242.20620075176879
 20
163.45186900666181
 30
0.0
 11
243.40620075176869
 21
162.25186900666179
 31
0.0
  0
LINE
  5
F1
  8
0
 10
242.20620075176879
 20
176.25186900666179
 30
0.0
 11
242.20620075176879
 21
174.15915094525661
 31
0.0
  0
LINE
  5
F2
  8
3
 10
242.8827007517686
 20
176.25186900666179
 30
0.0
 11
242.8827007517686
 21
174.15915094525661
 31
0.0
  0
LINE
  5
F3
  8
3
 10
249.5297007517689
 20
176.25186900666179
 30
0.0
 11
249.5297007517689
 21
174.15915094525661
 31
0.0
  0
LINE
  5
F4
  8
0
 10
250.20620075176871
 20
176.25186900666179
 30
0.0
 11
250.20620075176871
 21
174.15915094525661
 31
0.0
  0
LINE
  5
F5
  8
0
 10
243.40620075176869
 20
162.25186900666179
 30
0.0
 11
249.00620075176869
 21
162.25186900666191
 31
0.0
  0
LINE
  5
F6
  8
0
 10
254.2062007517691
 20
174.15915094525661
 30
0.0
 11
254.2062007517691
 21
172.55915094525659
 31
0.0
  0
LINE
  5
F7
  8
0
 10
238.20620075176831
 20
174.15915094525661
 30
0.0
 11
238.20620075176831
 21
172.55915094525659
 31
0.0
  0
LINE
  5
F8
  8
0
 10
238.20620075176831
 20
172.55915094525659
 30
0.0
 11
254.2062007517691
 21
172.55915094525659
 31
0.0
  0
LINE
  5
F9
  8
0
 10
238.20620075176831
 20
174.15915094525661
 30
0.0
 11
254.2062007517691
 21
174.15915094525661
 31
0.0
  0
LINE
  5
FA
  8
3
 10
249.5297007517689
 20
166.15915094525681
 30
0.0
 11
249.5297007517689
 21
162.77536900666189
 31
0.0
  0
LINE
  5
FB
  8
0
 10
250.20620075176879
 20
166.15915094525681
 30
0.0
 11
250.20620075176879
 21
163.45186900666181
 31
0.0
  0
LINE
  5
FC
  8
3
 10
242.8827007517686
 20
166.15915094525681
 30
0.0
 11
242.8827007517686
 21
162.77536900666189
 31
0.0
  0
LINE
  5
FD
  8
0
 10
242.20620075176879
 20
166.15915094525681
 30
0.0
 11
242.20620075176879
 21
163.45186900666181
 31
0.0
  0
LINE
  5
FE
  8
0
 10
252.70620075176851
 20
172.41481337795861
 30
0.0
 11
252.45620075176731
 21
172.55915094525659
 31
0.0
  0
ARC
  5
FF
  8
0
 10
249.45620075176839
 20
163.02766124270991
 30
0.0
 40
9.3871521352487513
 50
69.743841999582827
 51
110.2561580004171
  0
ARC
  5
100
  8
0
 10
249.45620075176839
 20
175.6906406478036
 30
0.0
 40
9.3871521352487513
 50
249.7438419995828
 51
290.25615800041709
  0
LINE
  5
101
  8
0
 10
252.70620075176851
 20
166.30348851255491
 30
0.0
 11
252.45620075176731
 21
166.15915094525681
 31
0.0
  0
LINE
  5
102
  8
0
 10
252.70620075176851
 20
172.41481337795861
 30
0.0
 11
252.70620075176851
 21
166.30348851255491
 31
0.0
  0
LINE
  5
103
  8
0
 10
246.20620075176871
 20
171.8342567943574
 30
0.0
 11
246.20620075176871
 21
166.8840450961556
 31
0.0
  0
LINE
  5
104
  8
0
 10
239.7062007517689
 20
172.41481337795861
 30
0.0
 11
239.7062007517689
 21
166.30348851255491
 31
0.0
  0
LINE
  5
105
  8
0
 10
239.7062007517689
 20
166.30348851255491
 30
0.0
 11
239.9562007517701
 21
166.15915094525681
 31
0.0
  0
ARC
  5
106
  8
0
 10
242.9562007517689
 20
175.6906406478036
 30
0.0
 40
9.3871521352487513
 50
249.7438419995828
 51
290.25615800041709
  0
ARC
  5
107
  8
0
 10
242.9562007517689
 20
163.02766124270991
 30
0.0
 40
9.3871521352487513
 50
69.743841999582827
 51
110.2561580004171
  0
LINE
  5
108
  8
0
 10
239.7062007517689
 20
172.41481337795861
 30
0.0
 11
239.9562007517701
 21
172.55915094525659
 31
0.0
  0
LINE
  5
109
  8
0
 10
252.45620075176731
 20
166.15915094525681
 30
0.0
 11
239.9562007517701
 21
166.15915094525681
 31
0.0
  0
LINE
  5
10A
  8
0
 10
652.45620075176703
 20
166.15915094525681
 30
0.0
 11
639.95620075176976
 21
166.15915094525681
 31
0.0
  0
LINE
  5
10B
  8
0
 10
639.70620075176862
 20
172.41481337795861
 30
0.0
 11
639.95620075176976
 21
172.55915094525659
 31
0.0
  0
ARC
  5
10C
  8
0
 10
642.95620075176862
 20
163.02766124270991
 30
0.0
 40
9.3871521352487513
 50
69.743841999582827
 51
110.2561580004171
  0
ARC
  5
10D
  8
0
 10
642.95620075176862
 20
175.6906406478036
 30
0.0
 40
9.3871521352487513
 50
249.7438419995828
 51
290.25615800041709
  0
LINE
  5
10E
  8
0
 10
639.70620075176862
 20
166.30348851255491
 30
0.0
 11
639.95620075176976
 21
166.15915094525681
 31
0.0
  0
LINE
  5
10F
  8
0
 10
639.70620075176862
 20
172.41481337795861
 30
0.0
 11
639.70620075176862
 21
166.30348851255491
 31
0.0
  0
LINE
  5
110
  8
0
 10
646.20620075176828
 20
171.8342567943574
 30
0.0
 11
646.20620075176828
 21
166.8840450961556
 31
0.0
  0
LINE
  5
111
  8
0
 10
652.70620075176805
 20
172.41481337795861
 30
0.0
 11
652.70620075176805
 21
166.30348851255491
 31
0.0
  0
LINE
  5
112
  8
0
 10
652.70620075176805
 20
166.30348851255491
 30
0.0
 11
652.45620075176703
 21
166.15915094525681
 31
0.0
  0
ARC
  5
113
  8
0
 10
649.45620075176805
 20
175.6906406478036
 30
0.0
 40
9.3871521352487513
 50
249.7438419995828
 51
290.25615800041709
  0
ARC
  5
114
  8
0
 10
649.45620075176805
 20
163.02766124270991
 30
0.0
 40
9.3871521352487513
 50
69.743841999582827
 51
110.2561580004171
  0
LINE
  5
115
  8
0
 10
652.70620075176805
 20
172.41481337795861
 30
0.0
 11
652.45620075176703
 21
172.55915094525659
 31
0.0
  0
LINE
  5
116
  8
0
 10
642.20620075176862
 20
166.15915094525681
 30
0.0
 11
642.20620075176862
 21
163.45186900666181
 31
0.0
  0
LINE
  5
117
  8
3
 10
642.88270075176843
 20
166.15915094525681
 30
0.0
 11
642.88270075176843
 21
162.77536900666189
 31
0.0
  0
LINE
  5
118
  8
0
 10
650.20620075176862
 20
166.15915094525681
 30
0.0
 11
650.20620075176862
 21
163.45186900666181
 31
0.0
  0
LINE
  5
119
  8
3
 10
649.52970075176847
 20
166.15915094525681
 30
0.0
 11
649.52970075176847
 21
162.77536900666189
 31
0.0
  0
LINE
  5
11A
  8
0
 10
638.20620075176805
 20
174.15915094525661
 30
0.0
 11
654.20620075176885
 21
174.15915094525661
 31
0.0
  0
LINE
  5
11B
  8
0
 10
638.20620075176805
 20
172.55915094525659
 30
0.0
 11
654.20620075176885
 21
172.55915094525659
 31
0.0
  0
LINE
  5
11C
  8
0
 10
638.20620075176805
 20
174.15915094525661
 30
0.0
 11
638.20620075176805
 21
172.55915094525659
 31
0.0
  0
LINE
  5
11D
  8
0
 10
654.20620075176885
 20
174.15915094525661
 30
0.0
 11
654.20620075176885
 21
172.55915094525659
 31
0.0
  0
LINE
  5
11E
  8
0
 10
643.40620075176844
 20
162.25186900666179
 30
0.0
 11
649.00620075176857
 21
162.25186900666191
 31
0.0
  0
LINE
  5
11F
  8
0
 10
650.20620075176828
 20
176.25186900666179
 30
0.0
 11
650.20620075176828
 21
174.15915094525661
 31
0.0
  0
LINE
  5
120
  8
3
 10
649.52970075176847
 20
176.25186900666179
 30
0.0
 11
649.52970075176847
 21
174.15915094525661
 31
0.0
  0
LINE
  5
121
  8
3
 10
642.88270075176843
 20
176.25186900666179
 30
0.0
 11
642.88270075176843
 21
174.15915094525661
 31
0.0
  0
LINE
  5
122
  8
0
 10
642.20620075176862
 20
176.25186900666179
 30
0.0
 11
642.20620075176862
 21
174.15915094525661
 31
0.0
  0
LINE
  5
123
  8
0
 10
642.20620075176862
 20
163.45186900666181
 30
0.0
 11
643.40620075176844
 21
162.25186900666179
 31
0.0
  0
LINE
  5
124
  8
0
 10
649.00620075176857
 20
162.25186900666191
 30
0.0
 11
650.20620075176862
 21
163.45186900666181
 31
0.0
  0
LINE
  5
125
  8
0
 10
642.20620075176828
 20
163.45186900666181
 30
0.0
 11
650.20620075176862
 21
163.45186900666181
 31
0.0
  0
LINE
  5
126
  8
1
 10
646.20620075176828
 20
157.25186900666179
 30
0.0
 11
646.20620075176828
 21
237.25186900666179
 31
0.0
  0
TEXT
  5
247
  8
0
 62
     3
 10
0.0
 20
0.0
 30
0.0
 40
10.0
  1
MH13-400N
  7
STANDARD1
  0
ENDSEC
  0
EOF
