  0
SECTION
  2
HEADER
  9
$ACADVER
  1
AC1009
  9
$INSBASE
 10
0.0
 20
0.0
 30
0.0
  9
$EXTMIN
 10
0.0
 20
-2.960436562073669
 30
0.0
  9
$EXTMAX
 10
534.30128372462332
 20
423.24610311750592
 30
0.0
  9
$LIMMIN
 10
0.0
 20
0.0
  9
$LIMMAX
 10
750.0
 20
540.0
  9
$ORTHOMODE
 70
     1
  9
$REGENMODE
 70
     1
  9
$FILLMODE
 70
     1
  9
$QTEXTMODE
 70
     0
  9
$MIRRTEXT
 70
     0
  9
$DRAGMODE
 70
     2
  9
$LTSCALE
 40
20.0
  9
$OSMODE
 70
  3071
  9
$ATTMODE
 70
     1
  9
$TEXTSIZE
 40
10.000000000000499
  9
$TRACEWID
 40
0.05
  9
$TEXTSTYLE
  7
STANDARD
  9
$CLAYER
  8
0
  9
$CELTYPE
  6
BYLAYER
  9
$CECOLOR
 62
   256
  9
$DIMSCALE
 40
2.0
  9
$DIMASZ
 40
3.0
  9
$DIMEXO
 40
2.0
  9
$DIMDLI
 40
0.3799999999999999
  9
$DIMRND
 40
0.0
  9
$DIMDLE
 40
0.0
  9
$DIMEXE
 40
2.0
  9
$DIMTP
 40
0.0
  9
$DIMTM
 40
0.0
  9
$DIMTXT
 40
3.2000000000000002
  9
$DIMCEN
 40
0.09
  9
$DIMTSZ
 40
0.0
  9
$DIMTOL
 70
     0
  9
$DIMLIM
 70
     0
  9
$DIMTIH
 70
     0
  9
$DIMTOH
 70
     0
  9
$DIMSE1
 70
     0
  9
$DIMSE2
 70
     0
  9
$DIMTAD
 70
     1
  9
$DIMZIN
 70
     0
  9
$DIMBLK
  1

  9
$DIMASO
 70
     1
  9
$DIMSHO
 70
     0
  9
$DIMPOST
  1

  9
$DIMAPOST
  1

  9
$DIMALT
 70
     0
  9
$DIMALTD
 70
     2
  9
$DIMALTF
 40
25.399999999999999
  9
$DIMLFAC
 40
1.0
  9
$DIMTOFL
 70
     0
  9
$DIMTVP
 40
0.0
  9
$DIMTIX
 70
     0
  9
$DIMSOXD
 70
     0
  9
$DIMSAH
 70
     0
  9
$DIMBLK1
  1

  9
$DIMBLK2
  1

  9
$DIMSTYLE
  2
STANDARD
  9
$DIMCLRD
 70
     0
  9
$DIMCLRE
 70
     0
  9
$DIMCLRT
 70
     0
  9
$DIMTFAC
 40
1.0
  9
$DIMGAP
 40
0.09
  9
$LUNITS
 70
     2
  9
$LUPREC
 70
     4
  9
$SKETCHINC
 40
0.1
  9
$FILLETRAD
 40
0.0
  9
$AUNITS
 70
     0
  9
$AUPREC
 70
     0
  9
$MENU
  1
E:\r13\win\SUPPORT\ACAD
  9
$ELEVATION
 40
0.0
  9
$PELEVATION
 40
0.0
  9
$THICKNESS
 40
0.0
  9
$LIMCHECK
 70
     0
  9
$BLIPMODE
 70
     0
  9
$CHAMFERA
 40
0.0
  9
$CHAMFERB
 40
0.0
  9
$SKPOLY
 70
     0
  9
$TDCREATE
 40
2449840.6320601851
  9
$TDUPDATE
 40
2456597.6543634501
  9
$TDINDWG
 40
0.000156956
  9
$TDUSRTIMER
 40
0.000156956
  9
$USRTIMER
 70
     1
  9
$ANGBASE
 50
0.0
  9
$ANGDIR
 70
     0
  9
$PDMODE
 70
     0
  9
$PDSIZE
 40
0.0
  9
$PLINEWID
 40
0.0
  9
$COORDS
 70
     1
  9
$SPLFRAME
 70
     0
  9
$SPLINETYPE
 70
     6
  9
$SPLINESEGS
 70
     8
  9
$ATTDIA
 70
     0
  9
$ATTREQ
 70
     1
  9
$HANDLING
 70
     1
  9
$HANDSEED
  5
28C
  9
$SURFTAB1
 70
     6
  9
$SURFTAB2
 70
     6
  9
$SURFTYPE
 70
     6
  9
$SURFU
 70
     6
  9
$SURFV
 70
     6
  9
$UCSNAME
  2

  9
$UCSORG
 10
0.0
 20
0.0
 30
0.0
  9
$UCSXDIR
 10
1.0
 20
0.0
 30
0.0
  9
$UCSYDIR
 10
0.0
 20
1.0
 30
0.0
  9
$PUCSNAME
  2

  9
$PUCSORG
 10
0.0
 20
0.0
 30
0.0
  9
$PUCSXDIR
 10
1.0
 20
0.0
 30
0.0
  9
$PUCSYDIR
 10
0.0
 20
1.0
 30
0.0
  9
$USERI1
 70
     0
  9
$USERI2
 70
     1
  9
$USERI3
 70
     1
  9
$USERI4
 70
     0
  9
$USERI5
 70
     0
  9
$USERR1
 40
0.0
  9
$USERR2
 40
0.0
  9
$USERR3
 40
0.0
  9
$USERR4
 40
0.0
  9
$USERR5
 40
0.0
  9
$WORLDVIEW
 70
     1
  9
$SHADEDGE
 70
     3
  9
$SHADEDIF
 70
    70
  9
$TILEMODE
 70
     1
  9
$MAXACTVP
 70
    16
  9
$PLIMCHECK
 70
     0
  9
$PEXTMIN
 10
1.0000000000000000E+020
 20
1.0000000000000000E+020
 30
1.0000000000000000E+020
  9
$PEXTMAX
 10
-1.0000000000000000E+020
 20
-1.0000000000000000E+020
 30
-1.0000000000000000E+020
  9
$PLIMMIN
 10
0.0
 20
0.0
  9
$PLIMMAX
 10
12.0
 20
9.0
  9
$UNITMODE
 70
     0
  9
$VISRETAIN
 70
     0
  9
$PLINEGEN
 70
     0
  9
$PSLTSCALE
 70
     0
  0
ENDSEC
  0
SECTION
  2
TABLES
  0
TABLE
  2
VPORT
 70
     1
  0
VPORT
  2
*ACTIVE
 70
     0
 10
0.0
 20
0.0
 11
1.0
 21
1.0
 12
374.98855678130462
 22
269.68405869568772
 13
0.0
 23
0.0
 14
20.0
 24
20.0
 15
20.0
 25
20.0
 16
0.0
 26
0.0
 36
1.0
 17
0.0
 27
0.0
 37
0.0
 40
551.57487251346481
 41
2.304913294797688
 42
50.0
 43
0.0
 44
0.0
 50
0.0
 51
0.0
 71
     0
 72
   500
 73
     1
 74
     0
 75
     0
 76
     0
 77
     0
 78
     1
  0
ENDTAB
  0
TABLE
  2
LTYPE
 70
     3
  0
LTYPE
  2
CONTINUOUS
 70
     0
  3
Solid Line
 72
    65
 73
     0
 40
0.0
  0
LTYPE
  2
CENTER
 70
     0
  3
____ _ ____ _ ____ _ ____ _ ____ _ ____ _ ____
 72
    65
 73
     4
 40
2.0
 49
1.25
 49
-0.25
 49
0.25
 49
-0.25
  0
LTYPE
  2
PHANTOM2
 70
     0
  3
___ _ _ ___ _ _ ___ _ _ ___ _ _
 72
    65
 73
     6
 40
1.25
 49
0.625
 49
-0.125
 49
0.125
 49
-0.125
 49
0.125
 49
-0.125
  0
ENDTAB
  0
TABLE
  2
LAYER
 70
     3
  0
LAYER
  2
0
 70
     0
 62
     7
  6
CONTINUOUS
  0
LAYER
  2
1
 70
     0
 62
     1
  6
CENTER
  0
LAYER
  2
3
 70
     0
 62
     3
  6
CONTINUOUS
  0
ENDTAB
  0
TABLE
  2
STYLE
 70
     2
  0
STYLE
  2
STANDARD
 70
     0
 40
0.0
 41
1.0
 50
0.0
 71
     0
 42
10.000000000000499
  3
TXT
  4
BIGFONT
  0
STYLE
  2
STANDARD1
 70
     0
 40
0.0
 41
1.0
 50
0.0
 71
     0
 42
3.0
  3
txt
  4

  0
ENDTAB
  0
TABLE
  2
VIEW
 70
     1
  0
VIEW
  2
ALL
 70
     0
 40
540.0
 10
441.98319327731087
 20
270.0
 41
0.0
 11
0.0
 21
0.0
 31
1.0
 12
0.0
 22
0.0
 32
0.0
 42
0.0
 43
0.0
 44
0.0
 50
0.0
 71
     0
  0
ENDTAB
  0
TABLE
  2
UCS
 70
     0
  0
ENDTAB
  0
TABLE
  2
APPID
 70
     3
  0
APPID
  2
ACAD
 70
     0
  0
APPID
  2
ACAD_MLEADERVER
 70
     0
  0
APPID
  2
ACAD_NAV_VCDISPLAY
 70
     0
  0
ENDTAB
  0
TABLE
  2
DIMSTYLE
 70
     1
  0
DIMSTYLE
  2
STANDARD
 70
     0
  3

  4

  5

  6

  7

 40
1.0
 41
0.18
 42
0.0625
 43
0.38
 44
0.18
 45
0.0
 46
0.0
 47
0.0
 48
0.0
140
0.18
141
0.09
142
0.0
143
25.399999999999999
144
1.0
145
0.0
146
1.0
147
0.09
 71
     0
 72
     0
 73
     1
 74
     1
 75
     0
 76
     0
 77
     0
 78
     0
170
     0
171
     2
172
     0
173
     0
174
     0
175
     0
176
     0
177
     0
178
     0
  0
ENDTAB
  0
ENDSEC
  0
SECTION
  2
BLOCKS
  0
BLOCK
  8
0
  2
$MODEL_SPACE
 70
     0
 10
0.0
 20
0.0
 30
0.0
  3
$MODEL_SPACE
  1

  0
ENDBLK
  5
10B
  8
0
  0
BLOCK
 67
     1
  8
0
  2
$PAPER_SPACE
 70
     0
 10
0.0
 20
0.0
 30
0.0
  3
$PAPER_SPACE
  1

  0
ENDBLK
  5
109
 67
     1
  8
0
  0
ENDSEC
  0
SECTION
  2
ENTITIES
  0
LINE
  5
38
  8
1
 10
340.30128372462337
 20
226.56125099920069
 30
0.0
 11
480.30128372462337
 21
226.56125099920069
 31
0.0
  0
LINE
  5
39
  8
1
 10
310.30128372462337
 20
423.24610311750592
 30
0.0
 11
310.30128372462337
 21
385.24610311750598
 31
0.0
  0
LINE
  5
3A
  8
1
 10
286.30128372462337
 20
404.24610311750598
 30
0.0
 11
534.30128372462332
 21
404.24610311750598
 31
0.0
  0
LINE
  5
3B
  8
1
 10
310.30128372462337
 20
241.56125099920069
 30
0.0
 11
310.30128372462337
 21
148.56125099920069
 31
0.0
  0
ARC
  5
3C
  8
0
 10
310.30128372462337
 20
404.24610311750598
 30
0.0
 40
14.0
 50
90.0
 51
270.0
  0
LINE
  5
3D
  8
0
 10
310.30128372462337
 20
418.24610311750592
 30
0.0
 11
510.30128372462337
 21
418.24610311750592
 31
0.0
  0
LINE
  5
3E
  8
0
 10
310.30128372462337
 20
390.24610311750598
 30
0.0
 11
510.30128372462337
 21
390.24610311750598
 31
0.0
  0
CIRCLE
  5
3F
  8
0
 10
310.30128372462337
 20
404.24610311750598
 30
0.0
 40
7.7875644347017641
  0
LINE
  5
40
  8
0
 10
313.188035070571
 20
399.24610311750661
 30
0.0
 11
316.07478641651932
 21
404.24610311750649
 31
0.0
  0
LINE
  5
41
  8
0
 10
316.07478641651932
 20
404.24610311750649
 30
0.0
 11
313.188035070571
 21
409.24610311750592
 31
0.0
  0
LINE
  5
42
  8
0
 10
313.188035070571
 20
409.24610311750592
 30
0.0
 11
307.41453237867398
 21
409.24610311750592
 31
0.0
  0
LINE
  5
43
  8
0
 10
307.41453237867398
 20
409.24610311750592
 30
0.0
 11
304.52778103272692
 21
404.24610311750598
 31
0.0
  0
LINE
  5
44
  8
0
 10
304.52778103272692
 20
404.24610311750598
 30
0.0
 11
307.41453237867569
 21
399.24610311750541
 31
0.0
  0
LINE
  5
45
  8
0
 10
307.41453237867569
 20
399.24610311750541
 30
0.0
 11
313.188035070571
 21
399.24610311750661
 31
0.0
  0
CIRCLE
  5
46
  8
0
 10
310.30128372462337
 20
404.24610311750598
 30
0.0
 40
9.0
  0
LINE
  5
47
  8
0
 10
296.30128372462337
 20
176.56125099920061
 30
0.0
 11
296.30128372462337
 21
233.56125099920069
 31
0.0
  0
LINE
  5
48
  8
0
 10
299.30128372462337
 20
236.56125099920069
 30
0.0
 11
521.30128372462343
 21
236.56125099920069
 31
0.0
  0
LINE
  5
49
  8
0
 10
330.30128372462337
 20
176.56125099920061
 30
0.0
 11
330.30128372462337
 21
204.06125099920069
 31
0.0
  0
LINE
  5
4A
  8
0
 10
342.80128372462337
 20
216.56125099920069
 30
0.0
 11
477.80128372462337
 21
216.56125099920069
 31
0.0
  0
ARC
  5
4B
  8
0
 10
342.80128372462337
 20
204.06125099920069
 30
0.0
 40
12.5
 50
90.0
 51
179.99999999999989
  0
LINE
  5
4C
  8
0
 10
342.80128372462337
 20
224.06125099920069
 30
0.0
 11
350.30128372462349
 21
224.06125099920069
 31
0.0
  0
LINE
  5
4D
  8
0
 10
350.30128372462349
 20
236.56125099920069
 30
0.0
 11
350.30128372462349
 21
216.56125099920069
 31
0.0
  0
LINE
  5
4E
  8
0
 10
350.30128372462349
 20
224.06125099920069
 30
0.0
 11
477.80128372462337
 21
224.06125099920069
 31
0.0
  0
CIRCLE
  5
4F
  8
0
 10
310.30128372462337
 20
404.24610311750598
 30
0.0
 40
10.0
  0
CIRCLE
  5
50
  8
0
 10
510.30128372462337
 20
404.24610311750598
 30
0.0
 40
10.0
  0
LINE
  5
51
  8
0
 10
470.30128372462337
 20
236.56125099920069
 30
0.0
 11
470.30128372462337
 21
216.56125099920069
 31
0.0
  0
ARC
  5
52
  8
0
 10
477.80128372462337
 20
204.06125099920069
 30
0.0
 40
20.0
 50
0.0000000000000254
 51
90.000000000000028
  0
LINE
  5
53
  8
0
 10
477.80128372462337
 20
224.06125099920069
 30
0.0
 11
470.30128372462337
 21
224.06125099920069
 31
0.0
  0
ARC
  5
54
  8
0
 10
477.80128372462337
 20
204.06125099920069
 30
0.0
 40
12.5
 50
0.0000000000000763
 51
90.000000000000028
  0
LINE
  5
55
  8
0
 10
497.80128372462337
 20
176.56125099920061
 30
0.0
 11
497.80128372462337
 21
204.06125099920069
 31
0.0
  0
LINE
  5
56
  8
0
 10
490.30128372462337
 20
176.56125099920061
 30
0.0
 11
490.30128372462337
 21
204.06125099920069
 31
0.0
  0
LINE
  5
57
  8
0
 10
524.30128372462343
 20
176.56125099920061
 30
0.0
 11
524.30128372462343
 21
233.56125099920069
 31
0.0
  0
CIRCLE
  5
58
  8
0
 10
510.30128372462337
 20
404.24610311750598
 30
0.0
 40
9.0
  0
LINE
  5
59
  8
0
 10
507.41453237867569
 20
409.24610311750649
 30
0.0
 11
513.188035070571
 21
409.2461031175053
 31
0.0
  0
LINE
  5
5A
  8
0
 10
504.52778103272681
 20
404.24610311750598
 30
0.0
 11
507.41453237867569
 21
409.24610311750649
 31
0.0
  0
LINE
  5
5B
  8
0
 10
507.41453237867398
 20
399.24610311750598
 30
0.0
 11
504.52778103272681
 21
404.24610311750598
 31
0.0
  0
LINE
  5
5C
  8
0
 10
513.188035070571
 20
399.24610311750598
 30
0.0
 11
507.41453237867398
 21
399.24610311750598
 31
0.0
  0
LINE
  5
5D
  8
0
 10
516.07478641651937
 20
404.2461031175053
 30
0.0
 11
513.188035070571
 21
399.24610311750598
 31
0.0
  0
LINE
  5
5E
  8
0
 10
513.188035070571
 20
409.2461031175053
 30
0.0
 11
516.07478641651937
 21
404.2461031175053
 31
0.0
  0
CIRCLE
  5
5F
  8
0
 10
510.30128372462337
 20
404.24610311750598
 30
0.0
 40
7.7875644347017641
  0
ARC
  5
60
  8
0
 10
510.30128372462337
 20
404.24610311750598
 30
0.0
 40
14.0
 50
270.00000000000011
 51
90.000000000000028
  0
LINE
  5
61
  8
1
 10
510.30128372462337
 20
241.56125099920069
 30
0.0
 11
510.30128372462337
 21
148.56125099920069
 31
0.0
  0
LINE
  5
62
  8
1
 10
510.30128372462337
 20
423.24610311750592
 30
0.0
 11
510.30128372462337
 21
385.24610311750598
 31
0.0
  0
LINE
  5
63
  8
0
 10
524.30128372462343
 20
176.56125099920061
 30
0.0
 11
490.30128372462337
 21
176.56125099920061
 31
0.0
  0
LINE
  5
64
  8
0
 10
316.30128372462337
 20
176.56125099920061
 30
0.0
 11
316.30128372462337
 21
170.56125099920069
 31
0.0
  0
LINE
  5
65
  8
3
 10
315.35428372462337
 20
176.56125099920061
 30
0.0
 11
315.35428372462337
 21
170.56125099920069
 31
0.0
  0
LINE
  5
66
  8
3
 10
305.24828372462338
 20
176.56125099920061
 30
0.0
 11
305.24828372462338
 21
170.56125099920069
 31
0.0
  0
LINE
  5
67
  8
0
 10
304.30128372462337
 20
176.56125099920061
 30
0.0
 11
304.30128372462337
 21
170.56125099920069
 31
0.0
  0
LINE
  5
68
  8
0
 10
296.30128372462337
 20
176.56125099920061
 30
0.0
 11
330.30128372462337
 21
176.56125099920061
 31
0.0
  0
ARC
  5
69
  8
0
 10
299.30128372462337
 20
233.56125099920069
 30
0.0
 40
3.0
 50
90.0
 51
179.99999999999989
  0
ARC
  5
6A
  8
0
 10
521.30128372462343
 20
233.56125099920069
 30
0.0
 40
3.0
 50
0.0
 51
90.0
  0
LINE
  5
6B
  8
0
 10
304.30128372462337
 20
158.06125099920069
 30
0.0
 11
304.30128372462337
 21
155.56125099920069
 31
0.0
  0
LINE
  5
6C
  8
3
 10
305.24828372462338
 20
158.06125099920069
 30
0.0
 11
305.24828372462338
 21
154.61425099920069
 31
0.0
  0
LINE
  5
6D
  8
0
 10
316.30128372462337
 20
158.06125099920069
 30
0.0
 11
316.30128372462337
 21
155.56125099920069
 31
0.0
  0
LINE
  5
6E
  8
3
 10
315.35428372462337
 20
158.06125099920069
 30
0.0
 11
315.35428372462337
 21
154.61425099920069
 31
0.0
  0
LINE
  5
6F
  8
0
 10
304.81645616732618
 20
166.92407008857481
 30
0.0
 11
304.8164561673222
 21
159.1984319098261
 31
0.0
  0
LINE
  5
70
  8
0
 10
299.3316286100204
 20
166.92407008857481
 30
0.0
 11
299.3316286100204
 21
159.19843190982641
 31
0.0
  0
LINE
  5
71
  8
0
 10
315.78611128192063
 20
166.92407008857481
 30
0.0
 11
315.78611128192472
 21
159.1984319098261
 31
0.0
  0
LINE
  5
72
  8
0
 10
321.27093883922652
 20
166.92407008857481
 30
0.0
 11
321.27093883922652
 21
159.19843190982641
 31
0.0
  0
LINE
  5
73
  8
0
 10
321.27093883922652
 20
159.1984319098265
 30
0.0
 11
319.3012837246248
 21
158.06125099920069
 31
0.0
  0
ARC
  5
74
  8
0
 10
318.52852506057582
 20
163.20598935580389
 30
0.0
 40
4.8560632220084576
 50
235.6157525319928
 51
295.61575253191643
  0
ARC
  5
75
  8
0
 10
310.30128372462337
 20
176.501420357781
 30
0.0
 40
18.15149422398537
 50
252.41204622602379
 51
287.58795377397621
  0
ARC
  5
76
  8
0
 10
302.0740423886711
 20
163.20598935580389
 30
0.0
 40
4.8560632220084576
 50
244.3842474680836
 51
304.38424746800717
  0
LINE
  5
77
  8
0
 10
299.3316286100204
 20
159.1984319098265
 30
0.0
 11
301.30128372462212
 21
158.06125099920069
 31
0.0
  0
LINE
  5
78
  8
0
 10
319.3012837246248
 20
158.06125099920069
 30
0.0
 11
301.30128372462212
 21
158.06125099920069
 31
0.0
  0
LINE
  5
79
  8
0
 10
299.3316286100204
 20
166.92407008857481
 30
0.0
 11
301.30128372462212
 21
168.06125099920069
 31
0.0
  0
ARC
  5
7A
  8
0
 10
302.0740423886711
 20
162.91651264259741
 30
0.0
 40
4.8560632220084576
 50
55.615752531992882
 51
115.6157525319164
  0
ARC
  5
7B
  8
0
 10
310.30128372462337
 20
149.62108164062039
 30
0.0
 40
18.15149422398537
 50
72.412046226023804
 51
107.5879537739762
  0
ARC
  5
7C
  8
0
 10
318.52852506057582
 20
162.91651264259741
 30
0.0
 40
4.8560632220084576
 50
64.384247468083615
 51
124.3842474680072
  0
LINE
  5
7D
  8
0
 10
321.27093883922652
 20
166.92407008857481
 30
0.0
 11
319.3012837246248
 21
168.06125099920069
 31
0.0
  0
LINE
  5
7E
  8
0
 10
322.30128372462337
 20
170.56125099920069
 30
0.0
 11
322.30128372462337
 21
168.06125099920069
 31
0.0
  0
LINE
  5
7F
  8
0
 10
298.30128372462349
 20
170.56125099920069
 30
0.0
 11
298.30128372462349
 21
168.06125099920069
 31
0.0
  0
LINE
  5
80
  8
0
 10
298.30128372462349
 20
168.06125099920069
 30
0.0
 11
322.30128372462337
 21
168.06125099920069
 31
0.0
  0
LINE
  5
81
  8
0
 10
306.30128372462337
 20
153.56125099920061
 30
0.0
 11
314.30128372462337
 21
153.56125099920061
 31
0.0
  0
LINE
  5
82
  8
0
 10
304.30128372462337
 20
155.56125099920069
 30
0.0
 11
306.30128372462337
 21
153.56125099920061
 31
0.0
  0
LINE
  5
83
  8
0
 10
316.30128372462337
 20
155.56125099920069
 30
0.0
 11
314.30128372462337
 21
153.56125099920061
 31
0.0
  0
LINE
  5
84
  8
0
 10
316.30128372462337
 20
155.56125099920069
 30
0.0
 11
304.30128372462337
 21
155.56125099920069
 31
0.0
  0
LINE
  5
85
  8
0
 10
145.04513643728879
 20
158.06125099920069
 30
0.0
 11
145.04513643728879
 21
155.56125099920069
 31
0.0
  0
LINE
  5
86
  8
3
 10
144.09813643728879
 20
158.06125099920069
 30
0.0
 11
144.09813643728879
 21
154.61425099920069
 31
0.0
  0
LINE
  5
87
  8
0
 10
133.04513643728879
 20
158.06125099920069
 30
0.0
 11
133.04513643728879
 21
155.56125099920069
 31
0.0
  0
LINE
  5
88
  8
3
 10
133.99213643728879
 20
158.06125099920069
 30
0.0
 11
133.99213643728879
 21
154.61425099920069
 31
0.0
  0
LINE
  5
89
  8
0
 10
127.0451364372888
 20
170.56125099920069
 30
0.0
 11
127.0451364372888
 21
168.06125099920069
 31
0.0
  0
LINE
  5
8A
  8
0
 10
151.04513643728879
 20
170.56125099920069
 30
0.0
 11
151.04513643728879
 21
168.06125099920069
 31
0.0
  0
LINE
  5
8B
  8
0
 10
151.0451364372887
 20
168.06125099920069
 30
0.0
 11
127.0451364372888
 21
168.06125099920069
 31
0.0
  0
LINE
  5
8C
  8
0
 10
153.04513643728879
 20
176.56125099920061
 30
0.0
 11
125.0451364372888
 21
176.56125099920061
 31
0.0
  0
LINE
  5
8D
  8
0
 10
145.04513643728879
 20
176.56125099920061
 30
0.0
 11
145.04513643728879
 21
170.56125099920069
 31
0.0
  0
LINE
  5
8E
  8
3
 10
144.09813643728879
 20
176.56125099920061
 30
0.0
 11
144.09813643728879
 21
170.56125099920069
 31
0.0
  0
LINE
  5
8F
  8
3
 10
133.99213643728879
 20
176.56125099920061
 30
0.0
 11
133.99213643728871
 21
170.56125099920069
 31
0.0
  0
LINE
  5
90
  8
0
 10
133.04513643728879
 20
176.56125099920061
 30
0.0
 11
133.04513643728879
 21
170.56125099920069
 31
0.0
  0
LINE
  5
91
  8
0
 10
143.04513643728879
 20
153.56125099920061
 30
0.0
 11
135.04513643728879
 21
153.56125099920061
 31
0.0
  0
LINE
  5
92
  8
0
 10
145.04513643728879
 20
155.56125099920069
 30
0.0
 11
143.04513643728879
 21
153.56125099920061
 31
0.0
  0
LINE
  5
93
  8
0
 10
133.04513643728879
 20
155.56125099920069
 30
0.0
 11
135.04513643728879
 21
153.56125099920061
 31
0.0
  0
LINE
  5
94
  8
0
 10
133.04513643728879
 20
155.56125099920069
 30
0.0
 11
145.04513643728879
 21
155.56125099920069
 31
0.0
  0
LINE
  5
95
  8
1
 10
139.04513643728879
 20
241.56125099920069
 30
0.0
 11
139.04513643728879
 21
148.56125099920069
 31
0.0
  0
LINE
  5
96
  8
0
 10
153.04513643728879
 20
176.56125099920061
 30
0.0
 11
153.04513643728879
 21
233.56125099920069
 31
0.0
  0
LINE
  5
97
  8
0
 10
150.04513643728879
 20
236.56125099920069
 30
0.0
 11
128.04513643728879
 21
236.56125099920069
 31
0.0
  0
LINE
  5
98
  8
0
 10
125.0451364372888
 20
233.56125099920069
 30
0.0
 11
125.0451364372888
 21
176.56125099920061
 31
0.0
  0
ARC
  5
99
  8
0
 10
128.04513643728879
 20
233.56125099920069
 30
0.0
 40
3.0
 50
90.0
 51
179.99999999999989
  0
ARC
  5
9A
  8
0
 10
150.04513643728879
 20
233.56125099920069
 30
0.0
 40
3.0
 50
0.0
 51
90.0
  0
LINE
  5
9B
  8
1
 10
124.0451364372888
 20
226.56125099920069
 30
0.0
 11
154.04513643728879
 21
226.56125099920069
 31
0.0
  0
LINE
  5
9C
  8
0
 10
148.54513643728879
 20
167.77257586460581
 30
0.0
 11
148.04513643728879
 21
168.06125099920069
 31
0.0
  0
ARC
  5
9D
  8
0
 10
143.79513643728879
 20
154.05289197461261
 30
0.0
 40
13.719683889993171
 50
69.74384199960403
 51
110.2561580003961
  0
LINE
  5
9E
  8
0
 10
148.04513643728879
 20
158.06125099920069
 30
0.0
 11
148.54513643728879
 21
158.4217229035207
 31
0.0
  0
LINE
  5
9F
  8
0
 10
148.54513643728879
 20
158.4217229035207
 30
0.0
 11
148.54513643728879
 21
167.77257586460581
 31
0.0
  0
ARC
  5
A0
  8
0
 10
143.79513643728879
 20
172.06961002378861
 30
0.0
 40
13.719683889993171
 50
249.7438419996038
 51
290.256158000396
  0
ARC
  5
A1
  8
0
 10
134.29513643728879
 20
172.06961002378861
 30
0.0
 40
13.719683889993171
 50
249.743841999604
 51
290.25615800039623
  0
LINE
  5
A2
  8
0
 10
129.54513643728879
 20
158.4217229035207
 30
0.0
 11
129.54513643728879
 21
167.77257586460581
 31
0.0
  0
LINE
  5
A3
  8
0
 10
130.04513643728879
 20
158.06125099920069
 30
0.0
 11
129.54513643728879
 21
158.4217229035207
 31
0.0
  0
ARC
  5
A4
  8
0
 10
134.29513643728879
 20
154.05289197461261
 30
0.0
 40
13.719683889993171
 50
69.743841999603845
 51
110.2561580003959
  0
LINE
  5
A5
  8
0
 10
129.54513643728879
 20
167.77257586460581
 30
0.0
 11
130.04513643728879
 21
168.06125099920069
 31
0.0
  0
LINE
  5
A6
  8
0
 10
148.04513643728879
 20
158.06125099920069
 30
0.0
 11
130.04513643728879
 21
158.06125099920069
 31
0.0
  0
LINE
  5
A7
  8
0
 10
139.04513643728561
 20
166.92407008857481
 30
0.0
 11
139.04513643728879
 21
159.1984319098265
 31
0.0
  0
LINE
  5
A8
  8
0
 10
470.30128372462337
 20
418.24610311750592
 30
0.0
 11
470.30128372462337
 21
390.24610311750598
 31
0.0
  0
LINE
  5
A9
  8
0
 10
350.30128372462349
 20
418.24610311750592
 30
0.0
 11
350.30128372462349
 21
390.24610311750598
 31
0.0
  0
LINE
  5
AA
  8
0
 10
298.30128372462349
 20
170.56125099920069
 30
0.0
 11
322.30128372462337
 21
170.56125099920069
 31
0.0
  0
LINE
  5
AB
  8
0
 10
498.30128372462337
 20
170.56125099920069
 30
0.0
 11
522.30128372462343
 21
170.56125099920069
 31
0.0
  0
LINE
  5
AC
  8
0
 10
516.30128372462343
 20
155.56125099920069
 30
0.0
 11
504.30128372462337
 21
155.56125099920069
 31
0.0
  0
LINE
  5
AD
  8
0
 10
516.30128372462343
 20
155.56125099920069
 30
0.0
 11
514.30128372462343
 21
153.56125099920061
 31
0.0
  0
LINE
  5
AE
  8
0
 10
504.30128372462337
 20
155.56125099920069
 30
0.0
 11
506.30128372462337
 21
153.56125099920061
 31
0.0
  0
LINE
  5
AF
  8
0
 10
506.30128372462337
 20
153.56125099920061
 30
0.0
 11
514.30128372462343
 21
153.56125099920061
 31
0.0
  0
LINE
  5
B0
  8
0
 10
498.30128372462337
 20
168.06125099920069
 30
0.0
 11
522.30128372462343
 21
168.06125099920069
 31
0.0
  0
LINE
  5
B1
  8
0
 10
498.30128372462337
 20
170.56125099920069
 30
0.0
 11
498.30128372462337
 21
168.06125099920069
 31
0.0
  0
LINE
  5
B2
  8
0
 10
522.30128372462343
 20
170.56125099920069
 30
0.0
 11
522.30128372462343
 21
168.06125099920069
 31
0.0
  0
LINE
  5
B3
  8
0
 10
521.27093883922635
 20
166.92407008857481
 30
0.0
 11
519.30128372462468
 21
168.06125099920069
 31
0.0
  0
ARC
  5
B4
  8
0
 10
518.5285250605757
 20
162.91651264259741
 30
0.0
 40
4.8560632220084576
 50
64.384247468083615
 51
124.3842474680072
  0
ARC
  5
B5
  8
0
 10
510.30128372462337
 20
149.62108164062039
 30
0.0
 40
18.15149422398537
 50
72.412046226023804
 51
107.5879537739762
  0
ARC
  5
B6
  8
0
 10
502.07404238867099
 20
162.91651264259741
 30
0.0
 40
4.8560632220084576
 50
55.615752531992882
 51
115.6157525319164
  0
LINE
  5
B7
  8
0
 10
499.3316286100204
 20
166.92407008857481
 30
0.0
 11
501.30128372462201
 21
168.06125099920069
 31
0.0
  0
LINE
  5
B8
  8
0
 10
519.30128372462468
 20
158.06125099920069
 30
0.0
 11
501.30128372462201
 21
158.06125099920069
 31
0.0
  0
LINE
  5
B9
  8
0
 10
499.3316286100204
 20
159.1984319098265
 30
0.0
 11
501.30128372462201
 21
158.06125099920069
 31
0.0
  0
ARC
  5
BA
  8
0
 10
502.07404238867099
 20
163.20598935580389
 30
0.0
 40
4.8560632220084576
 50
244.3842474680836
 51
304.38424746800717
  0
ARC
  5
BB
  8
0
 10
510.30128372462337
 20
176.501420357781
 30
0.0
 40
18.15149422398537
 50
252.41204622602379
 51
287.58795377397621
  0
ARC
  5
BC
  8
0
 10
518.5285250605757
 20
163.20598935580389
 30
0.0
 40
4.8560632220084576
 50
235.6157525319928
 51
295.61575253191643
  0
LINE
  5
BD
  8
0
 10
521.27093883922635
 20
159.1984319098265
 30
0.0
 11
519.30128372462468
 21
158.06125099920069
 31
0.0
  0
LINE
  5
BE
  8
0
 10
521.27093883922635
 20
166.92407008857481
 30
0.0
 11
521.27093883922635
 21
159.19843190982641
 31
0.0
  0
LINE
  5
BF
  8
0
 10
515.78611128192063
 20
166.92407008857481
 30
0.0
 11
515.7861112819246
 21
159.1984319098261
 31
0.0
  0
LINE
  5
C0
  8
0
 10
499.3316286100204
 20
166.92407008857481
 30
0.0
 11
499.3316286100204
 21
159.19843190982641
 31
0.0
  0
LINE
  5
C1
  8
0
 10
504.81645616732618
 20
166.92407008857481
 30
0.0
 11
504.81645616732209
 21
159.1984319098261
 31
0.0
  0
LINE
  5
C2
  8
3
 10
515.35428372462331
 20
158.06125099920069
 30
0.0
 11
515.35428372462331
 21
154.61425099920069
 31
0.0
  0
LINE
  5
C3
  8
0
 10
516.30128372462343
 20
158.06125099920069
 30
0.0
 11
516.30128372462343
 21
155.56125099920069
 31
0.0
  0
LINE
  5
C4
  8
3
 10
505.24828372462338
 20
158.06125099920069
 30
0.0
 11
505.24828372462338
 21
154.61425099920069
 31
0.0
  0
LINE
  5
C5
  8
0
 10
504.30128372462337
 20
158.06125099920069
 30
0.0
 11
504.30128372462337
 21
155.56125099920069
 31
0.0
  0
LINE
  5
C6
  8
0
 10
516.30128372462343
 20
176.56125099920061
 30
0.0
 11
516.30128372462343
 21
170.56125099920069
 31
0.0
  0
LINE
  5
C7
  8
3
 10
515.35428372462331
 20
176.56125099920069
 30
0.0
 11
515.35428372462331
 21
170.56125099920069
 31
0.0
  0
LINE
  5
C8
  8
3
 10
505.24828372462338
 20
176.56125099920061
 30
0.0
 11
505.24828372462338
 21
170.56125099920069
 31
0.0
  0
LINE
  5
C9
  8
0
 10
504.30128372462337
 20
176.56125099920061
 30
0.0
 11
504.30128372462337
 21
170.56125099920069
 31
0.0
  0
LINE
  5
CA
  8
0
 10
151.0451364372887
 20
170.56125099920069
 30
0.0
 11
127.0451364372888
 21
170.56125099920069
 31
0.0
  0
LINE
  5
CB
  8
0
 10
322.80128372462337
 20
176.56125099920061
 30
0.0
 11
322.80128372462337
 21
204.06125099920069
 31
0.0
  0
ARC
  5
CC
  8
0
 10
342.80128372462337
 20
204.06125099920069
 30
0.0
 40
20.0
 50
90.0
 51
180.0
  0
TEXT
  5
1FD
  8
0
 62
     3
 10
0.0
 20
0.0
 30
0.0
 40
10.0
  1
MH2-200
  7
STANDARD1
  0
ENDSEC
  0
EOF
