  0
SECTION
  2
HEADER
  9
$ACADVER
  1
AC1009
  9
$INSBASE
 10
0.0
 20
0.0
 30
0.0
  9
$EXTMIN
 10
0.0
 20
-2.960436562073669
 30
0.0
  9
$EXTMAX
 10
163.9240891201747
 20
143.6951097142603
 30
0.0
  9
$LIMMIN
 10
0.0
 20
0.0
  9
$LIMMAX
 10
187.5
 20
135.0
  9
$ORTHOMODE
 70
     1
  9
$REGENMODE
 70
     1
  9
$FILLMODE
 70
     1
  9
$QTEXTMODE
 70
     0
  9
$MIRRTEXT
 70
     0
  9
$DRAGMODE
 70
     2
  9
$LTSCALE
 40
5.0
  9
$OSMODE
 70
  3071
  9
$ATTMODE
 70
     1
  9
$TEXTSIZE
 40
4.0
  9
$TRACEWID
 40
0.05
  9
$TEXTSTYLE
  7
STANDARD
  9
$CLAYER
  8
0
  9
$CELTYPE
  6
BYLAYER
  9
$CECOLOR
 62
   256
  9
$DIMSCALE
 40
0.5
  9
$DIMASZ
 40
3.0
  9
$DIMEXO
 40
2.0
  9
$DIMDLI
 40
0.38
  9
$DIMRND
 40
0.0
  9
$DIMDLE
 40
0.0
  9
$DIMEXE
 40
2.0
  9
$DIMTP
 40
0.0
  9
$DIMTM
 40
0.0
  9
$DIMTXT
 40
3.0
  9
$DIMCEN
 40
0.0
  9
$DIMTSZ
 40
0.0
  9
$DIMTOL
 70
     0
  9
$DIMLIM
 70
     0
  9
$DIMTIH
 70
     0
  9
$DIMTOH
 70
     0
  9
$DIMSE1
 70
     0
  9
$DIMSE2
 70
     0
  9
$DIMTAD
 70
     1
  9
$DIMZIN
 70
     0
  9
$DIMBLK
  1

  9
$DIMASO
 70
     0
  9
$DIMSHO
 70
     0
  9
$DIMPOST
  1

  9
$DIMAPOST
  1

  9
$DIMALT
 70
     0
  9
$DIMALTD
 70
     2
  9
$DIMALTF
 40
25.399999999999999
  9
$DIMLFAC
 40
1.0
  9
$DIMTOFL
 70
     0
  9
$DIMTVP
 40
1.6000000000000001
  9
$DIMTIX
 70
     1
  9
$DIMSOXD
 70
     0
  9
$DIMSAH
 70
     0
  9
$DIMBLK1
  1

  9
$DIMBLK2
  1

  9
$DIMSTYLE
  2
STANDARD
  9
$DIMCLRD
 70
     0
  9
$DIMCLRE
 70
     0
  9
$DIMCLRT
 70
     0
  9
$DIMTFAC
 40
1.0
  9
$DIMGAP
 40
0.09
  9
$LUNITS
 70
     2
  9
$LUPREC
 70
     4
  9
$SKETCHINC
 40
0.1
  9
$FILLETRAD
 40
3.0
  9
$AUNITS
 70
     0
  9
$AUPREC
 70
     0
  9
$MENU
  1
E:\r13\win\SUPPORT\ACAD
  9
$ELEVATION
 40
0.0
  9
$PELEVATION
 40
0.0
  9
$THICKNESS
 40
0.0
  9
$LIMCHECK
 70
     0
  9
$BLIPMODE
 70
     0
  9
$CHAMFERA
 40
0.0
  9
$CHAMFERB
 40
0.0
  9
$SKPOLY
 70
     0
  9
$TDCREATE
 40
2449840.6143865739
  9
$TDUPDATE
 40
2456597.6578216441
  9
$TDINDWG
 40
0.6117061343
  9
$TDUSRTIMER
 40
0.6117061343
  9
$USRTIMER
 70
     1
  9
$ANGBASE
 50
0.0
  9
$ANGDIR
 70
     0
  9
$PDMODE
 70
     0
  9
$PDSIZE
 40
0.0
  9
$PLINEWID
 40
0.0
  9
$COORDS
 70
     1
  9
$SPLFRAME
 70
     0
  9
$SPLINETYPE
 70
     6
  9
$SPLINESEGS
 70
     8
  9
$ATTDIA
 70
     0
  9
$ATTREQ
 70
     1
  9
$HANDLING
 70
     1
  9
$HANDSEED
  5
139A
  9
$SURFTAB1
 70
     6
  9
$SURFTAB2
 70
     6
  9
$SURFTYPE
 70
     6
  9
$SURFU
 70
     6
  9
$SURFV
 70
     6
  9
$UCSNAME
  2

  9
$UCSORG
 10
0.0
 20
0.0
 30
0.0
  9
$UCSXDIR
 10
1.0
 20
0.0
 30
0.0
  9
$UCSYDIR
 10
0.0
 20
1.0
 30
0.0
  9
$PUCSNAME
  2

  9
$PUCSORG
 10
0.0
 20
0.0
 30
0.0
  9
$PUCSXDIR
 10
1.0
 20
0.0
 30
0.0
  9
$PUCSYDIR
 10
0.0
 20
1.0
 30
0.0
  9
$USERI1
 70
     0
  9
$USERI2
 70
     1
  9
$USERI3
 70
     1
  9
$USERI4
 70
     0
  9
$USERI5
 70
     0
  9
$USERR1
 40
0.0
  9
$USERR2
 40
0.0
  9
$USERR3
 40
0.0
  9
$USERR4
 40
0.0
  9
$USERR5
 40
0.0
  9
$WORLDVIEW
 70
     1
  9
$SHADEDGE
 70
     3
  9
$SHADEDIF
 70
    70
  9
$TILEMODE
 70
     1
  9
$MAXACTVP
 70
    16
  9
$PLIMCHECK
 70
     0
  9
$PEXTMIN
 10
1.0000000000000000E+020
 20
1.0000000000000000E+020
 30
1.0000000000000000E+020
  9
$PEXTMAX
 10
-1.0000000000000000E+020
 20
-1.0000000000000000E+020
 30
-1.0000000000000000E+020
  9
$PLIMMIN
 10
0.0
 20
0.0
  9
$PLIMMAX
 10
12.0
 20
9.0
  9
$UNITMODE
 70
     0
  9
$VISRETAIN
 70
     0
  9
$PLINEGEN
 70
     0
  9
$PSLTSCALE
 70
     0
  0
ENDSEC
  0
SECTION
  2
TABLES
  0
TABLE
  2
VPORT
 70
     1
  0
VPORT
  2
*ACTIVE
 70
     0
 10
0.0
 20
0.0
 11
1.0
 21
1.0
 12
93.747139195326156
 22
70.685039998307303
 13
0.0
 23
0.0
 14
5.0
 24
5.0
 15
5.0
 25
5.0
 16
0.0
 26
0.0
 36
1.0
 17
0.0
 27
0.0
 37
0.0
 40
148.9846979311427
 41
2.304913294797688
 42
50.0
 43
0.0
 44
0.0
 50
0.0
 51
0.0
 71
     0
 72
   100
 73
     1
 74
     0
 75
     0
 76
     0
 77
     0
 78
     0
  0
ENDTAB
  0
TABLE
  2
LTYPE
 70
     4
  0
LTYPE
  2
CONTINUOUS
 70
     0
  3
Solid Line
 72
    65
 73
     0
 40
0.0
  0
LTYPE
  2
CENTER
 70
     0
  3
____ _ ____ _ ____ _ ____ _ ____ _ ____ _ ____
 72
    65
 73
     4
 40
2.0
 49
1.25
 49
-0.25
 49
0.25
 49
-0.25
  0
LTYPE
  2
HIDDEN
 70
     0
  3
_ _ _ _ _ _ _ _ _ _ _ _ _ _ _ _ _ _ _ _ _ _ _
 72
    65
 73
     2
 40
0.375
 49
0.25
 49
-0.125
  0
LTYPE
  2
PHANTOM2
 70
     0
  3
___ _ _ ___ _ _ ___ _ _ ___ _ _
 72
    65
 73
     6
 40
1.25
 49
0.625
 49
-0.125
 49
0.125
 49
-0.125
 49
0.125
 49
-0.125
  0
ENDTAB
  0
TABLE
  2
LAYER
 70
     4
  0
LAYER
  2
0
 70
     0
 62
     7
  6
CONTINUOUS
  0
LAYER
  2
1
 70
     0
 62
     1
  6
CENTER
  0
LAYER
  2
2
 70
     0
 62
     2
  6
HIDDEN
  0
LAYER
  2
3
 70
     0
 62
     3
  6
CONTINUOUS
  0
ENDTAB
  0
TABLE
  2
STYLE
 70
     2
  0
STYLE
  2
STANDARD
 70
     0
 40
0.0
 41
1.0
 50
0.0
 71
     0
 42
4.0
  3
TXT
  4
BIGFONT
  0
STYLE
  2
STANDARD1
 70
     0
 40
0.0
 41
1.0
 50
0.0
 71
     0
 42
3.0
  3
txt
  4

  0
ENDTAB
  0
TABLE
  2
VIEW
 70
     1
  0
VIEW
  2
ALL
 70
     0
 40
179.66152299999999
 10
141.903918
 20
89.830760999999995
 41
0.0
 11
0.0
 21
0.0
 31
1.0
 12
0.0
 22
0.0
 32
0.0
 42
0.0
 43
0.0
 44
0.0
 50
0.0
 71
     0
  0
ENDTAB
  0
TABLE
  2
UCS
 70
     0
  0
ENDTAB
  0
TABLE
  2
APPID
 70
     4
  0
APPID
  2
ACAD
 70
     0
  0
APPID
  2
DCO15
 70
     0
  0
APPID
  2
ACAD_MLEADERVER
 70
     0
  0
APPID
  2
ACAD_NAV_VCDISPLAY
 70
     0
  0
ENDTAB
  0
TABLE
  2
DIMSTYLE
 70
     1
  0
DIMSTYLE
  2
STANDARD
 70
     0
  3

  4

  5

  6

  7

 40
1.0
 41
0.18
 42
0.0625
 43
0.38
 44
0.18
 45
0.0
 46
0.0
 47
0.0
 48
0.0
140
0.18
141
0.09
142
0.0
143
25.399999999999999
144
1.0
145
0.0
146
1.0
147
0.09
 71
     0
 72
     0
 73
     1
 74
     1
 75
     0
 76
     0
 77
     0
 78
     0
170
     0
171
     2
172
     0
173
     0
174
     0
175
     0
176
     0
177
     0
178
     0
  0
ENDTAB
  0
ENDSEC
  0
SECTION
  2
BLOCKS
  0
BLOCK
  8
0
  2
$MODEL_SPACE
 70
     0
 10
0.0
 20
0.0
 30
0.0
  3
$MODEL_SPACE
  1

  0
ENDBLK
  5
1BD
  8
0
  0
BLOCK
 67
     1
  8
0
  2
$PAPER_SPACE
 70
     0
 10
0.0
 20
0.0
 30
0.0
  3
$PAPER_SPACE
  1

  0
ENDBLK
  5
1BB
 67
     1
  8
0
  0
ENDSEC
  0
SECTION
  2
ENTITIES
  0
LINE
  5
535
  8
0
 10
91.924089120174713
 20
69.515109714260277
 30
0.0
 11
91.924089120174713
 21
73.515109714260277
 31
0.0
  0
LINE
  5
536
  8
0
 10
81.924089120174713
 20
73.515109714260277
 30
0.0
 11
81.924089120174713
 21
69.515109714260277
 31
0.0
  0
LINE
  5
53E
  8
0
 10
81.924089120174713
 20
69.515109714260277
 30
0.0
 11
91.924089120174713
 21
69.515109714260277
 31
0.0
  0
LINE
  5
554
  8
0
 10
107.6344091965686
 20
89.726761484489089
 30
0.0
 11
106.63199844142009
 21
89.779295606095857
 31
0.0
  0
LINE
  5
555
  8
0
 10
93.414089120174722
 20
73.515109714260277
 30
0.0
 11
80.414089120174708
 21
73.515109714260277
 31
0.0
  0
LINE
  5
55A
  8
1
 10
86.924089120174713
 20
99.695109714260283
 30
0.0
 11
86.924089120174713
 21
64.515109714260277
 31
0.0
  0
CIRCLE
  5
5B6
  8
0
 10
86.914089120174694
 20
32.515610611498573
 30
0.0
 40
6.5000000000000027
  0
LINE
  5
5CB
  8
1
 10
86.924089120174713
 20
44.515109714260269
 30
0.0
 11
86.924089120174713
 21
20.516111508736909
 31
0.0
  0
LINE
  5
5E5
  8
1
 10
74.924089120174699
 20
32.515610611498602
 30
0.0
 11
121.9240891201747
 21
32.515610611498573
 31
0.0
  0
ARC
  5
6F3
  8
0
 10
134.7465767798486
 20
-53.674445226991217
 30
0.0
 40
154.48348284385381
 50
97.469471040420714
 51
109.85547321635801
  0
ARC
  5
726
  8
0
 10
123.76132217246411
 20
32.608058691372428
 30
0.0
 40
60.0
 50
108.4332757577462
 51
117.129832445433
  0
ARC
  5
B8B
  8
0
 10
86.924089120174713
 20
86.505109714260286
 30
0.0
 40
8.0
 50
110.15731621557541
 51
119.9999999999997
  0
LINE
  5
B8C
  8
0
 10
82.924089120174798
 20
93.433312944535842
 30
0.0
 11
87.582459515610523
 21
93.433312944535871
 31
0.0
  0
LINE
  5
B8E
  8
0
 10
89.437175627081871
 20
94.015109714260319
 30
0.0
 11
84.167297506722576
 21
94.015109714260277
 31
0.0
  0
LINE
  5
F21
  8
1
 10
86.924089120174713
 20
143.6951097142603
 30
0.0
 11
86.924089120174713
 21
119.6951097142603
 31
0.0
  0
LINE
  5
F22
  8
1
 10
121.9240891201747
 20
131.6951097142603
 30
0.0
 11
75.414089120174694
 21
131.6951097142603
 31
0.0
  0
CIRCLE
  5
F24
  8
0
 10
87.20646699260989
 20
131.6951097142603
 30
0.0
 40
4.6971000970094821
  0
CIRCLE
  5
F25
  8
0
 10
86.924089120174713
 20
131.6951097142603
 30
0.0
 40
4.0
  0
ARC
  5
F26
  8
0
 10
85.093427214162787
 20
132.75204285849151
 30
0.0
 40
0.6912500000000005
 50
309.68887794065949
 51
16.658241772777039
  0
ARC
  5
F27
  8
0
 10
86.134089120174735
 20
133.06342985223981
 30
0.0
 40
0.3949999999999998
 50
43.341758227222279
 51
196.65824177277699
  0
ARC
  5
F28
  8
0
 10
86.924089120174756
 20
133.80897600272269
 30
0.0
 40
0.6912499999999989
 50
223.3417582272223
 51
316.65824177277773
  0
ARC
  5
F29
  8
0
 10
87.714089120174705
 20
133.06342985223981
 30
0.0
 40
0.3950000000000002
 50
343.3417582272229
 51
136.6582417727777
  0
ARC
  5
F2A
  8
0
 10
85.093427214162787
 20
130.63817657002909
 30
0.0
 40
0.691250000000001
 50
343.3417582272229
 51
50.311122059331304
  0
ARC
  5
F2B
  8
0
 10
86.134089120174735
 20
130.3267895762809
 30
0.0
 40
0.3950000000000001
 50
163.3417582272229
 51
316.65824177277773
  0
ARC
  5
F2C
  8
0
 10
86.924089120174756
 20
129.58124342579791
 30
0.0
 40
0.6912500000000003
 50
43.341758227222279
 51
136.65824177277651
  0
ARC
  5
F2D
  8
0
 10
87.714089120174705
 20
130.3267895762809
 30
0.0
 40
0.3949999999999998
 50
223.3417582272223
 51
16.658241772777039
  0
ARC
  5
F2E
  8
0
 10
88.754751026186696
 20
130.63817657002909
 30
0.0
 40
0.6912500000000003
 50
129.6888779406687
 51
196.65824177277699
  0
ARC
  5
F2F
  8
0
 10
88.754751026186696
 20
132.75204285849151
 30
0.0
 40
0.6912500000000011
 50
163.3417582272229
 51
230.31112205934281
  0
LINE
  5
F30
  8
0
 10
84.174089120174713
 20
131.17010971426029
 30
0.0
 11
85.534872219308767
 21
131.17010971426029
 31
0.0
  0
LINE
  5
F31
  8
0
 10
84.174089120174713
 20
132.2201097142603
 30
0.0
 11
85.534872219308696
 21
132.2201097142603
 31
0.0
  0
LINE
  5
F32
  8
0
 10
88.313306021040788
 20
132.2201097142603
 30
0.0
 11
89.674089120174713
 21
132.2201097142603
 31
0.0
  0
LINE
  5
F33
  8
0
 10
88.313306021040702
 20
131.17010971426029
 30
0.0
 11
89.674089120174713
 21
131.17010971426029
 31
0.0
  0
ARC
  5
F34
  8
0
 10
86.924089120174713
 20
131.6951097142603
 30
0.0
 40
2.7567916134521511
 50
355.97735839170269
 51
4.0226416083006269
  0
LINE
  5
F35
  8
0
 10
89.674089120174685
 20
132.2201097142603
 30
0.0
 11
89.674089120174713
 21
131.17010971426029
 31
0.0
  0
LINE
  5
F36
  8
0
 10
84.174089120174742
 20
132.2201097142603
 30
0.0
 11
84.174089120174742
 21
131.17010971426029
 31
0.0
  0
ARC
  5
F37
  8
0
 10
86.924089120174713
 20
131.6951097142603
 30
0.0
 40
2.7567916134521511
 50
10.9783913299381
 51
169.02160867006191
  0
ARC
  5
F38
  8
0
 10
86.924089120174713
 20
131.6951097142603
 30
0.0
 40
2.7567916134521511
 50
190.97839132993809
 51
349.02160867006188
  0
ARC
  5
F39
  8
0
 10
86.924089120174713
 20
131.6951097142603
 30
0.0
 40
2.7567916134521511
 50
175.9773583916961
 51
184.02264160830379
  0
ARC
  5
F3A
  8
0
 10
113.4240891201747
 20
131.6951097142603
 30
0.0
 40
3.5
 50
270.0
 51
90.0
  0
LINE
  5
F3B
  8
0
 10
113.4240891201747
 20
135.1951097142603
 30
0.0
 11
103.3286708905445
 21
135.54764948717991
 31
0.0
  0
ARC
  5
F3C
  8
0
 10
100.06614855451841
 20
155.27975398738289
 30
0.0
 40
20.0
 50
241.15519537343869
 51
279.38839404878303
  0
ARC
  5
F3D
  8
0
 10
100.06614855451841
 20
108.11046544113761
 30
0.0
 40
20.0
 50
80.611605951217044
 51
118.8448046265613
  0
LINE
  5
F3E
  8
0
 10
113.4240891201747
 20
128.1951097142603
 30
0.0
 11
103.3286708905445
 21
127.8425699413406
 31
0.0
  0
LINE
  5
F4B
  8
0
 10
116.9164785163582
 20
97.340798228764996
 30
0.0
 11
116.6785752858638
 21
94.621551861217526
 31
0.0
  0
LINE
  5
F5A
  8
0
 10
109.190184203296
 20
89.890280026816626
 30
0.0
 11
113.7290726739069
 21
91.106471527051767
 31
0.0
  0
ARC
  5
F6F
  8
0
 10
86.924089120174685
 20
131.6951097142603
 30
0.0
 40
7.0
 50
61.680858853686729
 51
299.93654186477909
  0
ARC
  5
F8C
  8
0
 10
100.06614855451841
 20
56.100254884621272
 30
0.0
 40
20.0
 50
241.15519537343869
 51
279.38839404878303
  0
LINE
  5
F8D
  8
0
 10
113.4240891201747
 20
29.01561061149858
 30
0.0
 11
103.3286708905445
 21
28.6630708385789
 31
0.0
  0
LINE
  5
F8E
  8
0
 10
113.4240891201747
 20
36.015610611498587
 30
0.0
 11
103.3286708905445
 21
36.368150384418293
 31
0.0
  0
ARC
  5
F8F
  8
0
 10
113.4240891201747
 20
32.515610611498573
 30
0.0
 40
3.5
 50
270.0
 51
90.0
  0
ARC
  5
F90
  8
0
 10
100.06614855451841
 20
8.9309663383759244
 30
0.0
 40
20.0
 50
80.611605951217044
 51
118.8448046265613
  0
ARC
  5
F91
  8
0
 10
86.924089120174685
 20
32.51561061149863
 30
0.0
 40
7.0
 50
61.680858853686729
 51
299.93654186477909
  0
CIRCLE
  5
F92
  8
0
 10
86.924089120174713
 20
32.515610611498573
 30
0.0
 40
5.0
  0
LINE
  5
FC2
  8
0
 10
32.92408912017477
 20
93.433312944535814
 30
0.0
 11
32.924089120174742
 21
92.91068483027766
 31
0.0
  0
LINE
  5
FC5
  8
0
 10
39.680880733626843
 20
94.015109714260305
 30
0.0
 11
34.167297506722619
 21
94.015109714260277
 31
0.0
  0
LINE
  5
FC6
  8
0
 10
32.924089120174827
 20
93.433312944535842
 30
0.0
 11
40.924089120174557
 21
93.433312944535885
 31
0.0
  0
ARC
  5
FC7
  8
0
 10
36.92408912017472
 20
86.505109714260286
 30
0.0
 40
8.0
 50
110.15731621557541
 51
119.9999999999997
  0
LINE
  5
FCB
  8
1
 10
36.92408912017472
 20
104.5151097142603
 30
0.0
 11
36.92408912017472
 21
64.515109714260277
 31
0.0
  0
LINE
  5
FCC
  8
0
 10
43.414089120174722
 20
73.515109714260277
 30
0.0
 11
30.414089120174729
 21
73.515109714260277
 31
0.0
  0
LINE
  5
FCE
  8
0
 10
31.92408912017472
 20
69.515109714260277
 30
0.0
 11
41.924089120174713
 21
69.515109714260277
 31
0.0
  0
LINE
  5
FCF
  8
0
 10
31.92408912017472
 20
73.515109714260277
 30
0.0
 11
31.92408912017472
 21
69.515109714260277
 31
0.0
  0
LINE
  5
FD0
  8
0
 10
41.924089120174713
 20
69.515109714260277
 30
0.0
 11
41.924089120174713
 21
73.515109714260277
 31
0.0
  0
ARC
  5
FD5
  8
0
 10
36.924089120174742
 20
86.505109714260286
 30
0.0
 40
8.0
 50
60.000000000000263
 51
69.842683784424523
  0
LINE
  5
FD6
  8
0
 10
40.924089120174713
 20
93.433312944535814
 30
0.0
 11
40.924089120174678
 21
92.941569247284917
 31
0.0
  0
ARC
  5
102C
  8
0
 10
114.9240891201747
 20
97.515109714260291
 30
0.0
 40
2.0
 50
355.00000000000091
 51
97.470773899547822
  0
ARC
  5
1040
  8
0
 10
112.69379649349681
 20
94.970174832208045
 30
0.0
 40
4.0
 50
284.9999999999996
 51
355.00000000000171
  0
ARC
  5
1041
  8
0
 10
107.89608897778329
 20
94.719909158261956
 30
0.0
 40
5.0
 50
267.00000000000011
 51
285.00000000000011
  0
ARC
  5
1043
  8
0
 10
106.3703186602053
 20
84.786147932323004
 30
0.0
 40
5.0
 50
86.999999999999773
 51
108.4332757577462
  0
LINE
  5
104A
  8
0
 10
82.924089120174798
 20
93.433312944535842
 30
0.0
 11
82.924089120174784
 21
91.857600193700378
 31
0.0
  0
LINE
  5
1063
  8
0
 10
29.92408912017472
 20
89.633601580097789
 30
0.0
 11
30.414089120174729
 21
73.515109714260277
 31
0.0
  0
ARC
  5
1064
  8
0
 10
33.42300755150255
 20
89.720606240400386
 30
0.0
 40
3.5
 50
98.195322102675703
 51
181.42443239553521
  0
ARC
  5
1066
  8
0
 10
40.425170688846897
 20
89.720606240400386
 30
0.0
 40
3.5
 50
358.57556760446482
 51
81.80467789732441
  0
LINE
  5
1067
  8
0
 10
43.924089120174713
 20
89.633601580097789
 30
0.0
 11
43.434089120174697
 21
73.515109714260277
 31
0.0
  0
LINE
  5
1068
  8
0
 10
79.96684730160257
 20
88.227076274908285
 30
0.0
 11
80.414089120174708
 21
73.515109714260277
 31
0.0
  0
ARC
  5
1069
  8
0
 10
83.465231155899744
 20
88.333426676848717
 30
0.0
 40
3.5
 50
109.8554732163573
 51
181.74124778465571
  0
LINE
  5
106A
  8
0
 10
93.683171345747112
 20
81.708639973062816
 30
0.0
 11
93.434089120174704
 21
73.515109714260277
 31
0.0
  0
ARC
  5
106B
  8
0
 10
98.680862566171626
 20
81.556710827433633
 30
0.0
 40
5.0
 50
117.12983244543319
 51
178.25875221534429
  0
ARC
  5
107B
  8
0
 10
36.897247505967599
 20
99.878918590789354
 30
0.0
 40
8.0213633068033552
 50
237.4461954631974
 51
302.6786401898097
  0
LINE
  5
11A8
  8
0
 10
163.9240891201747
 20
89.633601580097789
 30
0.0
 11
163.43408912017469
 21
73.515109714260277
 31
0.0
  0
ARC
  5
11A9
  8
0
 10
160.42517068884689
 20
89.720606240400386
 30
0.0
 40
3.5
 50
358.57556760446482
 51
90.0
  0
ARC
  5
11AA
  8
0
 10
153.42300755150259
 20
89.720606240400386
 30
0.0
 40
3.5
 50
90.0
 51
181.42443239553521
  0
LINE
  5
11AB
  8
0
 10
149.9240891201747
 20
89.633601580097789
 30
0.0
 11
150.41408912017471
 21
73.515109714260277
 31
0.0
  0
LINE
  5
11AF
  8
0
 10
160.9240891201747
 20
93.433312944535814
 30
0.0
 11
160.9240891201747
 21
93.184863794174547
 31
0.0
  0
ARC
  5
11B0
  8
0
 10
156.9240891201747
 20
86.505109714260286
 30
0.0
 40
8.0
 50
60.000000000000263
 51
64.055520227629756
  0
LINE
  5
11B1
  8
0
 10
161.9240891201747
 20
69.515109714260277
 30
0.0
 11
161.9240891201747
 21
73.515109714260277
 31
0.0
  0
LINE
  5
11B2
  8
0
 10
151.9240891201747
 20
73.515109714260277
 30
0.0
 11
151.9240891201747
 21
69.515109714260277
 31
0.0
  0
LINE
  5
11B3
  8
0
 10
151.9240891201747
 20
69.515109714260277
 30
0.0
 11
161.9240891201747
 21
69.515109714260277
 31
0.0
  0
LINE
  5
11B4
  8
0
 10
163.41408912017471
 20
73.515109714260277
 30
0.0
 11
150.41408912017471
 21
73.515109714260277
 31
0.0
  0
LINE
  5
11B5
  8
1
 10
156.9240891201747
 20
104.5151097142603
 30
0.0
 11
156.9240891201747
 21
64.515109714260277
 31
0.0
  0
ARC
  5
11B6
  8
0
 10
156.9240891201747
 20
86.505109714260286
 30
0.0
 40
8.0
 50
115.9444797723697
 51
119.9999999999997
  0
LINE
  5
11B7
  8
0
 10
152.92408912017481
 20
93.433312944535842
 30
0.0
 11
153.4240891201747
 21
93.433312944535871
 31
0.0
  0
LINE
  5
11B9
  8
0
 10
152.9240891201747
 20
93.433312944535814
 30
0.0
 11
152.9240891201747
 21
93.184863794174547
 31
0.0
  0
LINE
  5
11E6
  8
0
 10
156.4240891201747
 20
89.726761484489117
 30
0.0
 11
157.4240891201747
 21
89.726761484489117
 31
0.0
  0
LINE
  5
11E8
  8
0
 10
153.4240891201747
 20
96.51510971426022
 30
0.0
 11
153.4240891201747
 21
92.726761484489074
 31
0.0
  0
LINE
  5
11E9
  8
0
 10
160.4240891201747
 20
96.515109714260291
 30
0.0
 11
160.4240891201747
 21
92.726761484489117
 31
0.0
  0
LINE
  5
11F1
  8
0
 10
157.4240891201747
 20
99.515109714260305
 30
0.0
 11
156.42408912017461
 21
99.515109714260277
 31
0.0
  0
ARC
  5
11F4
  8
0
 10
156.4240891201747
 20
96.515109714260277
 30
0.0
 40
3.0
 50
90.000000000000398
 51
180.00000000000099
  0
ARC
  5
11F5
  8
0
 10
157.4240891201747
 20
96.515109714260291
 30
0.0
 40
3.0
 50
0.0
 51
90.000000000000483
  0
ARC
  5
11F6
  8
0
 10
157.4240891201747
 20
92.726761484489117
 30
0.0
 40
3.0
 50
270.0
 51
0.0
  0
ARC
  5
11F7
  8
0
 10
156.4240891201747
 20
92.726761484489117
 30
0.0
 40
3.0
 50
180.00000000000111
 51
270.00000000000063
  0
LINE
  5
11F8
  8
0
 10
160.4240891201747
 20
93.433312944535913
 30
0.0
 11
160.9240891201745
 21
93.433312944535885
 31
0.0
  0
ARC
  5
1209
  8
0
 10
162.23562510912811
 20
80.505695027651825
 30
0.0
 40
12.13041221981074
 50
127.3144459521376
 51
157.1308479456458
  0
ARC
  5
120A
  8
0
 10
151.61255313122129
 20
80.505695027651825
 30
0.0
 40
12.13041221981074
 50
22.86915205435421
 51
52.685554047862333
  0
ARC
  5
1216
  8
0
 10
37.42408912017477
 20
96.515109714260291
 30
0.0
 40
3.0
 50
0.0
 51
90.000000000000483
  0
LINE
  5
1217
  8
0
 10
40.42408912017477
 20
96.515109714260291
 30
0.0
 11
40.42408912017477
 21
93.698856999229335
 31
0.0
  0
ARC
  5
1218
  8
0
 10
36.424089120174713
 20
96.515109714260277
 30
0.0
 40
3.0
 50
90.000000000000398
 51
180.00000000000099
  0
LINE
  5
1219
  8
0
 10
33.42408912017472
 20
96.51510971426022
 30
0.0
 11
33.424089120174742
 21
93.698856999229363
 31
0.0
  0
LINE
  5
121A
  8
0
 10
37.424089120174713
 20
99.515109714260305
 30
0.0
 11
36.424089120174663
 21
99.515109714260277
 31
0.0
  0
LINE
  5
1227
  8
2
 10
84.924089120174742
 20
78.515109714260277
 30
0.0
 11
85.303089120174988
 21
79.171556970329306
 31
0.0
  0
LINE
  5
1228
  8
2
 10
88.924089120174685
 20
78.515109714260277
 30
0.0
 11
88.545089120174424
 21
79.171556970329306
 31
0.0
  0
LINE
  5
1229
  8
2
 10
88.545089120174424
 20
80.515109714260177
 30
0.0
 11
86.924089120174685
 21
81.48910477770373
 31
0.0
  0
LINE
  5
122A
  8
2
 10
85.303089120175045
 20
80.515109714260277
 30
0.0
 11
86.924089120174685
 21
81.48910477770373
 31
0.0
  0
LINE
  5
122B
  8
2
 10
85.303089120174945
 20
80.515109714260277
 30
0.0
 11
88.545089120174424
 21
80.515109714260277
 31
0.0
  0
LINE
  5
122C
  8
2
 10
84.924089120174685
 20
78.515109714260277
 30
0.0
 11
88.924089120174685
 21
78.515109714260277
 31
0.0
  0
LINE
  5
122D
  8
2
 10
88.545089120174424
 20
70.315109714260288
 30
0.0
 11
88.545089120174424
 21
80.515109714260277
 31
0.0
  0
LINE
  5
122E
  8
2
 10
88.924089120174685
 20
69.936109714260041
 30
0.0
 11
88.924089120174685
 21
78.515109714260277
 31
0.0
  0
LINE
  5
122F
  8
2
 10
85.303089120174945
 20
70.315109714260288
 30
0.0
 11
85.303089120174945
 21
80.515109714260277
 31
0.0
  0
LINE
  5
1230
  8
2
 10
84.924089120174685
 20
69.936109714260041
 30
0.0
 11
84.924089120174685
 21
78.515109714260277
 31
0.0
  0
LINE
  5
1231
  8
2
 10
89.345089120174507
 20
69.515109714260277
 30
0.0
 11
88.545089120174424
 21
70.315109714260288
 31
0.0
  0
LINE
  5
1232
  8
2
 10
88.545089120174424
 20
70.315109714260288
 30
0.0
 11
85.303089120174945
 21
70.315109714260288
 31
0.0
  0
LINE
  5
1233
  8
2
 10
85.303089120174945
 20
70.315109714260288
 30
0.0
 11
84.50308912017492
 21
69.515109714260277
 31
0.0
  0
LINE
  5
1237
  8
2
 10
35.30308912017496
 20
70.315109714260288
 30
0.0
 11
34.50308912017492
 21
69.515109714260277
 31
0.0
  0
LINE
  5
1238
  8
2
 10
38.545089120174438
 20
70.315109714260288
 30
0.0
 11
35.30308912017496
 21
70.315109714260288
 31
0.0
  0
LINE
  5
1239
  8
2
 10
39.345089120174507
 20
69.515109714260277
 30
0.0
 11
38.545089120174438
 21
70.315109714260288
 31
0.0
  0
LINE
  5
123A
  8
2
 10
34.924089120174692
 20
69.936109714260041
 30
0.0
 11
34.924089120174692
 21
78.515109714260277
 31
0.0
  0
LINE
  5
123B
  8
2
 10
35.30308912017496
 20
70.315109714260288
 30
0.0
 11
35.30308912017496
 21
80.515109714260277
 31
0.0
  0
LINE
  5
123C
  8
2
 10
38.924089120174692
 20
69.936109714260041
 30
0.0
 11
38.924089120174692
 21
78.515109714260277
 31
0.0
  0
LINE
  5
123D
  8
2
 10
38.545089120174438
 20
70.315109714260288
 30
0.0
 11
38.545089120174438
 21
80.515109714260277
 31
0.0
  0
LINE
  5
123E
  8
2
 10
34.924089120174692
 20
78.515109714260277
 30
0.0
 11
38.924089120174692
 21
78.515109714260277
 31
0.0
  0
LINE
  5
123F
  8
2
 10
35.30308912017496
 20
80.515109714260277
 30
0.0
 11
38.545089120174438
 21
80.515109714260277
 31
0.0
  0
LINE
  5
1240
  8
2
 10
35.303089120175052
 20
80.515109714260277
 30
0.0
 11
36.924089120174692
 21
81.48910477770373
 31
0.0
  0
LINE
  5
1241
  8
2
 10
38.545089120174438
 20
80.515109714260177
 30
0.0
 11
36.924089120174692
 21
81.48910477770373
 31
0.0
  0
LINE
  5
1242
  8
2
 10
38.924089120174692
 20
78.515109714260277
 30
0.0
 11
38.545089120174438
 21
79.171556970329306
 31
0.0
  0
LINE
  5
1243
  8
2
 10
34.924089120174742
 20
78.515109714260277
 30
0.0
 11
35.303089120174988
 21
79.171556970329306
 31
0.0
  0
LINE
  5
1244
  8
2
 10
155.30308912017489
 20
70.315109714260288
 30
0.0
 11
154.50308912017491
 21
69.515109714260277
 31
0.0
  0
LINE
  5
1245
  8
2
 10
158.5450891201744
 20
70.315109714260288
 30
0.0
 11
155.30308912017489
 21
70.315109714260288
 31
0.0
  0
LINE
  5
1246
  8
2
 10
159.34508912017449
 20
69.515109714260277
 30
0.0
 11
158.5450891201744
 21
70.315109714260288
 31
0.0
  0
LINE
  5
1247
  8
2
 10
154.9240891201747
 20
69.936109714260041
 30
0.0
 11
154.9240891201747
 21
78.515109714260277
 31
0.0
  0
LINE
  5
1248
  8
2
 10
155.30308912017489
 20
70.315109714260288
 30
0.0
 11
155.30308912017489
 21
80.515109714260277
 31
0.0
  0
LINE
  5
1249
  8
2
 10
158.9240891201747
 20
69.936109714260041
 30
0.0
 11
158.9240891201747
 21
78.515109714260277
 31
0.0
  0
LINE
  5
124A
  8
2
 10
158.5450891201744
 20
70.315109714260288
 30
0.0
 11
158.5450891201744
 21
80.515109714260277
 31
0.0
  0
LINE
  5
124B
  8
2
 10
154.9240891201747
 20
78.515109714260277
 30
0.0
 11
158.9240891201747
 21
78.515109714260277
 31
0.0
  0
LINE
  5
124C
  8
2
 10
155.30308912017489
 20
80.515109714260277
 30
0.0
 11
158.5450891201744
 21
80.515109714260277
 31
0.0
  0
LINE
  5
124D
  8
2
 10
155.303089120175
 20
80.515109714260277
 30
0.0
 11
156.92408912017461
 21
81.48910477770373
 31
0.0
  0
LINE
  5
124E
  8
2
 10
158.5450891201744
 20
80.515109714260177
 30
0.0
 11
156.92408912017461
 21
81.48910477770373
 31
0.0
  0
LINE
  5
124F
  8
2
 10
158.9240891201747
 20
78.515109714260277
 30
0.0
 11
158.5450891201744
 21
79.171556970329306
 31
0.0
  0
LINE
  5
1250
  8
2
 10
154.9240891201747
 20
78.515109714260277
 30
0.0
 11
155.303089120175
 21
79.171556970329306
 31
0.0
  0
CIRCLE
  5
1251
  8
0
 10
86.924089120174713
 20
32.515610611498587
 30
0.0
 40
1.6209999999999991
  0
CIRCLE
  5
1252
  8
3
 10
86.924089120174713
 20
32.515610611498587
 30
0.0
 40
2.0
  0
TEXT
  5
1309
  8
0
 62
     3
 10
0.0
 20
0.0
 30
0.0
 40
10.0
  1
MKF4-OG-SUS
  7
STANDARD1
  0
ENDSEC
  0
EOF
