  0
SECTION
  2
HEADER
  9
$ACADVER
  1
AC1009
  9
$INSBASE
 10
0.0
 20
0.0
 30
0.0
  9
$EXTMIN
 10
0.0
 20
-2.960436562073669
 30
0.0
  9
$EXTMAX
 10
505.4999999999981242
 20
162.5000000000009095
 30
0.0
  9
$LIMMIN
 10
0.0
 20
0.0
  9
$LIMMAX
 10
187.5
 20
135.0
  9
$ORTHOMODE
 70
     1
  9
$REGENMODE
 70
     1
  9
$FILLMODE
 70
     1
  9
$QTEXTMODE
 70
     0
  9
$MIRRTEXT
 70
     0
  9
$DRAGMODE
 70
     2
  9
$LTSCALE
 40
10.0
  9
$OSMODE
 70
    37
  9
$ATTMODE
 70
     1
  9
$TEXTSIZE
 40
0.2
  9
$TRACEWID
 40
0.05
  9
$TEXTSTYLE
  7
STANDARD
  9
$CLAYER
  8
0
  9
$CELTYPE
  6
BYLAYER
  9
$CECOLOR
 62
   256
  9
$DIMSCALE
 40
1.0
  9
$DIMASZ
 40
3.0
  9
$DIMEXO
 40
2.0
  9
$DIMDLI
 40
0.38
  9
$DIMRND
 40
0.0
  9
$DIMDLE
 40
0.0
  9
$DIMEXE
 40
2.0
  9
$DIMTP
 40
0.0
  9
$DIMTM
 40
0.0
  9
$DIMTXT
 40
3.2000000000000002
  9
$DIMCEN
 40
0.0
  9
$DIMTSZ
 40
0.0
  9
$DIMTOL
 70
     0
  9
$DIMLIM
 70
     0
  9
$DIMTIH
 70
     0
  9
$DIMTOH
 70
     0
  9
$DIMSE1
 70
     0
  9
$DIMSE2
 70
     0
  9
$DIMTAD
 70
     1
  9
$DIMZIN
 70
     0
  9
$DIMBLK
  1

  9
$DIMASO
 70
     0
  9
$DIMSHO
 70
     0
  9
$DIMPOST
  1

  9
$DIMAPOST
  1

  9
$DIMALT
 70
     0
  9
$DIMALTD
 70
     2
  9
$DIMALTF
 40
25.3999999999999986
  9
$DIMLFAC
 40
1.0
  9
$DIMTOFL
 70
     1
  9
$DIMTVP
 40
1.6000000000000001
  9
$DIMTIX
 70
     1
  9
$DIMSOXD
 70
     0
  9
$DIMSAH
 70
     0
  9
$DIMBLK1
  1

  9
$DIMBLK2
  1

  9
$DIMSTYLE
  2
STANDARD
  9
$DIMCLRD
 70
     0
  9
$DIMCLRE
 70
     0
  9
$DIMCLRT
 70
     0
  9
$DIMTFAC
 40
1.0
  9
$DIMGAP
 40
0.09
  9
$LUNITS
 70
     2
  9
$LUPREC
 70
     1
  9
$SKETCHINC
 40
0.1
  9
$FILLETRAD
 40
0.0
  9
$AUNITS
 70
     0
  9
$AUPREC
 70
     1
  9
$MENU
  1
E:\r13\win\SUPPORT\ACAD
  9
$ELEVATION
 40
0.0
  9
$PELEVATION
 40
0.0
  9
$THICKNESS
 40
0.0
  9
$LIMCHECK
 70
     0
  9
$BLIPMODE
 70
     0
  9
$CHAMFERA
 40
0.0
  9
$CHAMFERB
 40
0.0
  9
$SKPOLY
 70
     0
  9
$TDCREATE
 40
2449839.773298610933125
  9
$TDUPDATE
 40
2460692.4009143519215286
  9
$TDINDWG
 40
0.1855224653
  9
$TDUSRTIMER
 40
0.1855224653
  9
$USRTIMER
 70
     1
  9
$ANGBASE
 50
0.0
  9
$ANGDIR
 70
     0
  9
$PDMODE
 70
     0
  9
$PDSIZE
 40
0.0
  9
$PLINEWID
 40
0.0
  9
$COORDS
 70
     1
  9
$SPLFRAME
 70
     0
  9
$SPLINETYPE
 70
     6
  9
$SPLINESEGS
 70
     8
  9
$ATTDIA
 70
     1
  9
$ATTREQ
 70
     1
  9
$HANDLING
 70
     1
  9
$HANDSEED
  5
11B6
  9
$SURFTAB1
 70
     6
  9
$SURFTAB2
 70
     6
  9
$SURFTYPE
 70
     6
  9
$SURFU
 70
     6
  9
$SURFV
 70
     6
  9
$UCSNAME
  2

  9
$UCSORG
 10
0.0
 20
0.0
 30
0.0
  9
$UCSXDIR
 10
1.0
 20
0.0
 30
0.0
  9
$UCSYDIR
 10
0.0
 20
1.0
 30
0.0
  9
$PUCSNAME
  2

  9
$PUCSORG
 10
0.0
 20
0.0
 30
0.0
  9
$PUCSXDIR
 10
1.0
 20
0.0
 30
0.0
  9
$PUCSYDIR
 10
0.0
 20
1.0
 30
0.0
  9
$USERI1
 70
     0
  9
$USERI2
 70
     1
  9
$USERI3
 70
     0
  9
$USERI4
 70
     0
  9
$USERI5
 70
     0
  9
$USERR1
 40
0.0
  9
$USERR2
 40
0.0
  9
$USERR3
 40
0.0
  9
$USERR4
 40
0.0
  9
$USERR5
 40
0.0
  9
$WORLDVIEW
 70
     1
  9
$SHADEDGE
 70
     3
  9
$SHADEDIF
 70
    70
  9
$TILEMODE
 70
     1
  9
$MAXACTVP
 70
    16
  9
$PLIMCHECK
 70
     0
  9
$PEXTMIN
 10
1.049999952316284
 20
0.7999999523162842
 30
0.0
  9
$PEXTMAX
 10
9.4499995708465594
 20
7.1999995708465576
 30
0.0
  9
$PLIMMIN
 10
-0.2500002402958907
 20
-0.2499999962453767
  9
$PLIMMAX
 10
10.7499995194082203
 20
8.2499997634587334
  9
$UNITMODE
 70
     0
  9
$VISRETAIN
 70
     0
  9
$PLINEGEN
 70
     0
  9
$PSLTSCALE
 70
     0
  0
ENDSEC
  0
SECTION
  2
TABLES
  0
TABLE
  2
VPORT
 70
     1
  0
VPORT
  2
*ACTIVE
 70
     0
 10
0.0
 20
0.0
 11
1.0
 21
1.0
 12
327.6431718061674019
 22
139.5103594685936059
 13
0.0
 23
0.0
 14
5.0
 24
5.0
 15
5.0
 25
5.0
 16
0.0
 26
0.0
 36
1.0
 17
0.0
 27
0.0
 37
0.0
 40
279.0207189371872118
 41
2.3485221674876842
 42
50.0
 43
0.0
 44
0.0
 50
0.0
 51
0.0
 71
     0
 72
   500
 73
     1
 74
     0
 75
     0
 76
     0
 77
     0
 78
     2
  0
ENDTAB
  0
TABLE
  2
LTYPE
 70
     3
  0
LTYPE
  2
CONTINUOUS
 70
     0
  3
Solid Line
 72
    65
 73
     0
 40
0.0
  0
LTYPE
  2
CENTER
 70
     0
  3
____ _ ____ _ ____ _ ____ _ ____ _ ____ _ ____
 72
    65
 73
     4
 40
2.0
 49
1.25
 49
-0.25
 49
0.25
 49
-0.25
  0
LTYPE
  2
HIDDEN
 70
     0
  3
_ _ _ _ _ _ _ _ _ _ _ _ _ _ _ _ _ _ _ _ _ _ _
 72
    65
 73
     2
 40
0.375
 49
0.25
 49
-0.125
  0
ENDTAB
  0
TABLE
  2
LAYER
 70
     4
  0
LAYER
  2
0
 70
     0
 62
     7
  6
CONTINUOUS
  0
LAYER
  2
1
 70
     0
 62
     1
  6
CENTER
  0
LAYER
  2
3
 70
     0
 62
     3
  6
CONTINUOUS
  0
LAYER
  2
2
 70
     0
 62
     2
  6
HIDDEN
  0
ENDTAB
  0
TABLE
  2
STYLE
 70
     2
  0
STYLE
  2
STANDARD
 70
     0
 40
0.0
 41
1.0
 50
0.0
 71
     0
 42
0.2
  3
TXT
  4
BIGFONT
  0
STYLE
  2
STANDARD1
 70
     0
 40
0.0
 41
1.0
 50
0.0
 71
     0
 42
3.0
  3
txt
  4

  0
ENDTAB
  0
TABLE
  2
VIEW
 70
     1
  0
VIEW
  2
ALL
 70
     0
 40
270.0
 10
220.9915966386554942
 20
135.0
 41
0.0
 11
0.0
 21
0.0
 31
1.0
 12
0.0
 22
0.0
 32
0.0
 42
0.0
 43
0.0
 44
0.0
 50
0.0
 71
     0
  0
ENDTAB
  0
TABLE
  2
UCS
 70
     0
  0
ENDTAB
  0
TABLE
  2
APPID
 70
     7
  0
APPID
  2
ACAD
 70
     0
  0
APPID
  2
ACAD_DSTYLE_DIMJAG
 70
     0
  0
APPID
  2
ACAD_DSTYLE_DIMTALN
 70
     0
  0
APPID
  2
ACAD_EXEMPT_FROM_CAD_STANDARDS
 70
     0
  0
APPID
  2
ACAD_MLEADERVER
 70
     0
  0
APPID
  2
ACAD_NAV_VCDISPLAY
 70
     0
  0
APPID
  2
ACAD_PSEXT
 70
     0
  0
ENDTAB
  0
TABLE
  2
DIMSTYLE
 70
     1
  0
DIMSTYLE
  2
STANDARD
 70
     0
  3

  4

  5

  6

  7

 40
1.0
 41
0.18
 42
0.0625
 43
0.38
 44
0.18
 45
0.0
 46
0.0
 47
0.0
 48
0.0
140
0.18
141
0.09
142
0.0
143
25.3999999999999986
144
1.0
145
0.0
146
1.0
147
0.09
 71
     0
 72
     0
 73
     1
 74
     1
 75
     0
 76
     0
 77
     0
 78
     0
170
     0
171
     2
172
     0
173
     0
174
     0
175
     0
176
     0
177
     0
178
     0
  0
ENDTAB
  0
ENDSEC
  0
SECTION
  2
BLOCKS
  0
BLOCK
  8
0
  2
$MODEL_SPACE
 70
     0
 10
0.0
 20
0.0
 30
0.0
  3
$MODEL_SPACE
  1

  0
ENDBLK
  5
1D4
  8
0
  0
BLOCK
 67
     1
  8
0
  2
$PAPER_SPACE
 70
     0
 10
0.0
 20
0.0
 30
0.0
  3
$PAPER_SPACE
  1

  0
ENDBLK
  5
1D2
 67
     1
  8
0
  0
ENDSEC
  0
SECTION
  2
ENTITIES
  0
TEXT
  5
678
  8
0
 62
     3
 10
0.0
 20
0.0
 30
0.0
 40
10.0
  1
MVAC110CS22
  7
STANDARD1
  0
LINE
  5
DD2
  8
0
 10
395.4999999999996021
 20
127.5000000000008953
 30
0.0
 11
420.4999999999994884
 21
127.5000000000008953
 31
0.0
  0
LINE
  5
DD3
  8
0
 10
395.4999999999996021
 20
130.0000000000009095
 30
0.0
 11
395.4999999999996021
 21
127.5000000000008953
 31
0.0
  0
LINE
  5
DD4
  8
0
 10
420.4999999999994884
 20
130.0000000000013074
 30
0.0
 11
420.4999999999994884
 21
127.5000000000008953
 31
0.0
  0
LINE
  5
DD5
  8
0
 10
420.4999999999994884
 20
162.5000000000009095
 30
0.0
 11
395.4999999999977263
 21
162.5000000000009095
 31
0.0
  0
LINE
  5
DD6
  8
0
 10
395.4999999999977263
 20
160.0000000000009095
 30
0.0
 11
395.4999999999977263
 21
162.5000000000009095
 31
0.0
  0
LINE
  5
DD7
  8
0
 10
420.4999999999994884
 20
160.0000000000009095
 30
0.0
 11
420.4999999999994884
 21
162.5000000000009095
 31
0.0
  0
LINE
  5
DD8
  8
0
 10
117.4999999999995026
 20
127.5
 30
0.0
 11
142.4999999999994884
 21
127.5
 31
0.0
  0
LINE
  5
DD9
  8
0
 10
117.4999999999995026
 20
130.0
 30
0.0
 11
117.4999999999995026
 21
127.5
 31
0.0
  0
LINE
  5
DDA
  8
0
 10
142.4999999999994884
 20
130.0000000000003979
 30
0.0
 11
142.4999999999994884
 21
127.5
 31
0.0
  0
LINE
  5
DDB
  8
0
 10
142.4999999999976978
 20
162.5
 30
0.0
 11
117.4999999999995026
 21
162.5
 31
0.0
  0
LINE
  5
DDC
  8
0
 10
117.4999999999995026
 20
160.0
 30
0.0
 11
117.4999999999995026
 21
162.5
 31
0.0
  0
LINE
  5
DDD
  8
0
 10
142.4999999999976978
 20
160.0000000000003979
 30
0.0
 11
142.4999999999976978
 21
162.5
 31
0.0
  0
CIRCLE
  5
DDE
  8
0
 10
407.9999999999994884
 20
145.0000000000009095
 30
0.0
 40
7.0
  0
LINE
  5
DDF
  8
0
 10
387.9999999999994884
 20
160.0000000000009095
 30
0.0
 11
437.9999999999994884
 21
160.0000000000013074
 31
0.0
  0
LINE
  5
DE0
  8
0
 10
437.9999999999994884
 20
130.0000000000013074
 30
0.0
 11
437.9999999999994884
 21
160.0000000000013074
 31
0.0
  0
LINE
  5
DE1
  8
0
 10
390.9999999999996021
 20
130.0000000000009095
 30
0.0
 11
390.9999999999996021
 21
160.0000000000009095
 31
0.0
  0
LINE
  5
DE2
  8
0
 10
387.9999999999994884
 20
130.0000000000009095
 30
0.0
 11
437.9999999999994884
 21
130.0000000000013074
 31
0.0
  0
LINE
  5
DE3
  8
0
 10
387.9999999999994884
 20
130.0000000000009095
 30
0.0
 11
387.9999999999994884
 21
160.0000000000009095
 31
0.0
  0
LINE
  5
DE4
  8
0
 10
407.9999999999988063
 20
141.5358983848620937
 30
0.0
 11
410.9999999999988063
 21
143.2679491924320132
 31
0.0
  0
LINE
  5
DE5
  8
0
 10
410.9999999999988063
 20
143.2679491924320132
 30
0.0
 11
410.9999999999988063
 21
146.7320508075684131
 31
0.0
  0
LINE
  5
DE6
  8
0
 10
410.9999999999988063
 20
146.7320508075684131
 30
0.0
 11
407.9999999999988063
 21
148.4641016151365136
 31
0.0
  0
LINE
  5
DE7
  8
0
 10
407.9999999999988063
 20
148.4641016151365136
 30
0.0
 11
404.9999999999988063
 21
146.7320508075684131
 31
0.0
  0
LINE
  5
DE8
  8
0
 10
404.9999999999988063
 20
146.7320508075684131
 30
0.0
 11
404.9999999999988063
 21
143.2679491924320132
 31
0.0
  0
LINE
  5
DE9
  8
0
 10
404.9999999999988063
 20
143.2679491924320132
 30
0.0
 11
407.9999999999988063
 21
141.5358983848620937
 31
0.0
  0
CIRCLE
  5
DEA
  8
0
 10
407.9999999999994884
 20
145.0000000000009095
 30
0.0
 40
6.5000000000018181
  0
CIRCLE
  5
DEB
  8
0
 10
129.9999999999994884
 20
145.0
 30
0.0
 40
7.0
  0
LINE
  5
DEC
  8
0
 10
149.9999999999976978
 20
130.0000000000003979
 30
0.0
 11
99.9999999999995453
 21
130.0
 31
0.0
  0
LINE
  5
DED
  8
0
 10
99.9999999999995453
 20
160.0
 30
0.0
 11
99.9999999999995453
 21
130.0
 31
0.0
  0
LINE
  5
DEE
  8
0
 10
149.9999999999976978
 20
160.0000000000003979
 30
0.0
 11
99.9999999999995453
 21
160.0
 31
0.0
  0
LINE
  5
DEF
  8
0
 10
146.9999999999976978
 20
160.0000000000003979
 30
0.0
 11
146.9999999999976978
 21
130.0000000000003979
 31
0.0
  0
LINE
  5
DF0
  8
0
 10
149.9999999999976978
 20
160.0000000000003979
 30
0.0
 11
149.9999999999976978
 21
130.0000000000003979
 31
0.0
  0
LINE
  5
DF1
  8
0
 10
129.9999999999994884
 20
148.4641016151381052
 30
0.0
 11
126.9999999999995026
 21
146.7320508075681005
 31
0.0
  0
LINE
  5
DF2
  8
0
 10
126.9999999999995026
 20
146.7320508075681005
 30
0.0
 11
126.9999999999995026
 21
143.2679491924317858
 31
0.0
  0
LINE
  5
DF3
  8
0
 10
126.9999999999995026
 20
143.2679491924317858
 30
0.0
 11
129.9999999999994884
 21
141.5358983848618095
 31
0.0
  0
LINE
  5
DF4
  8
0
 10
129.9999999999994884
 20
141.5358983848618095
 30
0.0
 11
132.9999999999994884
 21
143.2679491924317858
 31
0.0
  0
LINE
  5
DF5
  8
0
 10
132.9999999999994884
 20
143.2679491924317858
 30
0.0
 11
132.9999999999994884
 21
146.7320508075681005
 31
0.0
  0
LINE
  5
DF6
  8
0
 10
132.9999999999994884
 20
146.7320508075681005
 30
0.0
 11
129.9999999999994884
 21
148.4641016151381052
 31
0.0
  0
CIRCLE
  5
DF7
  8
0
 10
129.9999999999994884
 20
145.0
 30
0.0
 40
6.5
  0
LINE
  5
DF8
  8
0
 10
403.9999999999994884
 20
72.0
 30
0.0
 11
403.9999999999994884
 21
65.0
 31
0.0
  0
LINE
  5
DF9
  8
0
 10
411.9999999999994884
 20
65.0
 30
0.0
 11
411.9999999999994884
 21
72.0
 31
0.0
  0
LINE
  5
DFA
  8
0
 10
125.9999999999995026
 20
72.0
 30
0.0
 11
125.9999999999995026
 21
65.0
 31
0.0
  0
LINE
  5
DFB
  8
0
 10
133.9999999999976978
 20
65.0
 30
0.0
 11
133.9999999999976978
 21
72.0
 31
0.0
  0
LINE
  5
DFC
  8
0
 10
420.4999999999994884
 20
37.0
 30
0.0
 11
395.4999999999996021
 21
37.0
 31
0.0
  0
LINE
  5
DFD
  8
0
 10
395.4999999999996021
 20
40.0
 30
0.0
 11
420.4999999999994884
 21
40.0
 31
0.0
  0
LINE
  5
DFE
  8
0
 10
395.4999999999996021
 20
51.0
 30
0.0
 11
420.4999999999994884
 21
51.0
 31
0.0
  0
LINE
  5
DFF
  8
0
 10
395.4999999999996021
 20
65.0
 30
0.0
 11
420.4999999999994884
 21
65.0
 31
0.0
  0
LINE
  5
E00
  8
0
 10
420.4999999999994884
 20
37.0
 30
0.0
 11
420.4999999999994884
 21
65.0
 31
0.0
  0
LINE
  5
E01
  8
0
 10
395.4999999999996021
 20
37.0
 30
0.0
 11
395.4999999999996021
 21
65.0
 31
0.0
  0
LINE
  5
E02
  8
0
 10
117.4999999999995026
 20
40.0
 30
0.0
 11
142.4999999999994884
 21
40.0
 31
0.0
  0
LINE
  5
E03
  8
0
 10
142.4999999999994884
 20
37.0
 30
0.0
 11
117.4999999999995026
 21
37.0
 31
0.0
  0
LINE
  5
E04
  8
0
 10
117.4999999999995026
 20
51.0
 30
0.0
 11
142.4999999999994884
 21
51.0
 31
0.0
  0
LINE
  5
E05
  8
0
 10
142.4999999999994884
 20
65.0
 30
0.0
 11
117.4999999999995026
 21
65.0
 31
0.0
  0
LINE
  5
E06
  8
0
 10
142.4999999999994884
 20
37.0
 30
0.0
 11
142.4999999999994884
 21
65.0
 31
0.0
  0
LINE
  5
E07
  8
0
 10
117.4999999999995026
 20
37.0
 30
0.0
 11
117.4999999999995026
 21
65.0
 31
0.0
  0
LINE
  5
E08
  8
0
 10
387.9999999999994884
 20
92.0
 30
0.0
 11
387.9999999999994884
 21
86.0
 31
0.0
  0
LINE
  5
E09
  8
0
 10
390.9999999999996021
 20
95.0
 30
0.0
 11
387.9999999999994884
 21
92.0
 31
0.0
  0
LINE
  5
E0A
  8
0
 10
390.9999999999996021
 20
95.0
 30
0.0
 11
437.9999999999994884
 21
95.0
 31
0.0
  0
LINE
  5
E0B
  8
0
 10
437.9999999999994884
 20
95.0
 30
0.0
 11
437.9999999999994884
 21
70.0
 31
0.0
  0
LINE
  5
E0C
  8
0
 10
437.9999999999994884
 20
70.0
 30
0.0
 11
432.9999999999994884
 21
70.0
 31
0.0
  0
LINE
  5
E0D
  8
0
 10
432.9999999999994884
 20
72.0
 30
0.0
 11
432.9999999999994884
 21
70.0
 31
0.0
  0
LINE
  5
E0E
  8
0
 10
432.9999999999994884
 20
72.0
 30
0.0
 11
395.9999999999994884
 21
72.0
 31
0.0
  0
LINE
  5
E0F
  8
0
 10
393.9999999999994884
 20
74.0
 30
0.0
 11
395.9999999999994884
 21
72.0
 31
0.0
  0
LINE
  5
E10
  8
0
 10
393.9999999999994884
 20
86.0
 30
0.0
 11
393.9999999999994884
 21
74.0
 31
0.0
  0
LINE
  5
E11
  8
0
 10
393.9999999999994884
 20
86.0
 30
0.0
 11
387.9999999999994884
 21
86.0
 31
0.0
  0
LINE
  5
E12
  8
0
 10
104.9999999999995026
 20
70.0
 30
0.0
 11
99.9999999999995453
 21
70.0
 31
0.0
  0
LINE
  5
E13
  8
0
 10
99.9999999999995453
 20
70.0
 30
0.0
 11
99.9999999999995453
 21
95.0
 31
0.0
  0
LINE
  5
E14
  8
0
 10
146.9999999999976978
 20
95.0
 30
0.0
 11
99.9999999999995453
 21
95.0
 31
0.0
  0
LINE
  5
E15
  8
0
 10
146.9999999999976978
 20
95.0
 30
0.0
 11
149.9999999999976978
 21
92.0
 31
0.0
  0
LINE
  5
E16
  8
0
 10
149.9999999999976978
 20
86.0
 30
0.0
 11
149.9999999999976978
 21
92.0
 31
0.0
  0
LINE
  5
E17
  8
0
 10
143.9999999999994884
 20
86.0
 30
0.0
 11
149.9999999999976978
 21
86.0
 31
0.0
  0
LINE
  5
E18
  8
0
 10
143.9999999999994884
 20
86.0
 30
0.0
 11
143.9999999999994884
 21
74.0
 31
0.0
  0
LINE
  5
E19
  8
0
 10
143.9999999999994884
 20
74.0
 30
0.0
 11
141.9999999999994884
 21
72.0
 31
0.0
  0
LINE
  5
E1A
  8
0
 10
104.9999999999995026
 20
72.0
 30
0.0
 11
141.9999999999994884
 21
72.0
 31
0.0
  0
LINE
  5
E1B
  8
0
 10
104.9999999999995026
 20
72.0
 30
0.0
 11
104.9999999999995026
 21
70.0
 31
0.0
  0
LINE
  5
E1C
  8
2
 10
400.9999999999994884
 20
86.0
 30
0.0
 11
414.9999999999994884
 21
86.0
 31
0.0
  0
LINE
  5
E1E
  8
2
 10
405.199999999998397
 20
46.0000000000001066
 30
0.0
 11
410.7999999999969987
 21
45.9999999999998792
 31
0.0
  0
LINE
  5
E1F
  8
2
 10
122.9999999999995026
 20
86.0
 30
0.0
 11
136.9999999999994884
 21
86.0
 31
0.0
  0
LINE
  5
E21
  8
2
 10
127.199999999998397
 20
46.0
 30
0.0
 11
132.7999999999969987
 21
46.0
 31
0.0
  0
LINE
  5
E26
  8
2
 10
400.9999999999994884
 20
95.0
 30
0.0
 11
400.9999999999994884
 21
86.0
 31
0.0
  0
LINE
  5
E27
  8
2
 10
414.9999999999994884
 20
86.0
 30
0.0
 11
414.9999999999994884
 21
95.0
 31
0.0
  0
LINE
  5
E28
  8
2
 10
401.4999999999977263
 20
93.4999999999991331
 30
0.0
 11
401.4999999999977263
 21
86.0
 31
0.0
  0
LINE
  5
E29
  8
2
 10
414.4999999999977263
 20
86.0
 30
0.0
 11
414.4999999999977263
 21
93.4999999999991331
 31
0.0
  0
LINE
  5
E2A
  8
2
 10
403.9999999999994884
 20
65.0
 30
0.0
 11
403.9999999999994884
 21
47.2000000000003794
 31
0.0
  0
LINE
  5
E2B
  8
2
 10
411.9999999999994884
 20
47.2000000000003297
 30
0.0
 11
411.9999999999994884
 21
65.0
 31
0.0
  0
LINE
  5
E2C
  8
2
 10
122.9999999999995026
 20
95.0
 30
0.0
 11
122.9999999999995026
 21
86.0
 31
0.0
  0
LINE
  5
E2D
  8
2
 10
136.9999999999994884
 20
86.0
 30
0.0
 11
136.9999999999994884
 21
95.0
 31
0.0
  0
LINE
  5
E2E
  8
2
 10
123.4999999999995026
 20
93.4999999999991331
 30
0.0
 11
123.4999999999995026
 21
86.0
 31
0.0
  0
LINE
  5
E2F
  8
2
 10
136.4999999999994884
 20
86.0
 30
0.0
 11
136.4999999999994884
 21
93.4999999999991331
 31
0.0
  0
LINE
  5
E30
  8
2
 10
125.9999999999995026
 20
65.0
 30
0.0
 11
125.9999999999995026
 21
47.2000000000003794
 31
0.0
  0
LINE
  5
E31
  8
2
 10
133.9999999999976978
 20
47.1999999999985533
 30
0.0
 11
133.9999999999976978
 21
65.0
 31
0.0
  0
LINE
  5
E32
  8
0
 10
484.0
 20
70.0
 30
0.0
 11
484.0
 21
65.0
 31
0.0
  0
LINE
  5
E33
  8
0
 10
492.0
 20
65.0
 30
0.0
 11
492.0
 21
70.0
 31
0.0
  0
LINE
  5
E34
  8
0
 10
499.0
 20
65.0
 30
0.0
 11
477.0
 21
65.0
 31
0.0
  0
LINE
  5
E35
  8
0
 10
499.0
 20
51.0
 30
0.0
 11
499.0
 21
65.0
 31
0.0
  0
LINE
  5
E36
  8
0
 10
498.9999999999998863
 20
51.0
 30
0.0
 11
505.4999999999981242
 21
51.0
 31
0.0
  0
LINE
  5
E37
  8
0
 10
505.4999999999981242
 20
51.0
 30
0.0
 11
505.4999999999981242
 21
40.0
 31
0.0
  0
LINE
  5
E38
  8
0
 10
502.4999999999981242
 20
37.0
 30
0.0
 11
505.4999999999981242
 21
40.0
 31
0.0
  0
LINE
  5
E39
  8
0
 10
477.0
 20
51.0
 30
0.0
 11
477.0
 21
65.0
 31
0.0
  0
LINE
  5
E3A
  8
0
 10
470.499999999998181
 20
51.0
 30
0.0
 11
470.499999999998181
 21
40.0
 31
0.0
  0
LINE
  5
E3B
  8
0
 10
470.499999999998181
 20
40.0
 30
0.0
 11
473.4999999999981242
 21
37.0
 31
0.0
  0
LINE
  5
E3C
  8
0
 10
502.4999999999981242
 20
37.0
 30
0.0
 11
473.4999999999981242
 21
37.0
 31
0.0
  0
LINE
  5
E3D
  8
0
 10
477.0
 20
51.0
 30
0.0
 11
470.499999999998181
 21
51.0
 31
0.0
  0
LINE
  5
E3E
  8
0
 10
473.0
 20
70.0
 30
0.0
 11
503.0
 21
70.0
 31
0.0
  0
LINE
  5
E3F
  8
0
 10
473.0
 20
95.0
 30
0.0
 11
473.0
 21
70.0
 31
0.0
  0
LINE
  5
E40
  8
0
 10
473.0
 20
95.0
 30
0.0
 11
503.0
 21
95.0
 31
0.0
  0
LINE
  5
E41
  8
0
 10
503.0
 20
70.0
 30
0.0
 11
503.0
 21
95.0
 31
0.0
  0
LINE
  5
E42
  8
0
 10
46.0
 20
70.0
 30
0.0
 11
46.0
 21
65.0
 31
0.0
  0
LINE
  5
E43
  8
0
 10
54.0
 20
65.0
 30
0.0
 11
54.0
 21
70.0
 31
0.0
  0
LINE
  5
E44
  8
0
 10
61.0
 20
65.0
 30
0.0
 11
39.0
 21
65.0
 31
0.0
  0
LINE
  5
E45
  8
0
 10
61.0
 20
51.0
 30
0.0
 11
61.0
 21
65.0
 31
0.0
  0
LINE
  5
E46
  8
0
 10
61.0
 20
51.0
 30
0.0
 11
67.499999999998181
 21
51.0
 31
0.0
  0
LINE
  5
E47
  8
0
 10
67.499999999998181
 20
51.0
 30
0.0
 11
67.499999999998181
 21
40.0
 31
0.0
  0
LINE
  5
E48
  8
0
 10
64.499999999998181
 20
37.0
 30
0.0
 11
67.499999999998181
 21
40.0
 31
0.0
  0
LINE
  5
E49
  8
0
 10
64.499999999998181
 20
37.0
 30
0.0
 11
35.499999999998181
 21
37.0
 31
0.0
  0
LINE
  5
E4A
  8
0
 10
32.499999999998181
 20
40.0
 30
0.0
 11
35.499999999998181
 21
37.0
 31
0.0
  0
LINE
  5
E4B
  8
0
 10
39.0
 20
51.0
 30
0.0
 11
39.0
 21
65.0
 31
0.0
  0
LINE
  5
E4C
  8
0
 10
32.499999999998181
 20
51.0
 30
0.0
 11
32.499999999998181
 21
40.0
 31
0.0
  0
LINE
  5
E4D
  8
0
 10
39.0
 20
51.0
 30
0.0
 11
32.499999999998181
 21
51.0
 31
0.0
  0
LINE
  5
E4E
  8
0
 10
35.0
 20
70.0
 30
0.0
 11
65.0
 21
70.0
 31
0.0
  0
LINE
  5
E4F
  8
0
 10
35.0
 20
95.0
 30
0.0
 11
35.0
 21
70.0
 31
0.0
  0
LINE
  5
E50
  8
0
 10
35.0
 20
95.0
 30
0.0
 11
65.0
 21
95.0
 31
0.0
  0
LINE
  5
E51
  8
0
 10
65.0
 20
70.0
 30
0.0
 11
65.0
 21
95.0
 31
0.0
  0
LINE
  5
E52
  8
1
 10
129.9999999999994884
 20
100.0
 30
0.0
 11
129.9999999999994884
 21
32.0000000000001208
 31
0.0
  0
LINE
  5
E53
  8
2
 10
126.5999999999998948
 20
65.0
 30
0.0
 11
126.5999999999998948
 21
46.6000000000010388
 31
0.0
  0
LINE
  5
E54
  8
2
 10
133.3999999999992099
 20
65.0
 30
0.0
 11
133.3999999999992099
 21
46.6000000000004775
 31
0.0
  0
LINE
  5
E55
  8
2
 10
133.3999999999992099
 20
72.0
 30
0.0
 11
133.3999999999990962
 21
82.2499999999999716
 31
0.0
  0
LINE
  5
E56
  8
2
 10
126.5999999999998948
 20
72.0
 30
0.0
 11
126.5999999999998948
 21
82.2499999999999858
 31
0.0
  0
LINE
  5
E57
  8
3
 10
133.3999999999992099
 20
72.0
 30
0.0
 11
133.3999999999992099
 21
65.0
 31
0.0
  0
LINE
  5
E58
  8
3
 10
126.5999999999998948
 20
72.0
 30
0.0
 11
126.5999999999998948
 21
65.0
 31
0.0
  0
LINE
  5
E59
  8
2
 10
125.9999999999976978
 20
72.0
 30
0.0
 11
125.9999999999976978
 21
85.5999999999999091
 31
0.0
  0
LINE
  5
E5A
  8
2
 10
133.9999999999976978
 20
72.0
 30
0.0
 11
133.9999999999976978
 21
85.5999999999999091
 31
0.0
  0
LINE
  5
E5B
  8
2
 10
133.3999999999992099
 20
82.2499999999999858
 30
0.0
 11
133.9999999999976978
 21
83.4499999999998181
 31
0.0
  0
LINE
  5
E5C
  8
2
 10
125.9999999999976978
 20
82.2499999999999858
 30
0.0
 11
133.9999999999976978
 21
82.2499999999999858
 31
0.0
  0
LINE
  5
E5D
  8
2
 10
126.5999999999998948
 20
82.2499999999999858
 30
0.0
 11
125.9999999999976978
 21
83.4499999999998181
 31
0.0
  0
LINE
  5
E5E
  8
2
 10
133.9999999999994884
 20
47.2000000000003794
 30
0.0
 11
132.7999999999987892
 21
46.0000000000005684
 31
0.0
  0
LINE
  5
E5F
  8
2
 10
125.9999999999995026
 20
47.2000000000003794
 30
0.0
 11
133.9999999999994884
 21
47.2000000000003794
 31
0.0
  0
LINE
  5
E60
  8
2
 10
125.9999999999995026
 20
47.2000000000003794
 30
0.0
 11
127.199999999998397
 21
46.0000000000005684
 31
0.0
  0
LINE
  5
E61
  8
1
 10
407.9999999999994884
 20
100.0
 30
0.0
 11
407.9999999999994884
 21
32.0000000000001208
 31
0.0
  0
LINE
  5
E62
  8
2
 10
404.5999999999999091
 20
65.0
 30
0.0
 11
404.5999999999999091
 21
46.6000000000010388
 31
0.0
  0
LINE
  5
E63
  8
2
 10
411.3999999999991246
 20
65.0
 30
0.0
 11
411.3999999999991246
 21
46.6000000000004775
 31
0.0
  0
LINE
  5
E64
  8
2
 10
411.3999999999991246
 20
72.0
 30
0.0
 11
411.3999999999990109
 21
82.2500000000000142
 31
0.0
  0
LINE
  5
E65
  8
2
 10
404.5999999999999091
 20
72.0
 30
0.0
 11
404.5999999999999091
 21
82.2499999999999858
 31
0.0
  0
LINE
  5
E66
  8
3
 10
411.3999999999991246
 20
72.0
 30
0.0
 11
411.3999999999991246
 21
65.0
 31
0.0
  0
LINE
  5
E67
  8
3
 10
404.5999999999999091
 20
72.0
 30
0.0
 11
404.5999999999999091
 21
65.0
 31
0.0
  0
LINE
  5
E68
  8
2
 10
403.9999999999976126
 20
72.0
 30
0.0
 11
403.9999999999976126
 21
85.5999999999999091
 31
0.0
  0
LINE
  5
E69
  8
2
 10
411.9999999999977263
 20
72.0
 30
0.0
 11
411.9999999999977263
 21
85.5999999999999091
 31
0.0
  0
LINE
  5
E6A
  8
2
 10
411.3999999999991246
 20
82.2499999999999858
 30
0.0
 11
411.9999999999977263
 21
83.4499999999998181
 31
0.0
  0
LINE
  5
E6B
  8
2
 10
403.9999999999976126
 20
82.2499999999999858
 30
0.0
 11
411.9999999999977263
 21
82.2499999999999858
 31
0.0
  0
LINE
  5
E6C
  8
2
 10
404.5999999999999091
 20
82.2499999999999858
 30
0.0
 11
403.9999999999976126
 21
83.4499999999998181
 31
0.0
  0
LINE
  5
E6D
  8
2
 10
411.9999999999994884
 20
47.2000000000003794
 30
0.0
 11
410.7999999999988177
 21
46.0000000000005684
 31
0.0
  0
LINE
  5
E6E
  8
2
 10
403.9999999999994884
 20
47.2000000000003794
 30
0.0
 11
411.9999999999994884
 21
47.2000000000003794
 31
0.0
  0
LINE
  5
E6F
  8
2
 10
403.9999999999994884
 20
47.2000000000003794
 30
0.0
 11
405.199999999998397
 21
46.0000000000005684
 31
0.0
  0
LINE
  5
E70
  8
1
 10
50.0
 20
100.0
 30
0.0
 11
50.0
 21
32.0000000000001208
 31
0.0
  0
LINE
  5
E71
  8
1
 10
488.0
 20
100.0
 30
0.0
 11
488.0
 21
32.0000000000001208
 31
0.0
  0
LINE
  5
E72
  8
1
 10
94.9999999999995453
 20
145.0
 30
0.0
 11
154.9999999999994884
 21
145.0
 31
0.0
  0
LINE
  5
E73
  8
1
 10
129.9999999999994884
 20
155.0000000000003979
 30
0.0
 11
129.9999999999994884
 21
135.0
 31
0.0
  0
LINE
  5
E74
  8
1
 10
442.9999999999994884
 20
145.0000000000003979
 30
0.0
 11
382.9999999999996021
 21
145.0000000000003979
 31
0.0
  0
LINE
  5
E75
  8
1
 10
407.9999999999994884
 20
135.0
 30
0.0
 11
407.9999999999994884
 21
155.0000000000003979
 31
0.0
  0
LINE
  5
E76
  8
3
 10
53.3999999999996433
 20
70.0
 30
0.0
 11
53.3999999999996433
 21
65.0
 31
0.0
  0
LINE
  5
E77
  8
3
 10
46.6000000000003567
 20
70.0
 30
0.0
 11
46.6000000000003567
 21
65.0
 31
0.0
  0
LINE
  5
E78
  8
3
 10
491.3999999999995794
 20
70.0
 30
0.0
 11
491.3999999999995794
 21
65.0
 31
0.0
  0
LINE
  5
E79
  8
3
 10
484.600000000000307
 20
70.0
 30
0.0
 11
484.600000000000307
 21
65.0
 31
0.0
  0
LINE
  5
1011
  8
2
 10
401.4999999999977263
 20
93.4999999999991331
 30
0.0
 11
414.4999999999977263
 21
93.4999999999991331
 31
0.0
  0
LINE
  5
1012
  8
2
 10
413.6339745962117718
 20
94.0
 30
0.0
 11
402.3660254037836239
 21
94.0
 31
0.0
  0
LINE
  5
1013
  8
2
 10
402.3660254037836239
 20
94.0
 30
0.0
 11
401.4999999999977263
 21
93.4999999999991331
 31
0.0
  0
LINE
  5
1014
  8
2
 10
413.6339745962117718
 20
94.0
 30
0.0
 11
414.4999999999977263
 21
93.4999999999991331
 31
0.0
  0
LINE
  5
1015
  8
2
 10
123.4999999999995026
 20
93.4999999999991331
 30
0.0
 11
136.4999999999994884
 21
93.4999999999991331
 31
0.0
  0
LINE
  5
1016
  8
2
 10
135.6339745962135908
 20
94.0
 30
0.0
 11
124.3660254037854003
 21
94.0
 31
0.0
  0
LINE
  5
1017
  8
2
 10
124.3660254037854003
 20
94.0
 30
0.0
 11
123.4999999999995026
 21
93.4999999999991331
 31
0.0
  0
LINE
  5
1018
  8
2
 10
135.6339745962135908
 20
94.0
 30
0.0
 11
136.4999999999994884
 21
93.4999999999991331
 31
0.0
  0
LINE
  5
1019
  8
2
 10
134.4999999999994884
 20
86.0000000000000284
 30
0.0
 11
134.4999999999994884
 21
72.0000000000000142
 31
0.0
  0
LINE
  5
101A
  8
2
 10
125.4999999999995026
 20
86.0000000000000284
 30
0.0
 11
125.4999999999995026
 21
72.0000000000000142
 31
0.0
  0
ARC
  5
101B
  8
2
 10
125.5999999999993975
 20
85.5999999999999091
 30
0.0
 40
0.4
 50
0.0
 51
90.0
  0
ARC
  5
101C
  8
2
 10
134.3999999999996078
 20
85.5999999999999091
 30
0.0
 40
0.4
 50
90.0
 51
180.0
  0
LINE
  5
101D
  8
2
 10
412.4999999999994884
 20
86.0000000000000284
 30
0.0
 11
412.4999999999994884
 21
72.0000000000000142
 31
0.0
  0
LINE
  5
101E
  8
2
 10
403.4999999999994884
 20
86.0000000000000284
 30
0.0
 11
403.4999999999994884
 21
72.0000000000000142
 31
0.0
  0
ARC
  5
101F
  8
2
 10
403.5999999999993975
 20
85.5999999999999091
 30
0.0
 40
0.4
 50
0.0
 51
90.0
  0
ARC
  5
1020
  8
2
 10
412.3999999999995794
 20
85.5999999999999091
 30
0.0
 40
0.4
 50
90.0
 51
180.0
  0
LINE
  5
103F
  8
2
 10
43.0
 20
86.0
 30
0.0
 11
57.0
 21
86.0
 31
0.0
  0
LINE
  5
1040
  8
2
 10
43.0
 20
95.0
 30
0.0
 11
43.0
 21
86.0
 31
0.0
  0
LINE
  5
1041
  8
2
 10
57.0
 20
86.0
 30
0.0
 11
57.0
 21
95.0
 31
0.0
  0
LINE
  5
1042
  8
2
 10
43.5
 20
93.4999999999991331
 30
0.0
 11
43.5
 21
86.0
 31
0.0
  0
LINE
  5
1043
  8
2
 10
56.5
 20
86.0
 30
0.0
 11
56.5
 21
93.4999999999991331
 31
0.0
  0
LINE
  5
1044
  8
2
 10
53.3999999999996433
 20
70.0
 30
0.0
 11
53.3999999999996291
 21
82.2499999999999716
 31
0.0
  0
LINE
  5
1045
  8
2
 10
46.6000000000003567
 20
72.0
 30
0.0
 11
46.6000000000003567
 21
82.2499999999999858
 31
0.0
  0
LINE
  5
1046
  8
2
 10
45.9999999999981668
 20
70.0
 30
0.0
 11
45.999999999998181
 21
85.5999999999999091
 31
0.0
  0
LINE
  5
1047
  8
2
 10
53.9999999999981668
 20
70.0
 30
0.0
 11
53.999999999998181
 21
85.5999999999999091
 31
0.0
  0
LINE
  5
1048
  8
2
 10
53.3999999999996433
 20
82.2499999999999858
 30
0.0
 11
53.9999999999981881
 21
83.4499999999998181
 31
0.0
  0
LINE
  5
1049
  8
2
 10
45.9999999999981881
 20
82.2499999999999858
 30
0.0
 11
53.9999999999981881
 21
82.2499999999999858
 31
0.0
  0
LINE
  5
104A
  8
2
 10
46.6000000000003709
 20
82.2499999999999858
 30
0.0
 11
45.9999999999981881
 21
83.4499999999998181
 31
0.0
  0
LINE
  5
104B
  8
2
 10
43.5
 20
93.4999999999991331
 30
0.0
 11
56.5
 21
93.4999999999991331
 31
0.0
  0
LINE
  5
104C
  8
2
 10
55.6339745962141023
 20
94.0
 30
0.0
 11
44.3660254037858905
 21
94.0
 31
0.0
  0
LINE
  5
104D
  8
2
 10
44.3660254037858905
 20
94.0
 30
0.0
 11
43.5
 21
93.4999999999991331
 31
0.0
  0
LINE
  5
104E
  8
2
 10
55.6339745962141023
 20
94.0
 30
0.0
 11
56.5
 21
93.4999999999991331
 31
0.0
  0
LINE
  5
104F
  8
2
 10
54.5
 20
86.0000000000000284
 30
0.0
 11
54.5
 21
72.0000000000000142
 31
0.0
  0
LINE
  5
1050
  8
2
 10
45.4999999999999929
 20
86.0000000000000284
 30
0.0
 11
45.4999999999999929
 21
72.0000000000000142
 31
0.0
  0
ARC
  5
1051
  8
2
 10
45.5999999999999019
 20
85.5999999999999091
 30
0.0
 40
0.4
 50
0.0
 51
90.0
  0
ARC
  5
1052
  8
2
 10
54.4000000000000909
 20
85.5999999999999091
 30
0.0
 40
0.4
 50
90.0
 51
180.0
  0
LINE
  5
1053
  8
2
 10
47.1999999999989086
 20
46.0
 30
0.0
 11
52.7999999999974534
 21
46.0
 31
0.0
  0
LINE
  5
1054
  8
2
 10
46.0
 20
65.0
 30
0.0
 11
46.0
 21
47.2000000000003794
 31
0.0
  0
LINE
  5
1055
  8
2
 10
53.999999999998181
 20
47.1999999999985533
 30
0.0
 11
53.999999999998181
 21
65.0
 31
0.0
  0
LINE
  5
1056
  8
2
 10
46.6000000000003567
 20
65.0
 30
0.0
 11
46.6000000000003567
 21
46.6000000000010388
 31
0.0
  0
LINE
  5
1057
  8
2
 10
53.3999999999996433
 20
65.0
 30
0.0
 11
53.3999999999996433
 21
46.6000000000004775
 31
0.0
  0
LINE
  5
1058
  8
2
 10
54.0
 20
47.2000000000003794
 30
0.0
 11
52.7999999999992724
 21
46.0000000000005684
 31
0.0
  0
LINE
  5
1059
  8
2
 10
46.0
 20
47.2000000000003794
 30
0.0
 11
54.0
 21
47.2000000000003794
 31
0.0
  0
LINE
  5
105A
  8
2
 10
46.0
 20
47.2000000000003794
 30
0.0
 11
47.1999999999989086
 21
46.0000000000005684
 31
0.0
  0
LINE
  5
105C
  8
2
 10
65.0
 20
86.0
 30
0.0
 11
35.0
 21
86.0
 31
0.0
  0
LINE
  5
105E
  8
2
 10
65.0
 20
72.0
 30
0.0
 11
35.0
 21
72.0
 31
0.0
  0
LINE
  5
105F
  8
2
 10
473.0
 20
86.0
 30
0.0
 11
503.0
 21
86.0
 31
0.0
  0
LINE
  5
1060
  8
2
 10
473.0
 20
72.0
 30
0.0
 11
503.0
 21
72.0
 31
0.0
  0
LINE
  5
1061
  8
0
 10
484.0
 20
70.0
 30
0.0
 11
484.0
 21
65.0
 31
0.0
  0
LINE
  5
1062
  8
0
 10
492.0
 20
65.0
 30
0.0
 11
492.0
 21
70.0
 31
0.0
  0
LINE
  5
1063
  8
3
 10
491.3999999999995794
 20
70.0
 30
0.0
 11
491.3999999999995794
 21
65.0
 31
0.0
  0
LINE
  5
1064
  8
3
 10
484.600000000000307
 20
70.0
 30
0.0
 11
484.600000000000307
 21
65.0
 31
0.0
  0
LINE
  5
1065
  8
2
 10
481.0
 20
86.0
 30
0.0
 11
495.0
 21
86.0
 31
0.0
  0
LINE
  5
1066
  8
2
 10
481.0
 20
95.0
 30
0.0
 11
481.0
 21
86.0
 31
0.0
  0
LINE
  5
1067
  8
2
 10
495.0
 20
86.0
 30
0.0
 11
495.0
 21
95.0
 31
0.0
  0
LINE
  5
1068
  8
2
 10
481.5
 20
93.4999999999991331
 30
0.0
 11
481.5
 21
86.0
 31
0.0
  0
LINE
  5
1069
  8
2
 10
494.5
 20
86.0
 30
0.0
 11
494.5
 21
93.4999999999991331
 31
0.0
  0
LINE
  5
106A
  8
2
 10
491.3999999999995794
 20
70.0
 30
0.0
 11
491.3999999999995794
 21
82.2500000000000568
 31
0.0
  0
LINE
  5
106B
  8
2
 10
484.600000000000307
 20
72.0
 30
0.0
 11
484.600000000000307
 21
82.2499999999999858
 31
0.0
  0
LINE
  5
106C
  8
2
 10
483.999999999998181
 20
70.0
 30
0.0
 11
483.999999999998181
 21
85.5999999999999091
 31
0.0
  0
LINE
  5
106D
  8
2
 10
491.999999999998181
 20
70.0
 30
0.0
 11
491.999999999998181
 21
85.5999999999999091
 31
0.0
  0
LINE
  5
106E
  8
2
 10
491.3999999999995794
 20
82.2499999999999858
 30
0.0
 11
491.999999999998181
 21
83.4499999999998181
 31
0.0
  0
LINE
  5
106F
  8
2
 10
483.999999999998181
 20
82.2499999999999858
 30
0.0
 11
491.999999999998181
 21
82.2499999999999858
 31
0.0
  0
LINE
  5
1070
  8
2
 10
484.600000000000307
 20
82.2499999999999858
 30
0.0
 11
483.999999999998181
 21
83.4499999999998181
 31
0.0
  0
LINE
  5
1071
  8
2
 10
481.5
 20
93.4999999999991331
 30
0.0
 11
494.5
 21
93.4999999999991331
 31
0.0
  0
LINE
  5
1072
  8
2
 10
493.6339745962141023
 20
94.0
 30
0.0
 11
482.3660254037858977
 21
94.0
 31
0.0
  0
LINE
  5
1073
  8
2
 10
482.3660254037858977
 20
94.0
 30
0.0
 11
481.5
 21
93.4999999999991331
 31
0.0
  0
LINE
  5
1074
  8
2
 10
493.6339745962141023
 20
94.0
 30
0.0
 11
494.5
 21
93.4999999999991331
 31
0.0
  0
LINE
  5
1075
  8
2
 10
492.4999999999998863
 20
86.0000000000000284
 30
0.0
 11
492.4999999999998863
 21
72.0000000000000142
 31
0.0
  0
LINE
  5
1076
  8
2
 10
483.4999999999998863
 20
86.0000000000000284
 30
0.0
 11
483.4999999999998863
 21
72.0000000000000142
 31
0.0
  0
ARC
  5
1077
  8
2
 10
483.5999999999999091
 20
85.5999999999999091
 30
0.0
 40
0.4
 50
0.0
 51
90.0
  0
ARC
  5
1078
  8
2
 10
492.4000000000000909
 20
85.5999999999999091
 30
0.0
 40
0.4
 50
90.0
 51
180.0
  0
LINE
  5
1079
  8
2
 10
485.1999999999987949
 20
46.0
 30
0.0
 11
490.7999999999973966
 21
46.0
 31
0.0
  0
LINE
  5
107A
  8
2
 10
484.0
 20
65.0
 30
0.0
 11
484.0
 21
47.2000000000003794
 31
0.0
  0
LINE
  5
107B
  8
2
 10
491.999999999998181
 20
47.1999999999985533
 30
0.0
 11
491.999999999998181
 21
65.0
 31
0.0
  0
LINE
  5
107C
  8
2
 10
484.600000000000307
 20
65.0
 30
0.0
 11
484.600000000000307
 21
46.6000000000010388
 31
0.0
  0
LINE
  5
107D
  8
2
 10
491.3999999999995794
 20
65.0
 30
0.0
 11
491.3999999999995794
 21
46.6000000000004775
 31
0.0
  0
LINE
  5
107E
  8
2
 10
492.0
 20
47.2000000000003794
 30
0.0
 11
490.7999999999992724
 21
46.0000000000005684
 31
0.0
  0
LINE
  5
107F
  8
2
 10
484.0
 20
47.2000000000003794
 30
0.0
 11
492.0
 21
47.2000000000003794
 31
0.0
  0
LINE
  5
1080
  8
2
 10
484.0
 20
47.2000000000003794
 30
0.0
 11
485.1999999999987949
 21
46.0000000000005684
 31
0.0
  0
LINE
  5
1081
  8
2
 10
143.9999999999994884
 20
160.0000000000003979
 30
0.0
 11
143.9999999999994884
 21
130.0000000000003979
 31
0.0
  0
LINE
  5
1082
  8
2
 10
104.9999999999995026
 20
160.0
 30
0.0
 11
104.9999999999995026
 21
130.0
 31
0.0
  0
LINE
  5
1083
  8
2
 10
393.9999999999994884
 20
160.0000000000009095
 30
0.0
 11
393.9999999999994884
 21
130.0000000000009095
 31
0.0
  0
LINE
  5
1084
  8
2
 10
432.9999999999994884
 20
160.0000000000013074
 30
0.0
 11
432.9999999999994884
 21
130.0000000000013074
 31
0.0
  0
LINE
  5
1091
  8
0
 10
195.9999999999976978
 20
72.0
 30
0.0
 11
195.9999999999976978
 21
65.0
 31
0.0
  0
LINE
  5
1092
  8
0
 10
203.9999999999976978
 20
65.0
 30
0.0
 11
203.9999999999976978
 21
72.0
 31
0.0
  0
LINE
  5
1093
  8
0
 10
210.9999999999976978
 20
65.0
 30
0.0
 11
188.9999999999976978
 21
65.0
 31
0.0
  0
LINE
  5
1094
  8
0
 10
210.9999999999976978
 20
51.0
 30
0.0
 11
210.9999999999976978
 21
65.0
 31
0.0
  0
LINE
  5
1095
  8
0
 10
210.9999999999976978
 20
51.0
 30
0.0
 11
217.4999999999959073
 21
51.0
 31
0.0
  0
LINE
  5
1096
  8
0
 10
217.4999999999959073
 20
51.0
 30
0.0
 11
217.4999999999959073
 21
40.0
 31
0.0
  0
LINE
  5
1097
  8
0
 10
214.4999999999959073
 20
37.0
 30
0.0
 11
217.4999999999959073
 21
40.0
 31
0.0
  0
LINE
  5
1098
  8
0
 10
214.4999999999959073
 20
37.0
 30
0.0
 11
185.4999999999959073
 21
37.0
 31
0.0
  0
LINE
  5
1099
  8
0
 10
182.4999999999959073
 20
40.0
 30
0.0
 11
185.4999999999959073
 21
37.0
 31
0.0
  0
LINE
  5
109A
  8
0
 10
188.9999999999976978
 20
51.0
 30
0.0
 11
188.9999999999976978
 21
65.0
 31
0.0
  0
LINE
  5
109B
  8
0
 10
182.4999999999959073
 20
51.0
 30
0.0
 11
182.4999999999959073
 21
40.0
 31
0.0
  0
LINE
  5
109C
  8
0
 10
188.9999999999976978
 20
51.0
 30
0.0
 11
182.4999999999959073
 21
51.0
 31
0.0
  0
LINE
  5
109D
  8
0
 10
184.9999999999976978
 20
70.0
 30
0.0
 11
196.5999999999980901
 21
70.0
 31
0.0
  0
LINE
  5
109E
  8
0
 10
184.9999999999976978
 20
95.0
 30
0.0
 11
184.9999999999976978
 21
70.0
 31
0.0
  0
LINE
  5
109F
  8
0
 10
184.9999999999976978
 20
95.0
 30
0.0
 11
214.9999999999976978
 21
95.0
 31
0.0
  0
LINE
  5
10A0
  8
0
 10
214.9999999999976978
 20
70.0
 30
0.0
 11
214.9999999999976978
 21
95.0
 31
0.0
  0
LINE
  5
10A1
  8
1
 10
199.9999999999976978
 20
100.0
 30
0.0
 11
199.9999999999976978
 21
32.0000000000001208
 31
0.0
  0
LINE
  5
10A2
  8
3
 10
203.3999999999973909
 20
72.0
 30
0.0
 11
203.3999999999973909
 21
65.0
 31
0.0
  0
LINE
  5
10A3
  8
3
 10
196.5999999999980901
 20
72.0
 30
0.0
 11
196.5999999999980901
 21
65.0
 31
0.0
  0
LINE
  5
10A4
  8
2
 10
192.9999999999976978
 20
86.0
 30
0.0
 11
206.9999999999976978
 21
86.0
 31
0.0
  0
LINE
  5
10A5
  8
2
 10
192.9999999999976978
 20
95.0
 30
0.0
 11
192.9999999999976978
 21
86.0
 31
0.0
  0
LINE
  5
10A6
  8
2
 10
206.9999999999976978
 20
86.0
 30
0.0
 11
206.9999999999976978
 21
95.0
 31
0.0
  0
LINE
  5
10A7
  8
2
 10
193.4999999999976978
 20
93.4999999999991331
 30
0.0
 11
193.4999999999976978
 21
86.0
 31
0.0
  0
LINE
  5
10A8
  8
2
 10
206.4999999999976978
 20
86.0
 30
0.0
 11
206.4999999999976978
 21
93.4999999999991331
 31
0.0
  0
LINE
  5
10A9
  8
2
 10
203.3999999999973909
 20
72.0
 30
0.0
 11
203.3999999999971067
 21
82.24999999999946
 31
0.0
  0
LINE
  5
10AA
  8
2
 10
196.5999999999980901
 20
72.0
 30
0.0
 11
196.5999999999980901
 21
82.2499999999999858
 31
0.0
  0
LINE
  5
10AB
  8
2
 10
195.9999999999959073
 20
72.0
 30
0.0
 11
195.9999999999959073
 21
85.5999999999999091
 31
0.0
  0
LINE
  5
10AC
  8
2
 10
203.9999999999959073
 20
72.0
 30
0.0
 11
203.9999999999959073
 21
85.5999999999999091
 31
0.0
  0
LINE
  5
10AD
  8
2
 10
203.3999999999973909
 20
82.2499999999999858
 30
0.0
 11
203.9999999999959073
 21
83.4499999999998181
 31
0.0
  0
LINE
  5
10AE
  8
2
 10
195.9999999999959073
 20
82.2499999999999858
 30
0.0
 11
203.9999999999959073
 21
82.2499999999999858
 31
0.0
  0
LINE
  5
10AF
  8
2
 10
196.5999999999980901
 20
82.2499999999999858
 30
0.0
 11
195.9999999999959073
 21
83.4499999999998181
 31
0.0
  0
LINE
  5
10B0
  8
2
 10
193.4999999999976978
 20
93.4999999999991331
 30
0.0
 11
206.4999999999976978
 21
93.4999999999991331
 31
0.0
  0
LINE
  5
10B1
  8
2
 10
205.6339745962118002
 20
94.0
 30
0.0
 11
194.3660254037835955
 21
94.0
 31
0.0
  0
LINE
  5
10B2
  8
2
 10
194.3660254037835955
 20
94.0
 30
0.0
 11
193.4999999999976978
 21
93.4999999999991331
 31
0.0
  0
LINE
  5
10B3
  8
2
 10
205.6339745962118002
 20
94.0
 30
0.0
 11
206.4999999999976978
 21
93.4999999999991331
 31
0.0
  0
LINE
  5
10B4
  8
2
 10
204.4999999999976978
 20
86.0000000000000284
 30
0.0
 11
204.4999999999976978
 21
72.0000000000000142
 31
0.0
  0
LINE
  5
10B5
  8
2
 10
195.4999999999976978
 20
86.0000000000000284
 30
0.0
 11
195.4999999999976978
 21
72.0000000000000142
 31
0.0
  0
ARC
  5
10B6
  8
2
 10
195.5999999999976069
 20
85.5999999999999091
 30
0.0
 40
0.4
 50
0.0
 51
90.0
  0
ARC
  5
10B7
  8
2
 10
204.3999999999977888
 20
85.5999999999999091
 30
0.0
 40
0.4
 50
90.0
 51
180.0
  0
LINE
  5
10B8
  8
2
 10
197.1999999999966064
 20
46.0
 30
0.0
 11
202.7999999999952081
 21
46.0
 31
0.0
  0
LINE
  5
10B9
  8
2
 10
195.9999999999976978
 20
65.0
 30
0.0
 11
195.9999999999976978
 21
47.2000000000003794
 31
0.0
  0
LINE
  5
10BA
  8
2
 10
203.9999999999959073
 20
47.1999999999985533
 30
0.0
 11
203.9999999999959073
 21
65.0
 31
0.0
  0
LINE
  5
10BB
  8
2
 10
196.5999999999980901
 20
65.0
 30
0.0
 11
196.5999999999980901
 21
46.6000000000010388
 31
0.0
  0
LINE
  5
10BC
  8
2
 10
203.3999999999973909
 20
65.0
 30
0.0
 11
203.3999999999973909
 21
46.6000000000004775
 31
0.0
  0
LINE
  5
10BD
  8
2
 10
203.9999999999976978
 20
47.2000000000003794
 30
0.0
 11
202.7999999999969987
 21
46.0000000000005684
 31
0.0
  0
LINE
  5
10BE
  8
2
 10
195.9999999999976978
 20
47.2000000000003794
 30
0.0
 11
203.9999999999976978
 21
47.2000000000003794
 31
0.0
  0
LINE
  5
10BF
  8
2
 10
195.9999999999976978
 20
47.2000000000003794
 30
0.0
 11
197.1999999999966064
 21
46.0000000000005684
 31
0.0
  0
LINE
  5
10C0
  8
0
 10
214.9999999999976978
 20
72.0
 30
0.0
 11
184.9999999999976978
 21
72.0
 31
0.0
  0
LINE
  5
10C1
  8
0
 10
214.9999999999976978
 20
86.0
 30
0.0
 11
184.9999999999976978
 21
86.0
 31
0.0
  0
LINE
  5
10C2
  8
0
 10
203.3999999999973909
 20
70.0
 30
0.0
 11
214.9999999999976978
 21
70.0
 31
0.0
  0
LINE
  5
10C3
  8
0
 10
214.9999999999976978
 20
92.0
 30
0.0
 11
184.9999999999976978
 21
92.0
 31
0.0
  0
LINE
  5
10C5
  8
0
 10
333.9999999999977263
 20
72.0
 30
0.0
 11
333.9999999999977263
 21
65.0
 31
0.0
  0
LINE
  5
10C6
  8
0
 10
341.9999999999977263
 20
65.0
 30
0.0
 11
341.9999999999977263
 21
72.0
 31
0.0
  0
LINE
  5
10C7
  8
0
 10
348.9999999999977263
 20
65.0
 30
0.0
 11
326.9999999999977263
 21
65.0
 31
0.0
  0
LINE
  5
10C8
  8
0
 10
348.9999999999977263
 20
51.0
 30
0.0
 11
348.9999999999977263
 21
65.0
 31
0.0
  0
LINE
  5
10C9
  8
0
 10
348.9999999999977263
 20
51.0
 30
0.0
 11
355.4999999999959073
 21
51.0
 31
0.0
  0
LINE
  5
10CA
  8
0
 10
355.4999999999959073
 20
51.0
 30
0.0
 11
355.4999999999959073
 21
40.0
 31
0.0
  0
LINE
  5
10CB
  8
0
 10
352.4999999999959073
 20
37.0
 30
0.0
 11
355.4999999999959073
 21
40.0
 31
0.0
  0
LINE
  5
10CC
  8
0
 10
352.4999999999959073
 20
37.0
 30
0.0
 11
323.4999999999959073
 21
37.0
 31
0.0
  0
LINE
  5
10CD
  8
0
 10
320.4999999999959073
 20
40.0
 30
0.0
 11
323.4999999999959073
 21
37.0
 31
0.0
  0
LINE
  5
10CE
  8
0
 10
326.9999999999977263
 20
51.0
 30
0.0
 11
326.9999999999977263
 21
65.0
 31
0.0
  0
LINE
  5
10CF
  8
0
 10
320.4999999999959073
 20
51.0
 30
0.0
 11
320.4999999999959073
 21
40.0
 31
0.0
  0
LINE
  5
10D0
  8
0
 10
326.9999999999977263
 20
51.0
 30
0.0
 11
320.4999999999959073
 21
51.0
 31
0.0
  0
LINE
  5
10D1
  8
0
 10
322.9999999999977263
 20
70.0
 30
0.0
 11
334.5999999999980901
 21
70.0
 31
0.0
  0
LINE
  5
10D2
  8
0
 10
341.3999999999973056
 20
70.0
 30
0.0
 11
352.9999999999977263
 21
70.0
 31
0.0
  0
LINE
  5
10D3
  8
0
 10
322.9999999999977263
 20
95.0
 30
0.0
 11
322.9999999999977263
 21
70.0
 31
0.0
  0
LINE
  5
10D4
  8
0
 10
322.9999999999977263
 20
95.0
 30
0.0
 11
352.9999999999977263
 21
95.0
 31
0.0
  0
LINE
  5
10D5
  8
0
 10
352.9999999999977263
 20
70.0
 30
0.0
 11
352.9999999999977263
 21
95.0
 31
0.0
  0
LINE
  5
10D6
  8
1
 10
337.9999999999977263
 20
100.0
 30
0.0
 11
337.9999999999977263
 21
32.0000000000001208
 31
0.0
  0
LINE
  5
10D7
  8
3
 10
341.3999999999973056
 20
72.0
 30
0.0
 11
341.3999999999973056
 21
65.0
 31
0.0
  0
LINE
  5
10D8
  8
3
 10
334.5999999999980901
 20
72.0
 30
0.0
 11
334.5999999999980901
 21
65.0
 31
0.0
  0
LINE
  5
10D9
  8
2
 10
330.9999999999977263
 20
86.0
 30
0.0
 11
344.9999999999977263
 21
86.0
 31
0.0
  0
LINE
  5
10DA
  8
2
 10
330.9999999999977263
 20
95.0
 30
0.0
 11
330.9999999999977263
 21
86.0
 31
0.0
  0
LINE
  5
10DB
  8
2
 10
344.9999999999977263
 20
86.0
 30
0.0
 11
344.9999999999977263
 21
95.0
 31
0.0
  0
LINE
  5
10DC
  8
2
 10
331.4999999999977263
 20
93.4999999999991331
 30
0.0
 11
331.4999999999977263
 21
86.0
 31
0.0
  0
LINE
  5
10DD
  8
2
 10
344.4999999999977263
 20
86.0
 30
0.0
 11
344.4999999999977263
 21
93.4999999999991331
 31
0.0
  0
LINE
  5
10DE
  8
2
 10
341.3999999999973056
 20
72.0
 30
0.0
 11
341.3999999999973056
 21
82.2500000000000142
 31
0.0
  0
LINE
  5
10DF
  8
2
 10
334.5999999999980901
 20
72.0
 30
0.0
 11
334.5999999999980901
 21
82.2499999999999858
 31
0.0
  0
LINE
  5
10E0
  8
2
 10
333.9999999999959073
 20
72.0
 30
0.0
 11
333.9999999999959073
 21
85.5999999999999091
 31
0.0
  0
LINE
  5
10E1
  8
2
 10
341.9999999999959073
 20
72.0
 30
0.0
 11
341.9999999999959073
 21
85.5999999999999091
 31
0.0
  0
LINE
  5
10E2
  8
2
 10
341.3999999999973056
 20
82.2499999999999858
 30
0.0
 11
341.9999999999959073
 21
83.4499999999998181
 31
0.0
  0
LINE
  5
10E3
  8
2
 10
333.9999999999959073
 20
82.2499999999999858
 30
0.0
 11
341.9999999999959073
 21
82.2499999999999858
 31
0.0
  0
LINE
  5
10E4
  8
2
 10
334.5999999999980901
 20
82.2499999999999858
 30
0.0
 11
333.9999999999959073
 21
83.4499999999998181
 31
0.0
  0
LINE
  5
10E5
  8
2
 10
331.4999999999977263
 20
93.4999999999991331
 30
0.0
 11
344.4999999999977263
 21
93.4999999999991331
 31
0.0
  0
LINE
  5
10E6
  8
2
 10
343.6339745962117718
 20
94.0
 30
0.0
 11
332.3660254037836239
 21
94.0
 31
0.0
  0
LINE
  5
10E7
  8
2
 10
332.3660254037836239
 20
94.0
 30
0.0
 11
331.4999999999977263
 21
93.4999999999991331
 31
0.0
  0
LINE
  5
10E8
  8
2
 10
343.6339745962117718
 20
94.0
 30
0.0
 11
344.4999999999977263
 21
93.4999999999991331
 31
0.0
  0
LINE
  5
10E9
  8
2
 10
342.4999999999977263
 20
86.0000000000000284
 30
0.0
 11
342.4999999999977263
 21
72.0000000000000142
 31
0.0
  0
LINE
  5
10EA
  8
2
 10
333.4999999999977263
 20
86.0000000000000284
 30
0.0
 11
333.4999999999977263
 21
72.0000000000000142
 31
0.0
  0
ARC
  5
10EB
  8
2
 10
333.5999999999975785
 20
85.5999999999999091
 30
0.0
 40
0.4
 50
0.0
 51
90.0
  0
ARC
  5
10EC
  8
2
 10
342.3999999999978172
 20
85.5999999999999091
 30
0.0
 40
0.4
 50
90.0
 51
180.0
  0
LINE
  5
10ED
  8
2
 10
335.1999999999966917
 20
46.0
 30
0.0
 11
340.7999999999951797
 21
46.0
 31
0.0
  0
LINE
  5
10EE
  8
2
 10
333.9999999999977263
 20
65.0
 30
0.0
 11
333.9999999999977263
 21
47.2000000000003794
 31
0.0
  0
LINE
  5
10EF
  8
2
 10
341.9999999999959073
 20
47.1999999999985533
 30
0.0
 11
341.9999999999959073
 21
65.0
 31
0.0
  0
LINE
  5
10F0
  8
2
 10
334.5999999999980901
 20
65.0
 30
0.0
 11
334.5999999999980901
 21
46.6000000000010388
 31
0.0
  0
LINE
  5
10F1
  8
2
 10
341.3999999999973056
 20
65.0
 30
0.0
 11
341.3999999999973056
 21
46.6000000000004775
 31
0.0
  0
LINE
  5
10F2
  8
2
 10
341.9999999999977263
 20
47.2000000000003794
 30
0.0
 11
340.7999999999969987
 21
46.0000000000005684
 31
0.0
  0
LINE
  5
10F3
  8
2
 10
333.9999999999977263
 20
47.2000000000003794
 30
0.0
 11
341.9999999999977263
 21
47.2000000000003794
 31
0.0
  0
LINE
  5
10F4
  8
2
 10
333.9999999999977263
 20
47.2000000000003794
 30
0.0
 11
335.1999999999966917
 21
46.0000000000005684
 31
0.0
  0
LINE
  5
10F5
  8
0
 10
352.9999999999977263
 20
72.0
 30
0.0
 11
322.9999999999977263
 21
72.0
 31
0.0
  0
LINE
  5
10F6
  8
0
 10
352.9999999999977263
 20
86.0
 30
0.0
 11
322.9999999999977263
 21
86.0
 31
0.0
  0
LINE
  5
10F7
  8
0
 10
352.9999999999977263
 20
92.0
 30
0.0
 11
322.9999999999977263
 21
92.0
 31
0.0
  0
VIEWPORT
  5
1002
 67
     1
  8
0
 10
5.2499996395561652
 20
3.9999998836066779
 30
0.0
 40
22.1309211850561205
 41
8.9929997457669497
 68
     1
 69
     1
1001
ACAD
1000
MVIEW
1002
{
1070
    16
1010
0.0
1020
0.0
1030
0.0
1010
0.0
1020
0.0
1030
1.0
1040
0.0
1040
8.9929997457669497
1040
5.2499996395561652
1040
3.9999998836066779
1040
50.0
1040
0.0
1040
0.0
1070
     0
1070
   500
1070
     1
1070
     1
1070
     0
1070
     0
1070
     0
1070
     0
1040
0.0
1040
0.0
1040
0.0
1040
10.0
1040
10.0
1040
10.0
1040
10.0
1070
     0
1002
{
1002
}
1002
}
  0
VIEWPORT
  5
1007
 67
     1
  8
0
 10
5.2499997615814209
 20
3.9999997615814209
 30
0.0
 40
8.3999996185302752
 41
6.3999996185302743
 68
     2
 69
     2
1001
ACAD
1000
MVIEW
1002
{
1070
    16
1010
0.0
1020
0.0
1030
0.0
1010
0.0
1020
0.0
1030
1.0
1040
0.0
1040
451.8234669706565114
1040
266.6912928749165985
1040
-34.5499944513901482
1040
50.0
1040
0.0
1040
0.0
1070
     0
1070
   500
1070
     1
1070
     0
1070
     0
1070
     0
1070
     0
1070
     2
1040
0.0
1040
0.0
1040
0.0
1040
5.0
1040
5.0
1040
5.0
1040
5.0
1070
     0
1002
{
1002
}
1002
}
  0
ENDSEC
  0
EOF
