  0
SECTION
  2
HEADER
  9
$ACADVER
  1
AC1009
  9
$INSBASE
 10
0.0
 20
0.0
 30
0.0
  9
$EXTMIN
 10
0.0
 20
-2.960436562073669
 30
0.0
  9
$EXTMAX
 10
540.4999999999977263
 20
170.0000000000015916
 30
0.0
  9
$LIMMIN
 10
0.0
 20
0.0
  9
$LIMMAX
 10
187.5
 20
135.0
  9
$ORTHOMODE
 70
     1
  9
$REGENMODE
 70
     1
  9
$FILLMODE
 70
     1
  9
$QTEXTMODE
 70
     0
  9
$MIRRTEXT
 70
     0
  9
$DRAGMODE
 70
     2
  9
$LTSCALE
 40
10.0
  9
$OSMODE
 70
    37
  9
$ATTMODE
 70
     1
  9
$TEXTSIZE
 40
0.2
  9
$TRACEWID
 40
0.05
  9
$TEXTSTYLE
  7
STANDARD
  9
$CLAYER
  8
0
  9
$CELTYPE
  6
BYLAYER
  9
$CECOLOR
 62
   256
  9
$DIMSCALE
 40
1.0
  9
$DIMASZ
 40
3.0
  9
$DIMEXO
 40
2.0
  9
$DIMDLI
 40
0.38
  9
$DIMRND
 40
0.0
  9
$DIMDLE
 40
0.0
  9
$DIMEXE
 40
2.0
  9
$DIMTP
 40
0.0
  9
$DIMTM
 40
0.0
  9
$DIMTXT
 40
3.2000000000000002
  9
$DIMCEN
 40
0.0
  9
$DIMTSZ
 40
0.0
  9
$DIMTOL
 70
     0
  9
$DIMLIM
 70
     0
  9
$DIMTIH
 70
     0
  9
$DIMTOH
 70
     0
  9
$DIMSE1
 70
     0
  9
$DIMSE2
 70
     0
  9
$DIMTAD
 70
     1
  9
$DIMZIN
 70
     0
  9
$DIMBLK
  1

  9
$DIMASO
 70
     0
  9
$DIMSHO
 70
     0
  9
$DIMPOST
  1

  9
$DIMAPOST
  1

  9
$DIMALT
 70
     0
  9
$DIMALTD
 70
     2
  9
$DIMALTF
 40
25.3999999999999986
  9
$DIMLFAC
 40
1.0
  9
$DIMTOFL
 70
     1
  9
$DIMTVP
 40
1.6000000000000001
  9
$DIMTIX
 70
     1
  9
$DIMSOXD
 70
     0
  9
$DIMSAH
 70
     0
  9
$DIMBLK1
  1

  9
$DIMBLK2
  1

  9
$DIMSTYLE
  2
STANDARD
  9
$DIMCLRD
 70
     0
  9
$DIMCLRE
 70
     0
  9
$DIMCLRT
 70
     0
  9
$DIMTFAC
 40
1.0
  9
$DIMGAP
 40
0.09
  9
$LUNITS
 70
     2
  9
$LUPREC
 70
     1
  9
$SKETCHINC
 40
0.1
  9
$FILLETRAD
 40
0.0
  9
$AUNITS
 70
     0
  9
$AUPREC
 70
     1
  9
$MENU
  1
E:\r13\win\SUPPORT\ACAD
  9
$ELEVATION
 40
0.0
  9
$PELEVATION
 40
0.0
  9
$THICKNESS
 40
0.0
  9
$LIMCHECK
 70
     0
  9
$BLIPMODE
 70
     0
  9
$CHAMFERA
 40
0.0
  9
$CHAMFERB
 40
0.0
  9
$SKPOLY
 70
     0
  9
$TDCREATE
 40
2449839.773298610933125
  9
$TDUPDATE
 40
2460692.4009259259328246
  9
$TDINDWG
 40
0.1937400579
  9
$TDUSRTIMER
 40
0.1937400579
  9
$USRTIMER
 70
     1
  9
$ANGBASE
 50
0.0
  9
$ANGDIR
 70
     0
  9
$PDMODE
 70
     0
  9
$PDSIZE
 40
0.0
  9
$PLINEWID
 40
0.0
  9
$COORDS
 70
     1
  9
$SPLFRAME
 70
     0
  9
$SPLINETYPE
 70
     6
  9
$SPLINESEGS
 70
     8
  9
$ATTDIA
 70
     1
  9
$ATTREQ
 70
     1
  9
$HANDLING
 70
     1
  9
$HANDSEED
  5
15AF
  9
$SURFTAB1
 70
     6
  9
$SURFTAB2
 70
     6
  9
$SURFTYPE
 70
     6
  9
$SURFU
 70
     6
  9
$SURFV
 70
     6
  9
$UCSNAME
  2

  9
$UCSORG
 10
0.0
 20
0.0
 30
0.0
  9
$UCSXDIR
 10
1.0
 20
0.0
 30
0.0
  9
$UCSYDIR
 10
0.0
 20
1.0
 30
0.0
  9
$PUCSNAME
  2

  9
$PUCSORG
 10
0.0
 20
0.0
 30
0.0
  9
$PUCSXDIR
 10
1.0
 20
0.0
 30
0.0
  9
$PUCSYDIR
 10
0.0
 20
1.0
 30
0.0
  9
$USERI1
 70
     0
  9
$USERI2
 70
     1
  9
$USERI3
 70
     0
  9
$USERI4
 70
     0
  9
$USERI5
 70
     0
  9
$USERR1
 40
0.0
  9
$USERR2
 40
0.0
  9
$USERR3
 40
0.0
  9
$USERR4
 40
0.0
  9
$USERR5
 40
0.0
  9
$WORLDVIEW
 70
     1
  9
$SHADEDGE
 70
     3
  9
$SHADEDIF
 70
    70
  9
$TILEMODE
 70
     1
  9
$MAXACTVP
 70
    16
  9
$PLIMCHECK
 70
     0
  9
$PEXTMIN
 10
1.0000000000000000E+20
 20
1.0000000000000000E+20
 30
1.0000000000000000E+20
  9
$PEXTMAX
 10
-1.0000000000000000E+20
 20
-1.0000000000000000E+20
 30
-1.0000000000000000E+20
  9
$PLIMMIN
 10
0.0
 20
0.0
  9
$PLIMMAX
 10
12.0
 20
9.0
  9
$UNITMODE
 70
     0
  9
$VISRETAIN
 70
     0
  9
$PLINEGEN
 70
     0
  9
$PSLTSCALE
 70
     0
  0
ENDSEC
  0
SECTION
  2
TABLES
  0
TABLE
  2
VPORT
 70
     1
  0
VPORT
  2
*ACTIVE
 70
     0
 10
0.0
 20
0.0
 11
1.0
 21
1.0
 12
308.2474226804123987
 22
131.2516555933376026
 13
0.0
 23
0.0
 14
5.0
 24
5.0
 15
5.0
 25
5.0
 16
0.0
 26
0.0
 36
1.0
 17
0.0
 27
0.0
 37
0.0
 40
262.5033111866752051
 41
2.3485221674876842
 42
50.0
 43
0.0
 44
0.0
 50
0.0
 51
0.0
 71
     0
 72
   500
 73
     1
 74
     0
 75
     0
 76
     0
 77
     0
 78
     2
  0
ENDTAB
  0
TABLE
  2
LTYPE
 70
     3
  0
LTYPE
  2
CONTINUOUS
 70
     0
  3
Solid Line
 72
    65
 73
     0
 40
0.0
  0
LTYPE
  2
CENTER
 70
     0
  3
____ _ ____ _ ____ _ ____ _ ____ _ ____ _ ____
 72
    65
 73
     4
 40
2.0
 49
1.25
 49
-0.25
 49
0.25
 49
-0.25
  0
LTYPE
  2
HIDDEN
 70
     0
  3
_ _ _ _ _ _ _ _ _ _ _ _ _ _ _ _ _ _ _ _ _ _ _
 72
    65
 73
     2
 40
0.375
 49
0.25
 49
-0.125
  0
ENDTAB
  0
TABLE
  2
LAYER
 70
     4
  0
LAYER
  2
0
 70
     0
 62
     7
  6
CONTINUOUS
  0
LAYER
  2
1
 70
     0
 62
     1
  6
CENTER
  0
LAYER
  2
3
 70
     0
 62
     3
  6
CONTINUOUS
  0
LAYER
  2
2
 70
     0
 62
     2
  6
HIDDEN
  0
ENDTAB
  0
TABLE
  2
STYLE
 70
     2
  0
STYLE
  2
STANDARD
 70
     0
 40
0.0
 41
1.0
 50
0.0
 71
     0
 42
0.2
  3
TXT
  4
BIGFONT
  0
STYLE
  2
STANDARD1
 70
     0
 40
0.0
 41
1.0
 50
0.0
 71
     0
 42
3.0
  3
txt
  4

  0
ENDTAB
  0
TABLE
  2
VIEW
 70
     1
  0
VIEW
  2
ALL
 70
     0
 40
270.0
 10
220.9915966386554942
 20
135.0
 41
0.0
 11
0.0
 21
0.0
 31
1.0
 12
0.0
 22
0.0
 32
0.0
 42
0.0
 43
0.0
 44
0.0
 50
0.0
 71
     0
  0
ENDTAB
  0
TABLE
  2
UCS
 70
     0
  0
ENDTAB
  0
TABLE
  2
APPID
 70
     6
  0
APPID
  2
ACAD
 70
     0
  0
APPID
  2
ACAD_DSTYLE_DIMJAG
 70
     0
  0
APPID
  2
ACAD_DSTYLE_DIMTALN
 70
     0
  0
APPID
  2
ACAD_EXEMPT_FROM_CAD_STANDARDS
 70
     0
  0
APPID
  2
ACAD_MLEADERVER
 70
     0
  0
APPID
  2
ACAD_NAV_VCDISPLAY
 70
     0
  0
ENDTAB
  0
TABLE
  2
DIMSTYLE
 70
     1
  0
DIMSTYLE
  2
STANDARD
 70
     0
  3

  4

  5

  6

  7

 40
1.0
 41
0.18
 42
0.0625
 43
0.38
 44
0.18
 45
0.0
 46
0.0
 47
0.0
 48
0.0
140
0.18
141
0.09
142
0.0
143
25.3999999999999986
144
1.0
145
0.0
146
1.0
147
0.09
 71
     0
 72
     0
 73
     1
 74
     1
 75
     0
 76
     0
 77
     0
 78
     0
170
     0
171
     2
172
     0
173
     0
174
     0
175
     0
176
     0
177
     0
178
     0
  0
ENDTAB
  0
ENDSEC
  0
SECTION
  2
BLOCKS
  0
BLOCK
  8
0
  2
$MODEL_SPACE
 70
     0
 10
0.0
 20
0.0
 30
0.0
  3
$MODEL_SPACE
  1

  0
ENDBLK
  5
1D4
  8
0
  0
BLOCK
 67
     1
  8
0
  2
$PAPER_SPACE
 70
     0
 10
0.0
 20
0.0
 30
0.0
  3
$PAPER_SPACE
  1

  0
ENDBLK
  5
1D2
 67
     1
  8
0
  0
ENDSEC
  0
SECTION
  2
ENTITIES
  0
TEXT
  5
678
  8
0
 62
     3
 10
0.0
 20
0.0
 30
0.0
 40
10.0
  1
MVAC150CS20
  7
STANDARD1
  0
LINE
  5
11D3
  8
0
 10
470.4999999999976126
 20
135.0000000000015916
 30
0.0
 11
470.4999999999976126
 21
170.0000000000015916
 31
0.0
  0
LINE
  5
11D4
  8
0
 10
410.4999999999959073
 20
135.0000000000011084
 30
0.0
 11
470.4999999999976126
 21
135.0000000000015916
 31
0.0
  0
LINE
  5
11D5
  8
0
 10
413.4999999999957936
 20
170.0000000000011084
 30
0.0
 11
413.4999999999957936
 21
135.0000000000011084
 31
0.0
  0
LINE
  5
11D6
  8
0
 10
470.4999999999976126
 20
170.0000000000015916
 30
0.0
 11
410.4999999999959073
 21
170.0000000000011084
 31
0.0
  0
CIRCLE
  5
11D7
  8
0
 10
435.4999999999959073
 20
152.5000000000011084
 30
0.0
 40
10.0
  0
LINE
  5
11D8
  8
0
 10
410.4999999999959073
 20
135.0000000000011084
 30
0.0
 11
410.4999999999959073
 21
170.0000000000011084
 31
0.0
  0
LINE
  5
11D9
  8
0
 10
435.4999999999953957
 20
158.2735026918992105
 30
0.0
 11
430.4999999999953957
 21
155.3867513459493068
 31
0.0
  0
LINE
  5
11DA
  8
0
 10
430.4999999999953957
 20
155.3867513459493068
 30
0.0
 11
430.4999999999953957
 21
149.6132486540547859
 31
0.0
  0
LINE
  5
11DB
  8
0
 10
430.4999999999953957
 20
149.6132486540547859
 30
0.0
 11
435.4999999999959073
 21
146.726497308104797
 31
0.0
  0
LINE
  5
11DC
  8
0
 10
435.4999999999959073
 20
146.726497308104797
 30
0.0
 11
440.4999999999953957
 21
149.6132486540547859
 31
0.0
  0
LINE
  5
11DD
  8
0
 10
440.4999999999953957
 20
149.6132486540547859
 30
0.0
 11
440.4999999999953957
 21
155.3867513459510974
 31
0.0
  0
LINE
  5
11DE
  8
0
 10
440.4999999999953957
 20
155.3867513459510974
 30
0.0
 11
435.4999999999953957
 21
158.2735026918992105
 31
0.0
  0
CIRCLE
  5
11DF
  8
0
 10
435.4999999999959073
 20
152.5000000000011084
 30
0.0
 40
8.9999999999997726
  0
LINE
  5
11E0
  8
0
 10
102.5000000000018048
 20
169.9999999999996874
 30
0.0
 11
102.5000000000018048
 21
134.9999999999996874
 31
0.0
  0
LINE
  5
11E1
  8
0
 10
162.5000000000027001
 20
170.000000000000199
 30
0.0
 11
102.5000000000018048
 21
169.9999999999996874
 31
0.0
  0
LINE
  5
11E2
  8
0
 10
159.5000000000027001
 20
135.000000000000199
 30
0.0
 11
159.5000000000027001
 21
170.000000000000199
 31
0.0
  0
CIRCLE
  5
11E3
  8
0
 10
137.5000000000017906
 20
152.500000000000199
 30
0.0
 40
10.0
  0
LINE
  5
11E4
  8
0
 10
102.5000000000018048
 20
134.9999999999996874
 30
0.0
 11
162.5000000000027001
 21
135.000000000000199
 31
0.0
  0
LINE
  5
11E5
  8
0
 10
162.5000000000027001
 20
170.000000000000199
 30
0.0
 11
162.5000000000027001
 21
135.000000000000199
 31
0.0
  0
CIRCLE
  5
11E6
  8
0
 10
137.5000000000017906
 20
152.500000000000199
 30
0.0
 40
8.9999999999997726
  0
LINE
  5
11E7
  8
0
 10
137.5000000000017053
 20
146.7264973081038875
 30
0.0
 11
142.5000000000017053
 21
149.6132486540529101
 31
0.0
  0
LINE
  5
11E8
  8
0
 10
142.5000000000017053
 20
149.6132486540529101
 30
0.0
 11
142.5000000000017053
 21
155.3867513459474026
 31
0.0
  0
LINE
  5
11E9
  8
0
 10
142.5000000000017053
 20
155.3867513459474026
 30
0.0
 11
137.5000000000017053
 21
158.2735026918973062
 31
0.0
  0
LINE
  5
11EA
  8
0
 10
137.5000000000017053
 20
158.2735026918973062
 30
0.0
 11
132.5000000000017053
 21
155.3867513459474026
 31
0.0
  0
LINE
  5
11EB
  8
0
 10
132.5000000000017053
 20
155.3867513459474026
 30
0.0
 11
132.5000000000017053
 21
149.6132486540510911
 31
0.0
  0
LINE
  5
11EC
  8
0
 10
132.5000000000017053
 20
149.6132486540510911
 30
0.0
 11
137.5000000000017053
 21
146.7264973081038875
 31
0.0
  0
LINE
  5
11ED
  8
0
 10
429.4999999999959073
 20
71.9999999999997726
 30
0.0
 11
429.4999999999959073
 21
65.9999999999997726
 31
0.0
  0
LINE
  5
11EE
  8
0
 10
441.4999999999976126
 20
65.9999999999997726
 30
0.0
 11
441.4999999999976126
 21
71.9999999999997726
 31
0.0
  0
LINE
  5
11EF
  8
0
 10
131.5000000000017906
 20
71.9999999999997726
 30
0.0
 11
131.5000000000017906
 21
65.9999999999997726
 31
0.0
  0
LINE
  5
11F0
  8
0
 10
143.5000000000027001
 20
65.9999999999997726
 30
0.0
 11
143.5000000000027001
 21
71.9999999999997726
 31
0.0
  0
LINE
  5
11F1
  8
0
 10
422.9999999999977263
 20
44.9999999999997726
 30
0.0
 11
447.9999999999977263
 21
44.9999999999997726
 31
0.0
  0
LINE
  5
11F2
  8
0
 10
447.9999999999977263
 20
41.9999999999997726
 30
0.0
 11
422.9999999999977263
 21
41.9999999999997726
 31
0.0
  0
LINE
  5
11F3
  8
0
 10
447.9999999999977263
 20
53.9999999999997726
 30
0.0
 11
422.9999999999977263
 21
53.9999999999997726
 31
0.0
  0
LINE
  5
11F4
  8
0
 10
447.9999999999977263
 20
65.9999999999997726
 30
0.0
 11
422.9999999999977263
 21
65.9999999999997726
 31
0.0
  0
LINE
  5
11F5
  8
0
 10
447.9999999999977263
 20
41.9999999999997726
 30
0.0
 11
447.9999999999977263
 21
65.9999999999997726
 31
0.0
  0
LINE
  5
11F6
  8
0
 10
422.9999999999977263
 20
41.9999999999997726
 30
0.0
 11
422.9999999999977263
 21
65.9999999999997726
 31
0.0
  0
LINE
  5
11F7
  8
0
 10
125.0000000000027001
 20
44.9999999999997726
 30
0.0
 11
150.0000000000009095
 21
44.9999999999997726
 31
0.0
  0
LINE
  5
11F8
  8
0
 10
150.0000000000009095
 20
41.9999999999997726
 30
0.0
 11
125.0000000000027001
 21
41.9999999999997726
 31
0.0
  0
LINE
  5
11F9
  8
0
 10
125.0000000000027001
 20
53.9999999999997726
 30
0.0
 11
150.0000000000009095
 21
53.9999999999997726
 31
0.0
  0
LINE
  5
11FA
  8
0
 10
125.0000000000027001
 20
65.9999999999997726
 30
0.0
 11
150.0000000000009095
 21
65.9999999999997726
 31
0.0
  0
LINE
  5
11FB
  8
0
 10
150.0000000000009095
 20
41.9999999999997726
 30
0.0
 11
150.0000000000009095
 21
65.9999999999997726
 31
0.0
  0
LINE
  5
11FC
  8
0
 10
125.0000000000027001
 20
41.9999999999997726
 30
0.0
 11
125.0000000000027001
 21
65.9999999999997726
 31
0.0
  0
LINE
  5
11FD
  8
0
 10
470.4999999999976126
 20
69.9999999999997726
 30
0.0
 11
470.4999999999976126
 21
99.9999999999997868
 31
0.0
  0
LINE
  5
11FE
  8
0
 10
465.4999999999977263
 20
69.9999999999997726
 30
0.0
 11
470.4999999999976126
 21
69.9999999999997726
 31
0.0
  0
LINE
  5
11FF
  8
0
 10
465.4999999999977263
 20
71.9999999999997726
 30
0.0
 11
465.4999999999977263
 21
69.9999999999997726
 31
0.0
  0
LINE
  5
1200
  8
0
 10
420.4999999999959073
 20
71.9999999999997726
 30
0.0
 11
465.4999999999977263
 21
71.9999999999997726
 31
0.0
  0
LINE
  5
1201
  8
0
 10
418.4999999999977263
 20
73.9999999999997726
 30
0.0
 11
420.4999999999959073
 21
71.9999999999997726
 31
0.0
  0
LINE
  5
1202
  8
0
 10
418.4999999999977263
 20
89.4999999999997726
 30
0.0
 11
418.4999999999977263
 21
73.9999999999997726
 31
0.0
  0
LINE
  5
1203
  8
0
 10
410.4999999999959073
 20
89.4999999999997726
 30
0.0
 11
418.4999999999977263
 21
89.4999999999997726
 31
0.0
  0
LINE
  5
1204
  8
0
 10
410.4999999999959073
 20
89.4999999999997726
 30
0.0
 11
410.4999999999959073
 21
96.9999999999997726
 31
0.0
  0
LINE
  5
1205
  8
0
 10
413.4999999999957936
 20
99.9999999999997868
 30
0.0
 11
410.4999999999959073
 21
96.9999999999997726
 31
0.0
  0
LINE
  5
1206
  8
0
 10
413.4999999999957936
 20
99.9999999999997868
 30
0.0
 11
470.4999999999976126
 21
99.9999999999997868
 31
0.0
  0
LINE
  5
1207
  8
0
 10
162.5000000000027001
 20
89.4999999999997726
 30
0.0
 11
154.5000000000017906
 21
89.4999999999997726
 31
0.0
  0
LINE
  5
1208
  8
0
 10
154.5000000000017906
 20
89.4999999999997726
 30
0.0
 11
154.5000000000017906
 21
73.9999999999997726
 31
0.0
  0
LINE
  5
1209
  8
0
 10
152.5000000000027001
 20
71.9999999999997726
 30
0.0
 11
154.5000000000017906
 21
73.9999999999997726
 31
0.0
  0
LINE
  5
120A
  8
0
 10
152.5000000000027001
 20
71.9999999999997726
 30
0.0
 11
107.5000000000027001
 21
71.9999999999997726
 31
0.0
  0
LINE
  5
120B
  8
0
 10
107.5000000000027001
 20
71.9999999999997726
 30
0.0
 11
107.5000000000027001
 21
69.9999999999997726
 31
0.0
  0
LINE
  5
120C
  8
0
 10
102.5000000000018048
 20
69.9999999999997726
 30
0.0
 11
107.5000000000027001
 21
69.9999999999997726
 31
0.0
  0
LINE
  5
120D
  8
0
 10
102.5000000000018048
 20
69.9999999999997726
 30
0.0
 11
102.5000000000018048
 21
99.9999999999997868
 31
0.0
  0
LINE
  5
120E
  8
0
 10
102.5000000000018048
 20
99.9999999999997868
 30
0.0
 11
159.5000000000027001
 21
99.9999999999997868
 31
0.0
  0
LINE
  5
120F
  8
0
 10
162.5000000000027001
 20
96.9999999999997726
 30
0.0
 11
159.5000000000027001
 21
99.9999999999997868
 31
0.0
  0
LINE
  5
1210
  8
0
 10
162.5000000000027001
 20
89.4999999999997726
 30
0.0
 11
162.5000000000027001
 21
96.9999999999997726
 31
0.0
  0
LINE
  5
1211
  8
2
 10
435.4999999999959073
 20
86.9999999999997726
 30
0.0
 11
445.4999999999959073
 21
86.9999999999997726
 31
0.0
  0
LINE
  5
1212
  8
2
 10
425.4999999999977263
 20
86.9999999999997726
 30
0.0
 11
435.4999999999959073
 21
86.9999999999997726
 31
0.0
  0
LINE
  5
1214
  8
2
 10
127.5000000000018048
 20
86.9999999999997726
 30
0.0
 11
147.5000000000017906
 21
86.9999999999997726
 31
0.0
  0
LINE
  5
1216
  8
2
 10
429.4999999999959073
 20
65.9999999999997726
 30
0.0
 11
429.4999999999959073
 21
43.4999999999997726
 31
0.0
  0
LINE
  5
1217
  8
2
 10
441.4999999999976126
 20
43.4999999999997726
 30
0.0
 11
441.4999999999976126
 21
65.9999999999997726
 31
0.0
  0
LINE
  5
1218
  8
2
 10
131.5000000000017906
 20
65.9999999999997726
 30
0.0
 11
131.5000000000017906
 21
43.4999999999997726
 31
0.0
  0
LINE
  5
1219
  8
2
 10
143.5000000000027001
 20
43.4999999999997726
 30
0.0
 11
143.5000000000027001
 21
65.9999999999997726
 31
0.0
  0
LINE
  5
121A
  8
2
 10
425.4999999999977263
 20
99.9999999999997868
 30
0.0
 11
425.4999999999977263
 21
86.9999999999997726
 31
0.0
  0
LINE
  5
121B
  8
2
 10
445.4999999999959073
 20
86.9999999999997726
 30
0.0
 11
445.4999999999959073
 21
99.9999999999997868
 31
0.0
  0
LINE
  5
121C
  8
2
 10
444.4999999999977263
 20
86.9999999999997726
 30
0.0
 11
444.4999999999977263
 21
98.2999999999992724
 31
0.0
  0
LINE
  5
121D
  8
2
 10
426.4999999999957936
 20
98.2999999999993435
 30
0.0
 11
426.4999999999957936
 21
86.9999999999997726
 31
0.0
  0
LINE
  5
121E
  8
2
 10
441.9999999999977263
 20
71.9999999999997726
 30
0.0
 11
441.9999999999977263
 21
86.9999999999997726
 31
0.0
  0
LINE
  5
121F
  8
2
 10
428.9999999999976126
 20
86.9999999999997726
 30
0.0
 11
428.9999999999976126
 21
71.9999999999997726
 31
0.0
  0
LINE
  5
1220
  8
2
 10
429.4999999999959073
 20
86.9999999999997726
 30
0.0
 11
429.4999999999959073
 21
71.9999999999997726
 31
0.0
  0
LINE
  5
1223
  8
2
 10
441.4999999999976126
 20
71.9999999999997726
 30
0.0
 11
441.4999999999976126
 21
86.9999999999997726
 31
0.0
  0
LINE
  5
1224
  8
2
 10
127.5000000000018048
 20
99.9999999999997868
 30
0.0
 11
127.5000000000018048
 21
86.9999999999997726
 31
0.0
  0
LINE
  5
1225
  8
2
 10
147.5000000000017906
 20
86.9999999999997726
 30
0.0
 11
147.5000000000017906
 21
99.9999999999997868
 31
0.0
  0
LINE
  5
1226
  8
2
 10
146.5000000000027001
 20
86.9999999999997726
 30
0.0
 11
146.5000000000027001
 21
98.2999999999994856
 31
0.0
  0
LINE
  5
1227
  8
2
 10
128.5000000000017906
 20
98.2999999999995993
 30
0.0
 11
128.5000000000017906
 21
86.9999999999997726
 31
0.0
  0
LINE
  5
1228
  8
2
 10
144.0000000000009095
 20
71.9999999999997726
 30
0.0
 11
144.0000000000009095
 21
86.9999999999997726
 31
0.0
  0
LINE
  5
1229
  8
2
 10
131.0000000000009095
 20
86.9999999999997726
 30
0.0
 11
131.0000000000009095
 21
71.9999999999997726
 31
0.0
  0
LINE
  5
122A
  8
2
 10
131.5000000000017906
 20
86.9999999999997726
 30
0.0
 11
131.5000000000017906
 21
71.9999999999997726
 31
0.0
  0
LINE
  5
122D
  8
2
 10
143.5000000000027001
 20
71.9999999999997726
 30
0.0
 11
143.5000000000027001
 21
86.9999999999997726
 31
0.0
  0
LINE
  5
122E
  8
0
 10
516.9999999999977263
 20
69.9999999999997726
 30
0.0
 11
516.9999999999977263
 21
65.9999999999997726
 31
0.0
  0
LINE
  5
122F
  8
0
 10
528.9999999999976126
 20
65.9999999999993179
 30
0.0
 11
528.9999999999976126
 21
69.9999999999993179
 31
0.0
  0
LINE
  5
1230
  8
0
 10
538.9999999999977263
 20
53.9999999999993108
 30
0.0
 11
538.9999999999977263
 21
44.9999999999993108
 31
0.0
  0
LINE
  5
1231
  8
0
 10
535.9999999999977263
 20
41.9999999999993108
 30
0.0
 11
538.9999999999977263
 21
44.9999999999993108
 31
0.0
  0
LINE
  5
1232
  8
0
 10
535.9999999999977263
 20
41.9999999999993108
 30
0.0
 11
509.9999999999977263
 21
41.9999999999993108
 31
0.0
  0
LINE
  5
1233
  8
0
 10
506.9999999999977263
 20
44.9999999999993108
 30
0.0
 11
509.9999999999977263
 21
41.9999999999993108
 31
0.0
  0
LINE
  5
1234
  8
0
 10
506.9999999999977263
 20
44.9999999999993108
 30
0.0
 11
506.9999999999977263
 21
53.9999999999993108
 31
0.0
  0
LINE
  5
1235
  8
0
 10
512.9999999999977263
 20
53.9999999999993179
 30
0.0
 11
506.9999999999977263
 21
53.9999999999993108
 31
0.0
  0
LINE
  5
1236
  8
0
 10
512.9999999999977263
 20
53.9999999999993108
 30
0.0
 11
512.9999999999977263
 21
65.9999999999997726
 31
0.0
  0
LINE
  5
1237
  8
0
 10
532.9999999999976126
 20
65.9999999999993179
 30
0.0
 11
512.9999999999977263
 21
65.9999999999997726
 31
0.0
  0
LINE
  5
1238
  8
0
 10
532.9999999999976126
 20
53.9999999999993108
 30
0.0
 11
532.9999999999976126
 21
65.9999999999993179
 31
0.0
  0
LINE
  5
1239
  8
0
 10
532.9999999999976126
 20
53.9999999999993179
 30
0.0
 11
538.9999999999977263
 21
53.9999999999993108
 31
0.0
  0
LINE
  5
123A
  8
0
 10
540.4999999999977263
 20
69.9999999999993179
 30
0.0
 11
540.4999999999977263
 21
99.9999999999993179
 31
0.0
  0
LINE
  5
123B
  8
0
 10
505.4999999999977263
 20
69.9999999999997726
 30
0.0
 11
505.4999999999977263
 21
99.9999999999997868
 31
0.0
  0
LINE
  5
123C
  8
0
 10
505.4999999999977263
 20
99.9999999999997868
 30
0.0
 11
540.4999999999977263
 21
99.9999999999993179
 31
0.0
  0
LINE
  5
123D
  8
0
 10
505.4999999999977263
 20
69.9999999999997726
 30
0.0
 11
540.4999999999977263
 21
69.9999999999993179
 31
0.0
  0
LINE
  5
123E
  8
0
 10
44.0000000000009024
 20
69.9999999999993179
 30
0.0
 11
44.0000000000009024
 21
65.9999999999993179
 31
0.0
  0
LINE
  5
123F
  8
0
 10
56.0000000000009095
 20
65.9999999999997726
 30
0.0
 11
56.0000000000009095
 21
69.9999999999997726
 31
0.0
  0
LINE
  5
1240
  8
0
 10
66.000000000001819
 20
53.9999999999993108
 30
0.0
 11
66.000000000001819
 21
44.9999999999993108
 31
0.0
  0
LINE
  5
1241
  8
0
 10
63.0000000000018119
 20
41.9999999999993108
 30
0.0
 11
66.000000000001819
 21
44.9999999999993108
 31
0.0
  0
LINE
  5
1242
  8
0
 10
63.0000000000018119
 20
41.9999999999993108
 30
0.0
 11
37.0000000000009095
 21
41.9999999999993108
 31
0.0
  0
LINE
  5
1243
  8
0
 10
34.0000000000009095
 20
44.9999999999993108
 30
0.0
 11
37.0000000000009095
 21
41.9999999999993108
 31
0.0
  0
LINE
  5
1244
  8
0
 10
34.0000000000009095
 20
44.9999999999993108
 30
0.0
 11
34.0000000000009095
 21
53.9999999999993108
 31
0.0
  0
LINE
  5
1245
  8
0
 10
40.0
 20
53.9999999999993179
 30
0.0
 11
34.0000000000009095
 21
53.9999999999993108
 31
0.0
  0
LINE
  5
1246
  8
0
 10
40.0
 20
53.9999999999993108
 30
0.0
 11
39.9999999999990905
 21
65.9999999999993179
 31
0.0
  0
LINE
  5
1247
  8
0
 10
60.0
 20
65.9999999999997584
 30
0.0
 11
39.9999999999990976
 21
65.9999999999993179
 31
0.0
  0
LINE
  5
1248
  8
0
 10
60.0
 20
53.9999999999993108
 30
0.0
 11
60.0
 21
65.9999999999997726
 31
0.0
  0
LINE
  5
1249
  8
0
 10
60.0
 20
53.9999999999993179
 30
0.0
 11
66.000000000001819
 21
53.9999999999993108
 31
0.0
  0
LINE
  5
124A
  8
0
 10
67.500000000001819
 20
69.9999999999997726
 30
0.0
 11
67.500000000001819
 21
99.9999999999997868
 31
0.0
  0
LINE
  5
124B
  8
0
 10
32.5000000000009095
 20
69.9999999999993179
 30
0.0
 11
32.5000000000009095
 21
99.9999999999993179
 31
0.0
  0
LINE
  5
124C
  8
0
 10
32.5000000000009095
 20
99.9999999999993179
 30
0.0
 11
67.500000000001819
 21
99.9999999999997868
 31
0.0
  0
LINE
  5
124D
  8
0
 10
32.5000000000009095
 20
69.9999999999993179
 30
0.0
 11
67.500000000001819
 21
69.9999999999997726
 31
0.0
  0
LINE
  5
124E
  8
2
 10
132.4000000000023078
 20
81.9999999999997726
 30
0.0
 11
131.5000000000017906
 21
83.799999999999514
 31
0.0
  0
LINE
  5
124F
  8
2
 10
131.5000000000017906
 20
81.9999999999997726
 30
0.0
 11
143.5000000000017906
 21
81.9999999999997726
 31
0.0
  0
LINE
  5
1250
  8
2
 10
131.5000000000017906
 20
43.4999999999997726
 30
0.0
 11
143.5000000000017906
 21
43.4999999999997726
 31
0.0
  0
LINE
  5
1251
  8
2
 10
131.5000000000017906
 20
43.4999999999997726
 30
0.0
 11
133.0000000000017906
 21
41.9999999999997726
 31
0.0
  0
LINE
  5
1252
  8
2
 10
132.4000000000023078
 20
81.9999999999997726
 30
0.0
 11
132.4000000000023078
 21
71.9999999999997726
 31
0.0
  0
LINE
  5
1253
  8
2
 10
142.6000000000013017
 20
81.9999999999997726
 30
0.0
 11
143.5000000000017906
 21
83.799999999999514
 31
0.0
  0
LINE
  5
1254
  8
2
 10
143.5000000000017906
 20
43.4999999999997726
 30
0.0
 11
142.0000000000017906
 21
41.9999999999997726
 31
0.0
  0
LINE
  5
1255
  8
2
 10
142.6000000000013017
 20
81.9999999999997726
 30
0.0
 11
142.6000000000022112
 21
71.9999999999997726
 31
0.0
  0
LINE
  5
1256
  8
2
 10
142.6000000000022112
 20
65.9999999999997726
 30
0.0
 11
142.6000000000013017
 21
42.5999999999992198
 31
0.0
  0
LINE
  5
1257
  8
2
 10
132.4000000000031889
 20
65.9999999999997726
 30
0.0
 11
132.4000000000023078
 21
42.5999999999992198
 31
0.0
  0
LINE
  5
1258
  8
3
 10
142.6000000000022112
 20
71.9999999999997726
 30
0.0
 11
142.6000000000022112
 21
65.9999999999997726
 31
0.0
  0
LINE
  5
1259
  8
3
 10
132.4000000000013983
 20
71.9999999999997726
 30
0.0
 11
132.4000000000023078
 21
65.9999999999997726
 31
0.0
  0
LINE
  5
125A
  8
1
 10
137.5000000000017906
 20
104.999999999999801
 30
0.0
 11
137.5000000000017906
 21
38.4999999999997726
 31
0.0
  0
LINE
  5
125B
  8
2
 10
430.3999999999954866
 20
81.9999999999997726
 30
0.0
 11
429.4999999999959073
 21
83.799999999999514
 31
0.0
  0
LINE
  5
125C
  8
2
 10
429.4999999999959073
 20
81.9999999999997726
 30
0.0
 11
441.4999999999959073
 21
81.9999999999997726
 31
0.0
  0
LINE
  5
125D
  8
2
 10
429.4999999999977263
 20
43.4999999999997726
 30
0.0
 11
441.4999999999976126
 21
43.4999999999997726
 31
0.0
  0
LINE
  5
125E
  8
2
 10
429.4999999999977263
 20
43.4999999999997726
 30
0.0
 11
430.9999999999977263
 21
41.9999999999997726
 31
0.0
  0
LINE
  5
125F
  8
2
 10
430.3999999999954866
 20
81.9999999999997726
 30
0.0
 11
430.3999999999954866
 21
71.9999999999997726
 31
0.0
  0
LINE
  5
1260
  8
2
 10
440.5999999999962142
 20
81.9999999999997726
 30
0.0
 11
441.4999999999959073
 21
83.799999999999514
 31
0.0
  0
LINE
  5
1261
  8
2
 10
441.4999999999976126
 20
43.4999999999997726
 30
0.0
 11
439.9999999999977263
 21
41.9999999999997726
 31
0.0
  0
LINE
  5
1262
  8
2
 10
440.5999999999962142
 20
81.9999999999997726
 30
0.0
 11
440.5999999999962142
 21
71.9999999999997726
 31
0.0
  0
LINE
  5
1263
  8
2
 10
440.5999999999962142
 20
65.9999999999997726
 30
0.0
 11
440.5999999999980901
 21
42.5999999999992198
 31
0.0
  0
LINE
  5
1264
  8
2
 10
430.3999999999954866
 20
65.9999999999997726
 30
0.0
 11
430.3999999999973056
 21
42.5999999999992198
 31
0.0
  0
LINE
  5
1265
  8
3
 10
440.5999999999962142
 20
71.9999999999997726
 30
0.0
 11
440.5999999999962142
 21
65.9999999999997726
 31
0.0
  0
LINE
  5
1266
  8
3
 10
430.3999999999954866
 20
71.9999999999997726
 30
0.0
 11
430.3999999999954866
 21
65.9999999999997726
 31
0.0
  0
LINE
  5
1267
  8
1
 10
435.4999999999959073
 20
104.999999999999801
 30
0.0
 11
435.4999999999959073
 21
38.4999999999997726
 31
0.0
  0
LINE
  5
1268
  8
3
 10
55.0999999999994472
 20
69.9999999999993179
 30
0.0
 11
55.1000000000003709
 21
65.9999999999995453
 31
0.0
  0
LINE
  5
1269
  8
3
 10
44.9000000000014481
 20
69.9999999999993179
 30
0.0
 11
44.9000000000005386
 21
65.9999999999995453
 31
0.0
  0
LINE
  5
126A
  8
1
 10
50.0
 20
104.9999999999995026
 30
0.0
 11
50.0
 21
38.4999999999995524
 31
0.0
  0
LINE
  5
126B
  8
3
 10
528.0999999999961574
 20
69.9999999999993179
 30
0.0
 11
528.0999999999980901
 21
65.9999999999995453
 31
0.0
  0
LINE
  5
126C
  8
3
 10
517.8999999999991815
 20
69.9999999999993179
 30
0.0
 11
517.8999999999991815
 21
65.9999999999995453
 31
0.0
  0
LINE
  5
126D
  8
1
 10
522.9999999999977263
 20
104.9999999999995026
 30
0.0
 11
522.9999999999977263
 21
38.4999999999995524
 31
0.0
  0
LINE
  5
126E
  8
1
 10
137.5000000000017906
 20
165.5000000000003979
 30
0.0
 11
137.5000000000017906
 21
139.5
 31
0.0
  0
LINE
  5
126F
  8
1
 10
97.500000000001819
 20
152.4999999999996874
 30
0.0
 11
167.5000000000009095
 21
152.5000000000003979
 31
0.0
  0
LINE
  5
1270
  8
1
 10
405.4999999999957936
 20
152.5000000000009095
 30
0.0
 11
475.4999999999977263
 21
152.5000000000015916
 31
0.0
  0
LINE
  5
1271
  8
1
 10
435.4999999999959073
 20
165.5000000000011084
 30
0.0
 11
435.4999999999959073
 21
139.5000000000011084
 31
0.0
  0
LINE
  5
145A
  8
2
 10
128.5000000000023022
 20
98.299999999999855
 30
0.0
 11
129.7124355653004102
 21
98.9999999999997868
 31
0.0
  0
LINE
  5
145B
  8
2
 10
146.5000000000021885
 20
98.2999999999997556
 30
0.0
 11
145.2875644347041089
 21
98.9999999999997726
 31
0.0
  0
LINE
  5
145C
  8
2
 10
128.5000000000023022
 20
98.2999999999997982
 30
0.0
 11
146.5000000000021885
 21
98.2999999999997556
 31
0.0
  0
LINE
  5
145D
  8
2
 10
129.7124355653004102
 20
98.9999999999997868
 30
0.0
 11
145.2875644347041089
 21
98.9999999999997726
 31
0.0
  0
LINE
  5
145E
  8
2
 10
426.4999999999968168
 20
98.299999999999855
 30
0.0
 11
427.7124355652949816
 21
98.9999999999997868
 31
0.0
  0
LINE
  5
145F
  8
2
 10
444.4999999999968168
 20
98.2999999999997556
 30
0.0
 11
443.2875644346985951
 21
98.9999999999997726
 31
0.0
  0
LINE
  5
1460
  8
2
 10
426.4999999999968168
 20
98.2999999999997982
 30
0.0
 11
444.4999999999968168
 21
98.2999999999997556
 31
0.0
  0
LINE
  5
1461
  8
2
 10
427.7124355652949816
 20
98.9999999999997868
 30
0.0
 11
443.2875644346985951
 21
98.9999999999997726
 31
0.0
  0
LINE
  5
1472
  8
2
 10
107.5000000000027001
 20
169.999999999999801
 30
0.0
 11
107.5000000000027001
 21
134.999999999999801
 31
0.0
  0
LINE
  5
1473
  8
2
 10
154.5000000000017906
 20
170.0000000000001137
 30
0.0
 11
154.5000000000017906
 21
135.0000000000001137
 31
0.0
  0
LINE
  5
1474
  8
2
 10
418.4999999999977263
 20
170.0000000000011937
 30
0.0
 11
418.4999999999977263
 21
135.0000000000011937
 31
0.0
  0
LINE
  5
1475
  8
2
 10
465.4999999999977263
 20
170.0000000000015064
 30
0.0
 11
465.4999999999977263
 21
135.0000000000015064
 31
0.0
  0
LINE
  5
147A
  8
2
 10
32.5000000000009095
 20
89.4999999999997726
 30
0.0
 11
67.500000000001819
 21
89.4999999999997726
 31
0.0
  0
LINE
  5
147C
  8
2
 10
32.5000000000009095
 20
71.9999999999997726
 30
0.0
 11
67.500000000001819
 21
71.9999999999997726
 31
0.0
  0
LINE
  5
147F
  8
2
 10
505.4999999999977263
 20
89.4999999999997726
 30
0.0
 11
540.4999999999977263
 21
89.4999999999997726
 31
0.0
  0
LINE
  5
1480
  8
2
 10
505.4999999999977263
 20
71.9999999999997726
 30
0.0
 11
540.4999999999977263
 21
71.9999999999997726
 31
0.0
  0
LINE
  5
1490
  8
2
 10
40.0000000000013571
 20
86.9999999999995453
 30
0.0
 11
60.0000000000013571
 21
86.9999999999995453
 31
0.0
  0
LINE
  5
1491
  8
2
 10
40.0000000000013571
 20
99.9999999999995453
 30
0.0
 11
40.0000000000013571
 21
86.9999999999995453
 31
0.0
  0
LINE
  5
1492
  8
2
 10
60.0000000000013571
 20
86.9999999999995453
 30
0.0
 11
60.0000000000013571
 21
99.9999999999995453
 31
0.0
  0
LINE
  5
1493
  8
2
 10
59.0000000000022666
 20
86.9999999999995453
 30
0.0
 11
59.0000000000022666
 21
98.299999999999244
 31
0.0
  0
LINE
  5
1494
  8
2
 10
41.0000000000013571
 20
98.2999999999993719
 30
0.0
 11
41.0000000000013571
 21
86.9999999999995453
 31
0.0
  0
LINE
  5
1495
  8
2
 10
56.5000000000004476
 20
71.9999999999995453
 30
0.0
 11
56.5000000000004476
 21
86.9999999999995453
 31
0.0
  0
LINE
  5
1496
  8
2
 10
43.5000000000004476
 20
86.9999999999995453
 30
0.0
 11
43.5000000000004476
 21
71.9999999999995453
 31
0.0
  0
LINE
  5
1497
  8
2
 10
44.0000000000013571
 20
86.9999999999995453
 30
0.0
 11
44.0000000000013571
 21
69.99999999999946
 31
0.0
  0
LINE
  5
1498
  8
2
 10
56.0000000000022666
 20
69.9999999999996305
 30
0.0
 11
56.0000000000022666
 21
86.9999999999995453
 31
0.0
  0
LINE
  5
1499
  8
2
 10
44.9000000000019099
 20
81.9999999999995453
 30
0.0
 11
44.0000000000013571
 21
83.7999999999992724
 31
0.0
  0
LINE
  5
149A
  8
2
 10
44.0000000000013571
 20
81.9999999999995453
 30
0.0
 11
56.0000000000013571
 21
81.9999999999995453
 31
0.0
  0
LINE
  5
149B
  8
2
 10
44.9000000000019099
 20
81.9999999999995453
 30
0.0
 11
44.9000000000019099
 21
69.9999999999994884
 31
0.0
  0
LINE
  5
149C
  8
2
 10
55.1000000000008185
 20
81.9999999999995453
 30
0.0
 11
56.0000000000013571
 21
83.7999999999992724
 31
0.0
  0
LINE
  5
149D
  8
2
 10
55.1000000000008185
 20
81.9999999999995453
 30
0.0
 11
55.1000000000018986
 21
69.9999999999996163
 31
0.0
  0
LINE
  5
149E
  8
2
 10
41.0000000000018119
 20
98.2999999999996135
 30
0.0
 11
42.2124355652999768
 21
98.9999999999995453
 31
0.0
  0
LINE
  5
149F
  8
2
 10
59.000000000001819
 20
98.2999999999995566
 30
0.0
 11
57.787564434703647
 21
98.9999999999995453
 31
0.0
  0
LINE
  5
14A0
  8
2
 10
41.0000000000018119
 20
98.2999999999995708
 30
0.0
 11
59.000000000001819
 21
98.2999999999995566
 31
0.0
  0
LINE
  5
14A1
  8
2
 10
42.2124355652999768
 20
98.9999999999995453
 30
0.0
 11
57.787564434703647
 21
98.9999999999995453
 31
0.0
  0
LINE
  5
14A2
  8
2
 10
44.0000000000013571
 20
65.9999999999995453
 30
0.0
 11
44.0000000000013571
 21
43.4999999999995381
 31
0.0
  0
LINE
  5
14A3
  8
2
 10
56.0000000000022666
 20
43.4999999999995381
 30
0.0
 11
56.0000000000022666
 21
65.9999999999995453
 31
0.0
  0
LINE
  5
14A4
  8
2
 10
44.0000000000013571
 20
43.4999999999995381
 30
0.0
 11
56.0000000000013571
 21
43.4999999999995381
 31
0.0
  0
LINE
  5
14A5
  8
2
 10
44.0000000000013571
 20
43.4999999999995381
 30
0.0
 11
45.5000000000013571
 21
41.9999999999995381
 31
0.0
  0
LINE
  5
14A6
  8
2
 10
56.0000000000013571
 20
43.4999999999995381
 30
0.0
 11
54.5000000000013571
 21
41.9999999999995381
 31
0.0
  0
LINE
  5
14A7
  8
2
 10
55.1000000000017209
 20
65.9999999999995453
 30
0.0
 11
55.1000000000008185
 21
42.5999999999989996
 31
0.0
  0
LINE
  5
14A8
  8
2
 10
44.9000000000028123
 20
65.9999999999995453
 30
0.0
 11
44.9000000000019099
 21
42.5999999999989996
 31
0.0
  0
LINE
  5
14A9
  8
2
 10
512.9999999999977263
 20
86.9999999999995453
 30
0.0
 11
532.9999999999976126
 21
86.9999999999995453
 31
0.0
  0
LINE
  5
14AA
  8
2
 10
512.9999999999977263
 20
99.9999999999995453
 30
0.0
 11
512.9999999999977263
 21
86.9999999999995453
 31
0.0
  0
LINE
  5
14AB
  8
2
 10
532.9999999999976126
 20
86.9999999999995453
 30
0.0
 11
532.9999999999976126
 21
99.9999999999995453
 31
0.0
  0
LINE
  5
14AC
  8
2
 10
531.9999999999986358
 20
86.9999999999995453
 30
0.0
 11
531.9999999999986358
 21
98.299999999999244
 31
0.0
  0
LINE
  5
14AD
  8
2
 10
513.9999999999977263
 20
98.2999999999993719
 30
0.0
 11
513.9999999999977263
 21
86.9999999999995453
 31
0.0
  0
LINE
  5
14AE
  8
2
 10
529.4999999999967031
 20
71.9999999999995453
 30
0.0
 11
529.4999999999967031
 21
86.9999999999995453
 31
0.0
  0
LINE
  5
14AF
  8
2
 10
516.4999999999968168
 20
86.9999999999995453
 30
0.0
 11
516.4999999999968168
 21
71.9999999999995453
 31
0.0
  0
LINE
  5
14B0
  8
2
 10
516.9999999999977263
 20
86.9999999999995453
 30
0.0
 11
516.9999999999977263
 21
69.99999999999946
 31
0.0
  0
LINE
  5
14B1
  8
2
 10
528.9999999999986358
 20
69.9999999999996305
 30
0.0
 11
528.9999999999986358
 21
86.9999999999995453
 31
0.0
  0
LINE
  5
14B2
  8
2
 10
517.8999999999981583
 20
81.9999999999995453
 30
0.0
 11
516.9999999999977263
 21
83.7999999999992724
 31
0.0
  0
LINE
  5
14B3
  8
2
 10
516.9999999999977263
 20
81.9999999999995453
 30
0.0
 11
528.9999999999976126
 21
81.9999999999995453
 31
0.0
  0
LINE
  5
14B4
  8
2
 10
517.8999999999981583
 20
81.9999999999995453
 30
0.0
 11
517.8999999999981583
 21
69.9999999999994884
 31
0.0
  0
LINE
  5
14B5
  8
2
 10
528.0999999999971806
 20
81.9999999999995453
 30
0.0
 11
528.9999999999976126
 21
83.7999999999992724
 31
0.0
  0
LINE
  5
14B6
  8
2
 10
528.0999999999971806
 20
81.9999999999995453
 30
0.0
 11
528.0999999999983174
 21
69.9999999999996163
 31
0.0
  0
LINE
  5
14B7
  8
2
 10
513.9999999999980673
 20
98.2999999999996135
 30
0.0
 11
515.2124355652963459
 21
98.9999999999995453
 31
0.0
  0
LINE
  5
14B8
  8
2
 10
531.9999999999980673
 20
98.2999999999995566
 30
0.0
 11
530.7875644346999024
 21
98.9999999999995453
 31
0.0
  0
LINE
  5
14B9
  8
2
 10
513.9999999999980673
 20
98.2999999999995708
 30
0.0
 11
531.9999999999980673
 21
98.2999999999995566
 31
0.0
  0
LINE
  5
14BA
  8
2
 10
515.2124355652963459
 20
98.9999999999995453
 30
0.0
 11
530.7875644346999024
 21
98.9999999999995453
 31
0.0
  0
LINE
  5
14BB
  8
2
 10
516.9999999999977263
 20
65.9999999999995453
 30
0.0
 11
516.9999999999977263
 21
43.4999999999995381
 31
0.0
  0
LINE
  5
14BC
  8
2
 10
528.9999999999986358
 20
43.4999999999995381
 30
0.0
 11
528.9999999999986358
 21
65.9999999999995453
 31
0.0
  0
LINE
  5
14BD
  8
2
 10
516.9999999999977263
 20
43.4999999999995381
 30
0.0
 11
528.9999999999976126
 21
43.4999999999995381
 31
0.0
  0
LINE
  5
14BE
  8
2
 10
516.9999999999977263
 20
43.4999999999995381
 30
0.0
 11
518.4999999999977263
 21
41.9999999999995381
 31
0.0
  0
LINE
  5
14BF
  8
2
 10
528.9999999999976126
 20
43.4999999999995381
 30
0.0
 11
527.4999999999977263
 21
41.9999999999995381
 31
0.0
  0
LINE
  5
14C0
  8
2
 10
528.0999999999980901
 20
65.9999999999995453
 30
0.0
 11
528.0999999999971806
 21
42.5999999999989996
 31
0.0
  0
LINE
  5
14C1
  8
2
 10
517.8999999999991815
 20
65.9999999999995453
 30
0.0
 11
517.8999999999981583
 21
42.5999999999989996
 31
0.0
  0
LINE
  5
14C2
  8
0
 10
209.0000000000027001
 20
72.0000000000002274
 30
0.0
 11
209.0000000000027001
 21
65.9999999999997726
 31
0.0
  0
LINE
  5
14C3
  8
0
 10
221.0000000000027001
 20
66.0000000000002132
 30
0.0
 11
221.0000000000027001
 21
72.0000000000002274
 31
0.0
  0
LINE
  5
14C4
  8
0
 10
231.0000000000036096
 20
53.9999999999997726
 30
0.0
 11
231.0000000000036096
 21
44.9999999999997726
 31
0.0
  0
LINE
  5
14C5
  8
0
 10
228.0000000000036096
 20
41.9999999999997726
 30
0.0
 11
231.0000000000036096
 21
44.9999999999997726
 31
0.0
  0
LINE
  5
14C6
  8
0
 10
228.0000000000036096
 20
41.9999999999997726
 30
0.0
 11
202.0000000000027001
 21
41.9999999999997726
 31
0.0
  0
LINE
  5
14C7
  8
0
 10
199.0000000000027001
 20
44.9999999999997726
 30
0.0
 11
202.0000000000027001
 21
41.9999999999997726
 31
0.0
  0
LINE
  5
14C8
  8
0
 10
199.0000000000027001
 20
44.9999999999997726
 30
0.0
 11
199.0000000000027001
 21
53.9999999999997726
 31
0.0
  0
LINE
  5
14C9
  8
0
 10
205.0000000000017906
 20
53.9999999999997726
 30
0.0
 11
199.0000000000027001
 21
53.9999999999997726
 31
0.0
  0
LINE
  5
14CA
  8
0
 10
205.0000000000017906
 20
53.9999999999997726
 30
0.0
 11
205.0000000000009095
 21
65.9999999999997726
 31
0.0
  0
LINE
  5
14CB
  8
0
 10
225.0000000000017906
 20
66.0000000000002132
 30
0.0
 11
205.0000000000009095
 21
65.9999999999997726
 31
0.0
  0
LINE
  5
14CC
  8
0
 10
225.0000000000017906
 20
53.9999999999997726
 30
0.0
 11
225.0000000000017906
 21
66.0000000000002132
 31
0.0
  0
LINE
  5
14CD
  8
0
 10
225.0000000000019043
 20
53.9999999999997726
 30
0.0
 11
231.0000000000036096
 21
53.9999999999997726
 31
0.0
  0
LINE
  5
14CE
  8
0
 10
232.5000000000036948
 20
70.0000000000002274
 30
0.0
 11
232.5000000000036948
 21
100.000000000000199
 31
0.0
  0
LINE
  5
14CF
  8
0
 10
197.5000000000027001
 20
69.9999999999997726
 30
0.0
 11
197.5000000000027001
 21
99.9999999999997868
 31
0.0
  0
LINE
  5
14D0
  8
0
 10
197.5000000000027001
 20
99.9999999999997868
 30
0.0
 11
232.5000000000036948
 21
100.000000000000199
 31
0.0
  0
LINE
  5
14D1
  8
0
 10
197.5000000000027001
 20
69.9999999999997726
 30
0.0
 11
209.0000000000027001
 21
69.9999999999999147
 31
0.0
  0
LINE
  5
14D2
  8
3
 10
220.1000000000007901
 20
72.0000000000002274
 30
0.0
 11
220.1000000000022112
 21
66.0
 31
0.0
  0
LINE
  5
14D3
  8
3
 10
209.9000000000037005
 20
72.0000000000002274
 30
0.0
 11
209.9000000000023931
 21
66.0
 31
0.0
  0
LINE
  5
14D4
  8
1
 10
215.0000000000017906
 20
105.0
 30
0.0
 11
215.0000000000017906
 21
38.5
 31
0.0
  0
LINE
  5
14D5
  8
0
 10
197.5000000000027001
 20
89.5000000000002132
 30
0.0
 11
232.5000000000036948
 21
89.5000000000002132
 31
0.0
  0
LINE
  5
14D6
  8
0
 10
197.5000000000027001
 20
72.0000000000002274
 30
0.0
 11
232.5000000000036948
 21
72.0000000000002274
 31
0.0
  0
LINE
  5
14D7
  8
2
 10
205.0000000000032117
 20
87.0
 30
0.0
 11
225.0000000000032117
 21
87.0
 31
0.0
  0
LINE
  5
14D8
  8
2
 10
205.0000000000032117
 20
100.0
 30
0.0
 11
205.0000000000032117
 21
87.0
 31
0.0
  0
LINE
  5
14D9
  8
2
 10
225.0000000000032117
 20
87.0
 30
0.0
 11
225.0000000000032117
 21
100.0
 31
0.0
  0
LINE
  5
14DA
  8
2
 10
224.0000000000040927
 20
87.0
 30
0.0
 11
224.0000000000040927
 21
98.2999999999996845
 31
0.0
  0
LINE
  5
14DB
  8
2
 10
206.0000000000032117
 20
98.2999999999998408
 30
0.0
 11
206.0000000000032117
 21
87.0
 31
0.0
  0
LINE
  5
14DC
  8
2
 10
221.5000000000023022
 20
72.0
 30
0.0
 11
221.5000000000023022
 21
87.0
 31
0.0
  0
LINE
  5
14DD
  8
2
 10
208.5000000000023022
 20
87.0
 30
0.0
 11
208.5000000000023022
 21
72.0
 31
0.0
  0
LINE
  5
14DE
  8
2
 10
209.0000000000032117
 20
87.0
 30
0.0
 11
209.0000000000032117
 21
72.0000000000002274
 31
0.0
  0
LINE
  5
14DF
  8
2
 10
221.0000000000040927
 20
72.0000000000002274
 30
0.0
 11
221.0000000000040927
 21
87.0
 31
0.0
  0
LINE
  5
14E0
  8
2
 10
209.9000000000037005
 20
82.0
 30
0.0
 11
209.0000000000032117
 21
83.7999999999997129
 31
0.0
  0
LINE
  5
14E1
  8
2
 10
209.0000000000032117
 20
82.0
 30
0.0
 11
221.0000000000032117
 21
82.0
 31
0.0
  0
LINE
  5
14E2
  8
2
 10
209.9000000000037005
 20
82.0
 30
0.0
 11
209.9000000000037005
 21
72.0000000000002274
 31
0.0
  0
LINE
  5
14E3
  8
2
 10
220.1000000000026091
 20
82.0
 30
0.0
 11
221.0000000000032117
 21
83.7999999999997129
 31
0.0
  0
LINE
  5
14E4
  8
2
 10
220.1000000000026091
 20
82.0
 30
0.0
 11
220.1000000000036039
 21
72.0000000000002274
 31
0.0
  0
LINE
  5
14E5
  8
2
 10
206.0000000000036096
 20
98.3000000000000824
 30
0.0
 11
207.2124355653018029
 21
99.0000000000000142
 31
0.0
  0
LINE
  5
14E6
  8
2
 10
224.0000000000036948
 20
98.2999999999999972
 30
0.0
 11
222.7875644347055015
 21
98.9999999999999858
 31
0.0
  0
LINE
  5
14E7
  8
2
 10
206.0000000000036096
 20
98.3000000000000256
 30
0.0
 11
224.0000000000036948
 21
98.2999999999999972
 31
0.0
  0
LINE
  5
14E8
  8
2
 10
207.2124355653018029
 20
99.0000000000000142
 30
0.0
 11
222.7875644347055015
 21
98.9999999999999858
 31
0.0
  0
LINE
  5
14E9
  8
2
 10
209.0000000000032117
 20
66.0
 30
0.0
 11
209.0000000000032117
 21
43.5
 31
0.0
  0
LINE
  5
14EA
  8
2
 10
221.0000000000040927
 20
43.5
 30
0.0
 11
221.0000000000040927
 21
66.0
 31
0.0
  0
LINE
  5
14EB
  8
2
 10
209.0000000000032117
 20
43.5
 30
0.0
 11
221.0000000000032117
 21
43.5
 31
0.0
  0
LINE
  5
14EC
  8
2
 10
209.0000000000032117
 20
43.5
 30
0.0
 11
210.5000000000032117
 21
42.0
 31
0.0
  0
LINE
  5
14ED
  8
2
 10
221.0000000000032117
 20
43.5
 30
0.0
 11
219.5000000000032117
 21
42.0
 31
0.0
  0
LINE
  5
14EE
  8
2
 10
220.1000000000036039
 20
66.0
 30
0.0
 11
220.1000000000026091
 21
42.5999999999994472
 31
0.0
  0
LINE
  5
14EF
  8
2
 10
209.90000000000461
 20
66.0
 30
0.0
 11
209.9000000000037005
 21
42.5999999999994472
 31
0.0
  0
LINE
  5
14F0
  8
0
 10
232.5000000000036948
 20
96.9999999999997726
 30
0.0
 11
197.5000000000027001
 21
96.9999999999997726
 31
0.0
  0
LINE
  5
14F2
  8
0
 10
221.0000000000027001
 20
70.0000000000000853
 30
0.0
 11
232.5000000000036948
 21
70.0000000000002274
 31
0.0
  0
LINE
  5
14F3
  8
0
 10
352.0000000000026716
 20
72.0000000000002274
 30
0.0
 11
352.0000000000026716
 21
65.9999999999997726
 31
0.0
  0
LINE
  5
14F4
  8
0
 10
364.0000000000026716
 20
66.0000000000002132
 30
0.0
 11
364.0000000000026716
 21
72.0000000000002274
 31
0.0
  0
LINE
  5
14F5
  8
0
 10
374.0000000000036948
 20
53.9999999999997726
 30
0.0
 11
374.0000000000036948
 21
44.9999999999997726
 31
0.0
  0
LINE
  5
14F6
  8
0
 10
371.0000000000035811
 20
41.9999999999997726
 30
0.0
 11
374.0000000000036948
 21
44.9999999999997726
 31
0.0
  0
LINE
  5
14F7
  8
0
 10
371.0000000000035811
 20
41.9999999999997726
 30
0.0
 11
345.0000000000026716
 21
41.9999999999997726
 31
0.0
  0
LINE
  5
14F8
  8
0
 10
342.0000000000026716
 20
44.9999999999997726
 30
0.0
 11
345.0000000000026716
 21
41.9999999999997726
 31
0.0
  0
LINE
  5
14F9
  8
0
 10
342.0000000000026716
 20
44.9999999999997726
 30
0.0
 11
342.0000000000026716
 21
53.9999999999997726
 31
0.0
  0
LINE
  5
14FA
  8
0
 10
348.000000000001819
 20
53.9999999999997726
 30
0.0
 11
342.0000000000026716
 21
53.9999999999997726
 31
0.0
  0
LINE
  5
14FB
  8
0
 10
348.000000000001819
 20
53.9999999999997726
 30
0.0
 11
348.0000000000009095
 21
65.9999999999997726
 31
0.0
  0
LINE
  5
14FC
  8
0
 10
368.000000000001819
 20
66.0000000000002132
 30
0.0
 11
348.0000000000009095
 21
65.9999999999997726
 31
0.0
  0
LINE
  5
14FD
  8
0
 10
368.000000000001819
 20
53.9999999999997726
 30
0.0
 11
368.000000000001819
 21
66.0000000000002132
 31
0.0
  0
LINE
  5
14FE
  8
0
 10
368.000000000001819
 20
53.9999999999997726
 30
0.0
 11
374.0000000000036948
 21
53.9999999999997726
 31
0.0
  0
LINE
  5
14FF
  8
0
 10
375.5000000000035811
 20
70.0000000000002274
 30
0.0
 11
375.5000000000035811
 21
100.000000000000199
 31
0.0
  0
LINE
  5
1500
  8
0
 10
340.5000000000026716
 20
69.9999999999997726
 30
0.0
 11
340.5000000000026716
 21
99.9999999999997868
 31
0.0
  0
LINE
  5
1501
  8
0
 10
340.5000000000026716
 20
99.9999999999997868
 30
0.0
 11
375.5000000000035811
 21
100.000000000000199
 31
0.0
  0
LINE
  5
1502
  8
0
 10
340.5000000000026716
 20
69.9999999999997726
 30
0.0
 11
352.0000000000026716
 21
69.9999999999999147
 31
0.0
  0
LINE
  5
1503
  8
0
 10
364.0000000000026716
 20
70.0000000000000853
 30
0.0
 11
375.5000000000035811
 21
70.0000000000002274
 31
0.0
  0
LINE
  5
1504
  8
3
 10
363.1000000000008185
 20
72.0000000000002274
 30
0.0
 11
363.1000000000021828
 21
66.0
 31
0.0
  0
LINE
  5
1505
  8
3
 10
352.9000000000036721
 20
72.0000000000002274
 30
0.0
 11
352.9000000000024215
 21
66.0
 31
0.0
  0
LINE
  5
1506
  8
1
 10
358.000000000001819
 20
105.0
 30
0.0
 11
358.000000000001819
 21
38.5
 31
0.0
  0
LINE
  5
1507
  8
0
 10
340.5000000000026716
 20
89.5000000000002132
 30
0.0
 11
375.5000000000035811
 21
89.5000000000002132
 31
0.0
  0
LINE
  5
1508
  8
0
 10
340.5000000000026716
 20
72.0000000000002274
 30
0.0
 11
375.5000000000035811
 21
72.0000000000002274
 31
0.0
  0
LINE
  5
1509
  8
2
 10
348.0000000000031832
 20
87.0
 30
0.0
 11
368.0000000000031832
 21
87.0
 31
0.0
  0
LINE
  5
150A
  8
2
 10
348.0000000000031832
 20
100.0
 30
0.0
 11
348.0000000000031832
 21
87.0
 31
0.0
  0
LINE
  5
150B
  8
2
 10
368.0000000000031832
 20
87.0
 30
0.0
 11
368.0000000000031832
 21
100.0
 31
0.0
  0
LINE
  5
150C
  8
2
 10
367.0000000000040927
 20
87.0
 30
0.0
 11
367.0000000000040927
 21
98.2999999999996845
 31
0.0
  0
LINE
  5
150D
  8
2
 10
349.0000000000031832
 20
98.2999999999998408
 30
0.0
 11
349.0000000000031832
 21
87.0
 31
0.0
  0
LINE
  5
150E
  8
2
 10
364.5000000000022737
 20
72.0
 30
0.0
 11
364.5000000000022737
 21
87.0
 31
0.0
  0
LINE
  5
150F
  8
2
 10
351.5000000000022737
 20
87.0
 30
0.0
 11
351.5000000000022737
 21
72.0
 31
0.0
  0
LINE
  5
1510
  8
2
 10
352.0000000000031832
 20
87.0
 30
0.0
 11
352.0000000000031832
 21
72.0000000000002274
 31
0.0
  0
LINE
  5
1511
  8
2
 10
364.0000000000040927
 20
72.0000000000002274
 30
0.0
 11
364.0000000000040927
 21
87.0
 31
0.0
  0
LINE
  5
1512
  8
2
 10
352.9000000000036721
 20
82.0
 30
0.0
 11
352.0000000000031832
 21
83.7999999999997129
 31
0.0
  0
LINE
  5
1513
  8
2
 10
352.0000000000031832
 20
82.0
 30
0.0
 11
364.0000000000031832
 21
82.0
 31
0.0
  0
LINE
  5
1514
  8
2
 10
352.9000000000036721
 20
82.0
 30
0.0
 11
352.9000000000036721
 21
72.0000000000002274
 31
0.0
  0
LINE
  5
1515
  8
2
 10
363.1000000000025807
 20
82.0
 30
0.0
 11
364.0000000000031832
 21
83.7999999999997129
 31
0.0
  0
LINE
  5
1516
  8
2
 10
363.1000000000025807
 20
82.0
 30
0.0
 11
363.1000000000036039
 21
72.0000000000002274
 31
0.0
  0
LINE
  5
1517
  8
2
 10
349.0000000000036948
 20
98.3000000000000824
 30
0.0
 11
350.2124355653018029
 21
99.0000000000000142
 31
0.0
  0
LINE
  5
1518
  8
2
 10
367.0000000000035811
 20
98.2999999999999972
 30
0.0
 11
365.7875644347054731
 21
98.9999999999999858
 31
0.0
  0
LINE
  5
1519
  8
2
 10
349.0000000000036948
 20
98.3000000000000256
 30
0.0
 11
367.0000000000035811
 21
98.2999999999999972
 31
0.0
  0
LINE
  5
151A
  8
2
 10
350.2124355653018029
 20
99.0000000000000142
 30
0.0
 11
365.7875644347054731
 21
98.9999999999999858
 31
0.0
  0
LINE
  5
151B
  8
2
 10
352.0000000000031832
 20
66.0
 30
0.0
 11
352.0000000000031832
 21
43.5
 31
0.0
  0
LINE
  5
151C
  8
2
 10
364.0000000000040927
 20
43.5
 30
0.0
 11
364.0000000000040927
 21
66.0
 31
0.0
  0
LINE
  5
151D
  8
2
 10
352.0000000000031832
 20
43.5
 30
0.0
 11
364.0000000000031832
 21
43.5
 31
0.0
  0
LINE
  5
151E
  8
2
 10
352.0000000000031832
 20
43.5
 30
0.0
 11
353.5000000000031832
 21
42.0
 31
0.0
  0
LINE
  5
151F
  8
2
 10
364.0000000000031832
 20
43.5
 30
0.0
 11
362.5000000000031832
 21
42.0
 31
0.0
  0
LINE
  5
1520
  8
2
 10
363.1000000000036039
 20
66.0
 30
0.0
 11
363.1000000000025807
 21
42.5999999999994472
 31
0.0
  0
LINE
  5
1521
  8
2
 10
352.9000000000045816
 20
66.0
 30
0.0
 11
352.9000000000036721
 21
42.5999999999994472
 31
0.0
  0
LINE
  5
1522
  8
0
 10
375.5000000000035811
 20
96.9999999999997726
 30
0.0
 11
340.5000000000026716
 21
96.9999999999997726
 31
0.0
  0
ENDSEC
  0
EOF
