  0
SECTION
  2
HEADER
  9
$ACADVER
  1
AC1009
  9
$INSBASE
 10
0.0
 20
0.0
 30
0.0
  9
$EXTMIN
 10
0.0
 20
-2.960436562073669
 30
0.0
  9
$EXTMAX
 10
540.500000000001819
 20
170.0000000000013074
 30
0.0
  9
$LIMMIN
 10
0.0
 20
0.0
  9
$LIMMAX
 10
187.5
 20
135.0
  9
$ORTHOMODE
 70
     1
  9
$REGENMODE
 70
     1
  9
$FILLMODE
 70
     1
  9
$QTEXTMODE
 70
     0
  9
$MIRRTEXT
 70
     0
  9
$DRAGMODE
 70
     2
  9
$LTSCALE
 40
10.0
  9
$OSMODE
 70
    37
  9
$ATTMODE
 70
     1
  9
$TEXTSIZE
 40
0.2
  9
$TRACEWID
 40
0.05
  9
$TEXTSTYLE
  7
STANDARD
  9
$CLAYER
  8
0
  9
$CELTYPE
  6
BYLAYER
  9
$CECOLOR
 62
   256
  9
$DIMSCALE
 40
1.0
  9
$DIMASZ
 40
3.0
  9
$DIMEXO
 40
2.0
  9
$DIMDLI
 40
0.38
  9
$DIMRND
 40
0.0
  9
$DIMDLE
 40
0.0
  9
$DIMEXE
 40
2.0
  9
$DIMTP
 40
0.0
  9
$DIMTM
 40
0.0
  9
$DIMTXT
 40
3.2000000000000002
  9
$DIMCEN
 40
0.0
  9
$DIMTSZ
 40
0.0
  9
$DIMTOL
 70
     0
  9
$DIMLIM
 70
     0
  9
$DIMTIH
 70
     0
  9
$DIMTOH
 70
     0
  9
$DIMSE1
 70
     0
  9
$DIMSE2
 70
     0
  9
$DIMTAD
 70
     1
  9
$DIMZIN
 70
     0
  9
$DIMBLK
  1

  9
$DIMASO
 70
     0
  9
$DIMSHO
 70
     0
  9
$DIMPOST
  1

  9
$DIMAPOST
  1

  9
$DIMALT
 70
     0
  9
$DIMALTD
 70
     2
  9
$DIMALTF
 40
25.3999999999999986
  9
$DIMLFAC
 40
1.0
  9
$DIMTOFL
 70
     1
  9
$DIMTVP
 40
1.6000000000000001
  9
$DIMTIX
 70
     1
  9
$DIMSOXD
 70
     0
  9
$DIMSAH
 70
     0
  9
$DIMBLK1
  1

  9
$DIMBLK2
  1

  9
$DIMSTYLE
  2
STANDARD
  9
$DIMCLRD
 70
     0
  9
$DIMCLRE
 70
     0
  9
$DIMCLRT
 70
     0
  9
$DIMTFAC
 40
1.0
  9
$DIMGAP
 40
0.09
  9
$LUNITS
 70
     2
  9
$LUPREC
 70
     1
  9
$SKETCHINC
 40
0.1
  9
$FILLETRAD
 40
0.0
  9
$AUNITS
 70
     0
  9
$AUPREC
 70
     1
  9
$MENU
  1
E:\r13\win\SUPPORT\ACAD
  9
$ELEVATION
 40
0.0
  9
$PELEVATION
 40
0.0
  9
$THICKNESS
 40
0.0
  9
$LIMCHECK
 70
     0
  9
$BLIPMODE
 70
     0
  9
$CHAMFERA
 40
0.0
  9
$CHAMFERB
 40
0.0
  9
$SKPOLY
 70
     0
  9
$TDCREATE
 40
2449839.773298610933125
  9
$TDUPDATE
 40
2460692.4009374999441206
  9
$TDINDWG
 40
0.1941220023
  9
$TDUSRTIMER
 40
0.1941220023
  9
$USRTIMER
 70
     1
  9
$ANGBASE
 50
0.0
  9
$ANGDIR
 70
     0
  9
$PDMODE
 70
     0
  9
$PDSIZE
 40
0.0
  9
$PLINEWID
 40
0.0
  9
$COORDS
 70
     1
  9
$SPLFRAME
 70
     0
  9
$SPLINETYPE
 70
     6
  9
$SPLINESEGS
 70
     8
  9
$ATTDIA
 70
     1
  9
$ATTREQ
 70
     1
  9
$HANDLING
 70
     1
  9
$HANDSEED
  5
1762
  9
$SURFTAB1
 70
     6
  9
$SURFTAB2
 70
     6
  9
$SURFTYPE
 70
     6
  9
$SURFU
 70
     6
  9
$SURFV
 70
     6
  9
$UCSNAME
  2

  9
$UCSORG
 10
0.0
 20
0.0
 30
0.0
  9
$UCSXDIR
 10
1.0
 20
0.0
 30
0.0
  9
$UCSYDIR
 10
0.0
 20
1.0
 30
0.0
  9
$PUCSNAME
  2

  9
$PUCSORG
 10
0.0
 20
0.0
 30
0.0
  9
$PUCSXDIR
 10
1.0
 20
0.0
 30
0.0
  9
$PUCSYDIR
 10
0.0
 20
1.0
 30
0.0
  9
$USERI1
 70
     0
  9
$USERI2
 70
     1
  9
$USERI3
 70
     0
  9
$USERI4
 70
     0
  9
$USERI5
 70
     0
  9
$USERR1
 40
0.0
  9
$USERR2
 40
0.0
  9
$USERR3
 40
0.0
  9
$USERR4
 40
0.0
  9
$USERR5
 40
0.0
  9
$WORLDVIEW
 70
     1
  9
$SHADEDGE
 70
     3
  9
$SHADEDIF
 70
    70
  9
$TILEMODE
 70
     1
  9
$MAXACTVP
 70
    16
  9
$PLIMCHECK
 70
     0
  9
$PEXTMIN
 10
1.0000000000000000E+20
 20
1.0000000000000000E+20
 30
1.0000000000000000E+20
  9
$PEXTMAX
 10
-1.0000000000000000E+20
 20
-1.0000000000000000E+20
 30
-1.0000000000000000E+20
  9
$PLIMMIN
 10
0.0
 20
0.0
  9
$PLIMMAX
 10
12.0
 20
9.0
  9
$UNITMODE
 70
     0
  9
$VISRETAIN
 70
     0
  9
$PLINEGEN
 70
     0
  9
$PSLTSCALE
 70
     0
  0
ENDSEC
  0
SECTION
  2
TABLES
  0
TABLE
  2
VPORT
 70
     1
  0
VPORT
  2
*ACTIVE
 70
     0
 10
0.0
 20
0.0
 11
1.0
 21
1.0
 12
308.2474226804123987
 22
131.2516555933376026
 13
0.0
 23
0.0
 14
5.0
 24
5.0
 15
5.0
 25
5.0
 16
0.0
 26
0.0
 36
1.0
 17
0.0
 27
0.0
 37
0.0
 40
262.5033111866752051
 41
2.3485221674876842
 42
50.0
 43
0.0
 44
0.0
 50
0.0
 51
0.0
 71
     0
 72
   500
 73
     1
 74
     0
 75
     0
 76
     0
 77
     0
 78
     2
  0
ENDTAB
  0
TABLE
  2
LTYPE
 70
     3
  0
LTYPE
  2
CONTINUOUS
 70
     0
  3
Solid Line
 72
    65
 73
     0
 40
0.0
  0
LTYPE
  2
CENTER
 70
     0
  3
____ _ ____ _ ____ _ ____ _ ____ _ ____ _ ____
 72
    65
 73
     4
 40
2.0
 49
1.25
 49
-0.25
 49
0.25
 49
-0.25
  0
LTYPE
  2
HIDDEN
 70
     0
  3
_ _ _ _ _ _ _ _ _ _ _ _ _ _ _ _ _ _ _ _ _ _ _
 72
    65
 73
     2
 40
0.375
 49
0.25
 49
-0.125
  0
ENDTAB
  0
TABLE
  2
LAYER
 70
     4
  0
LAYER
  2
0
 70
     0
 62
     7
  6
CONTINUOUS
  0
LAYER
  2
1
 70
     0
 62
     1
  6
CENTER
  0
LAYER
  2
3
 70
     0
 62
     3
  6
CONTINUOUS
  0
LAYER
  2
2
 70
     0
 62
     2
  6
HIDDEN
  0
ENDTAB
  0
TABLE
  2
STYLE
 70
     2
  0
STYLE
  2
STANDARD
 70
     0
 40
0.0
 41
1.0
 50
0.0
 71
     0
 42
0.2
  3
TXT
  4
BIGFONT
  0
STYLE
  2
STANDARD1
 70
     0
 40
0.0
 41
1.0
 50
0.0
 71
     0
 42
3.0
  3
txt
  4

  0
ENDTAB
  0
TABLE
  2
VIEW
 70
     1
  0
VIEW
  2
ALL
 70
     0
 40
270.0
 10
220.9915966386554942
 20
135.0
 41
0.0
 11
0.0
 21
0.0
 31
1.0
 12
0.0
 22
0.0
 32
0.0
 42
0.0
 43
0.0
 44
0.0
 50
0.0
 71
     0
  0
ENDTAB
  0
TABLE
  2
UCS
 70
     0
  0
ENDTAB
  0
TABLE
  2
APPID
 70
     6
  0
APPID
  2
ACAD
 70
     0
  0
APPID
  2
ACAD_DSTYLE_DIMJAG
 70
     0
  0
APPID
  2
ACAD_DSTYLE_DIMTALN
 70
     0
  0
APPID
  2
ACAD_EXEMPT_FROM_CAD_STANDARDS
 70
     0
  0
APPID
  2
ACAD_MLEADERVER
 70
     0
  0
APPID
  2
ACAD_NAV_VCDISPLAY
 70
     0
  0
ENDTAB
  0
TABLE
  2
DIMSTYLE
 70
     1
  0
DIMSTYLE
  2
STANDARD
 70
     0
  3

  4

  5

  6

  7

 40
1.0
 41
0.18
 42
0.0625
 43
0.38
 44
0.18
 45
0.0
 46
0.0
 47
0.0
 48
0.0
140
0.18
141
0.09
142
0.0
143
25.3999999999999986
144
1.0
145
0.0
146
1.0
147
0.09
 71
     0
 72
     0
 73
     1
 74
     1
 75
     0
 76
     0
 77
     0
 78
     0
170
     0
171
     2
172
     0
173
     0
174
     0
175
     0
176
     0
177
     0
178
     0
  0
ENDTAB
  0
ENDSEC
  0
SECTION
  2
BLOCKS
  0
BLOCK
  8
0
  2
$MODEL_SPACE
 70
     0
 10
0.0
 20
0.0
 30
0.0
  3
$MODEL_SPACE
  1

  0
ENDBLK
  5
1D4
  8
0
  0
BLOCK
 67
     1
  8
0
  2
$PAPER_SPACE
 70
     0
 10
0.0
 20
0.0
 30
0.0
  3
$PAPER_SPACE
  1

  0
ENDBLK
  5
1D2
 67
     1
  8
0
  0
ENDSEC
  0
SECTION
  2
ENTITIES
  0
TEXT
  5
678
  8
0
 62
     3
 10
0.0
 20
0.0
 30
0.0
 40
10.0
  1
MVAC150CS22
  7
STANDARD1
  0
LINE
  5
13C0
  8
0
 10
413.500000000001819
 20
170.0000000000013074
 30
0.0
 11
413.500000000001819
 21
135.0000000000013074
 31
0.0
  0
LINE
  5
13C1
  8
0
 10
410.500000000001819
 20
135.0000000000013074
 30
0.0
 11
410.500000000001819
 21
170.0000000000013074
 31
0.0
  0
LINE
  5
13C2
  8
0
 10
470.500000000001819
 20
135.0000000000013074
 30
0.0
 11
470.500000000001819
 21
170.0000000000013074
 31
0.0
  0
LINE
  5
13C3
  8
0
 10
410.500000000001819
 20
135.0000000000013074
 30
0.0
 11
470.500000000001819
 21
135.0000000000013074
 31
0.0
  0
LINE
  5
13C4
  8
0
 10
470.500000000001819
 20
170.0000000000013074
 30
0.0
 11
410.500000000001819
 21
170.0000000000013074
 31
0.0
  0
CIRCLE
  5
13C5
  8
0
 10
435.500000000001819
 20
152.5000000000009095
 30
0.0
 40
10.0
  0
LINE
  5
13C6
  8
0
 10
429.7264973081054791
 20
152.5000000000009095
 30
0.0
 11
432.6132486540536775
 21
147.5000000000013074
 31
0.0
  0
LINE
  5
13C7
  8
0
 10
432.6132486540536775
 20
147.5000000000013074
 30
0.0
 11
438.3867513459499037
 21
147.5000000000013074
 31
0.0
  0
LINE
  5
13C8
  8
0
 10
438.3867513459499037
 20
147.5000000000013074
 30
0.0
 11
441.2735026918981021
 21
152.5000000000009095
 31
0.0
  0
LINE
  5
13C9
  8
0
 10
441.2735026918981021
 20
152.5000000000009095
 30
0.0
 11
438.3867513459499037
 21
157.5000000000013074
 31
0.0
  0
LINE
  5
13CA
  8
0
 10
438.3867513459499037
 20
157.5000000000013074
 30
0.0
 11
432.6132486540536775
 21
157.5000000000013074
 31
0.0
  0
LINE
  5
13CB
  8
0
 10
432.6132486540536775
 20
157.5000000000013074
 30
0.0
 11
429.7264973081054791
 21
152.5000000000009095
 31
0.0
  0
CIRCLE
  5
13CC
  8
0
 10
435.500000000001819
 20
152.5000000000009095
 30
0.0
 40
9.0
  0
LINE
  5
13CD
  8
0
 10
159.5000000000017906
 20
134.9999999999994884
 30
0.0
 11
159.5000000000017906
 21
169.9999999999994884
 31
0.0
  0
LINE
  5
13CE
  8
0
 10
102.5000000000018048
 20
134.9999999999994884
 30
0.0
 11
162.5000000000017906
 21
134.9999999999994884
 31
0.0
  0
CIRCLE
  5
13CF
  8
0
 10
137.5000000000017906
 20
152.5
 30
0.0
 40
10.0
  0
LINE
  5
13D0
  8
0
 10
162.5000000000017906
 20
169.9999999999994884
 30
0.0
 11
102.5000000000018048
 21
169.9999999999994884
 31
0.0
  0
LINE
  5
13D1
  8
0
 10
102.5000000000018048
 20
169.9999999999994884
 30
0.0
 11
102.5000000000018048
 21
134.9999999999994884
 31
0.0
  0
LINE
  5
13D2
  8
0
 10
162.5000000000017906
 20
169.9999999999994884
 30
0.0
 11
162.5000000000017906
 21
134.9999999999994884
 31
0.0
  0
LINE
  5
13D3
  8
0
 10
131.7264973081055075
 20
152.5
 30
0.0
 11
134.6132486540518016
 21
147.4999999999994884
 31
0.0
  0
LINE
  5
13D4
  8
0
 10
134.6132486540518016
 20
147.4999999999994884
 30
0.0
 11
140.3867513459481131
 21
147.4999999999994884
 31
0.0
  0
LINE
  5
13D5
  8
0
 10
140.3867513459481131
 20
147.4999999999994884
 30
0.0
 11
143.2735026918981021
 21
152.5
 31
0.0
  0
LINE
  5
13D6
  8
0
 10
143.2735026918981021
 20
152.5
 30
0.0
 11
140.3867513459481131
 21
157.4999999999994884
 31
0.0
  0
CIRCLE
  5
13D7
  8
0
 10
137.5000000000017906
 20
152.5
 30
0.0
 40
9.0
  0
LINE
  5
13D8
  8
0
 10
140.3867513459481131
 20
157.4999999999994884
 30
0.0
 11
134.6132486540518016
 21
157.4999999999994884
 31
0.0
  0
LINE
  5
13D9
  8
0
 10
134.6132486540518016
 20
157.4999999999994884
 30
0.0
 11
131.7264973081055075
 21
152.5
 31
0.0
  0
LINE
  5
13DA
  8
0
 10
429.500000000001819
 20
72.0
 30
0.0
 11
429.500000000001819
 21
65.9999999999995453
 31
0.0
  0
LINE
  5
13DB
  8
0
 10
441.500000000001819
 20
65.9999999999995453
 30
0.0
 11
441.500000000001819
 21
72.0
 31
0.0
  0
LINE
  5
13DC
  8
0
 10
131.5000000000017906
 20
72.0
 30
0.0
 11
131.5000000000017906
 21
65.9999999999995453
 31
0.0
  0
LINE
  5
13DD
  8
0
 10
143.5000000000017906
 20
65.9999999999995453
 30
0.0
 11
143.5000000000017906
 21
72.0
 31
0.0
  0
LINE
  5
13DE
  8
0
 10
423.000000000001819
 20
40.9999999999995381
 30
0.0
 11
448.000000000001819
 21
40.9999999999995381
 31
0.0
  0
LINE
  5
13DF
  8
0
 10
423.000000000001819
 20
37.9999999999995381
 30
0.0
 11
448.000000000001819
 21
37.9999999999995381
 31
0.0
  0
LINE
  5
13E0
  8
0
 10
423.000000000001819
 20
51.9999999999995381
 30
0.0
 11
448.000000000001819
 21
51.9999999999995381
 31
0.0
  0
LINE
  5
13E1
  8
0
 10
448.000000000001819
 20
65.9999999999995453
 30
0.0
 11
423.000000000001819
 21
65.9999999999995453
 31
0.0
  0
LINE
  5
13E2
  8
0
 10
448.000000000001819
 20
37.9999999999995381
 30
0.0
 11
448.000000000001819
 21
65.9999999999995453
 31
0.0
  0
LINE
  5
13E3
  8
0
 10
423.000000000001819
 20
37.9999999999995381
 30
0.0
 11
423.000000000001819
 21
65.9999999999995453
 31
0.0
  0
LINE
  5
13E4
  8
0
 10
150.0
 20
37.9999999999995381
 30
0.0
 11
125.0000000000018048
 21
37.9999999999995381
 31
0.0
  0
LINE
  5
13E5
  8
0
 10
150.0
 20
40.9999999999995381
 30
0.0
 11
125.0000000000018048
 21
40.9999999999995381
 31
0.0
  0
LINE
  5
13E6
  8
0
 10
150.0
 20
51.9999999999995381
 30
0.0
 11
125.0000000000018048
 21
51.9999999999995381
 31
0.0
  0
LINE
  5
13E7
  8
0
 10
150.0
 20
65.9999999999995453
 30
0.0
 11
125.0000000000018048
 21
65.9999999999995453
 31
0.0
  0
LINE
  5
13E8
  8
0
 10
150.0
 20
37.9999999999995381
 30
0.0
 11
150.0
 21
65.9999999999995453
 31
0.0
  0
LINE
  5
13E9
  8
0
 10
125.0000000000018048
 20
37.9999999999995381
 30
0.0
 11
125.0000000000018048
 21
65.9999999999995453
 31
0.0
  0
LINE
  5
13EA
  8
0
 10
470.500000000001819
 20
69.9999999999995453
 30
0.0
 11
470.500000000001819
 21
100.0
 31
0.0
  0
LINE
  5
13EB
  8
0
 10
465.5
 20
69.9999999999995453
 30
0.0
 11
470.500000000001819
 21
69.9999999999995453
 31
0.0
  0
LINE
  5
13EC
  8
0
 10
465.5
 20
72.0
 30
0.0
 11
465.5
 21
69.9999999999995453
 31
0.0
  0
LINE
  5
13ED
  8
0
 10
420.5
 20
72.0
 30
0.0
 11
465.5
 21
72.0
 31
0.0
  0
LINE
  5
13EE
  8
0
 10
418.500000000001819
 20
74.0
 30
0.0
 11
420.5
 21
72.0
 31
0.0
  0
LINE
  5
13EF
  8
0
 10
418.500000000001819
 20
89.4999999999995453
 30
0.0
 11
418.500000000001819
 21
74.0
 31
0.0
  0
LINE
  5
13F0
  8
0
 10
410.500000000001819
 20
89.4999999999995453
 30
0.0
 11
418.500000000001819
 21
89.4999999999995453
 31
0.0
  0
LINE
  5
13F1
  8
0
 10
410.500000000001819
 20
89.4999999999995453
 30
0.0
 11
410.500000000001819
 21
96.9999999999995453
 31
0.0
  0
LINE
  5
13F2
  8
0
 10
413.500000000001819
 20
100.0
 30
0.0
 11
410.500000000001819
 21
96.9999999999995453
 31
0.0
  0
LINE
  5
13F3
  8
0
 10
413.500000000001819
 20
100.0
 30
0.0
 11
470.500000000001819
 21
100.0
 31
0.0
  0
LINE
  5
13F4
  8
0
 10
162.5000000000017906
 20
89.4999999999995453
 30
0.0
 11
154.5000000000017906
 21
89.4999999999995453
 31
0.0
  0
LINE
  5
13F5
  8
0
 10
154.5000000000017906
 20
89.4999999999995453
 30
0.0
 11
154.5000000000017906
 21
74.0
 31
0.0
  0
LINE
  5
13F6
  8
0
 10
152.5000000000017906
 20
72.0
 30
0.0
 11
154.5000000000017906
 21
74.0
 31
0.0
  0
LINE
  5
13F7
  8
0
 10
152.5000000000017906
 20
72.0
 30
0.0
 11
107.5000000000018048
 21
72.0
 31
0.0
  0
LINE
  5
13F8
  8
0
 10
102.5000000000018048
 20
69.9999999999995453
 30
0.0
 11
107.5000000000018048
 21
69.9999999999995453
 31
0.0
  0
LINE
  5
13F9
  8
0
 10
102.5000000000018048
 20
99.9999999999995453
 30
0.0
 11
159.5000000000017906
 21
99.9999999999995453
 31
0.0
  0
LINE
  5
13FA
  8
0
 10
162.5000000000017906
 20
96.9999999999995453
 30
0.0
 11
159.5000000000017906
 21
99.9999999999995453
 31
0.0
  0
LINE
  5
13FB
  8
0
 10
162.5000000000017906
 20
89.4999999999995453
 30
0.0
 11
162.5000000000017906
 21
96.9999999999995453
 31
0.0
  0
LINE
  5
13FC
  8
0
 10
102.5000000000018048
 20
69.9999999999995453
 30
0.0
 11
102.5000000000018048
 21
99.9999999999995453
 31
0.0
  0
LINE
  5
13FD
  8
0
 10
107.5000000000018048
 20
72.0
 30
0.0
 11
107.5000000000018048
 21
69.9999999999995453
 31
0.0
  0
LINE
  5
13FE
  8
2
 10
425.500000000001819
 20
86.9999999999995453
 30
0.0
 11
445.500000000001819
 21
86.9999999999995453
 31
0.0
  0
LINE
  5
1400
  8
2
 10
127.5000000000018048
 20
86.9999999999995453
 30
0.0
 11
147.5000000000017906
 21
86.9999999999995453
 31
0.0
  0
LINE
  5
1406
  8
2
 10
425.500000000001819
 20
99.9999999999995453
 30
0.0
 11
425.500000000001819
 21
86.9999999999995453
 31
0.0
  0
LINE
  5
1407
  8
2
 10
445.500000000001819
 20
86.9999999999995453
 30
0.0
 11
445.500000000001819
 21
99.9999999999995453
 31
0.0
  0
LINE
  5
1408
  8
2
 10
444.500000000001819
 20
86.9999999999995453
 30
0.0
 11
444.500000000001819
 21
98.2999999999995566
 31
0.0
  0
LINE
  5
1409
  8
2
 10
426.500000000001819
 20
98.2999999999995993
 30
0.0
 11
426.500000000001819
 21
86.9999999999995453
 31
0.0
  0
LINE
  5
140A
  8
2
 10
442.000000000001819
 20
71.9999999999995453
 30
0.0
 11
442.000000000001819
 21
86.9999999999995453
 31
0.0
  0
LINE
  5
140B
  8
2
 10
429.000000000001819
 20
86.9999999999995453
 30
0.0
 11
429.000000000001819
 21
71.9999999999995453
 31
0.0
  0
LINE
  5
140C
  8
2
 10
429.500000000001819
 20
86.9999999999995453
 30
0.0
 11
429.500000000001819
 21
72.0
 31
0.0
  0
LINE
  5
140D
  8
2
 10
429.500000000001819
 20
65.9999999999995453
 30
0.0
 11
429.500000000001819
 21
43.4999999999995381
 31
0.0
  0
LINE
  5
140E
  8
2
 10
441.500000000001819
 20
43.4999999999995381
 30
0.0
 11
441.500000000001819
 21
65.9999999999995453
 31
0.0
  0
LINE
  5
140F
  8
2
 10
441.500000000001819
 20
72.0
 30
0.0
 11
441.500000000001819
 21
86.9999999999995453
 31
0.0
  0
LINE
  5
1410
  8
2
 10
127.5000000000018048
 20
99.9999999999995453
 30
0.0
 11
127.5000000000018048
 21
86.9999999999995453
 31
0.0
  0
LINE
  5
1411
  8
2
 10
147.5000000000017906
 20
86.9999999999995453
 30
0.0
 11
147.5000000000017906
 21
99.9999999999995453
 31
0.0
  0
LINE
  5
1412
  8
2
 10
146.5000000000017906
 20
86.9999999999995453
 30
0.0
 11
146.5000000000017906
 21
98.2999999999995708
 31
0.0
  0
LINE
  5
1413
  8
2
 10
128.5000000000017906
 20
98.2999999999996135
 30
0.0
 11
128.5000000000017906
 21
86.9999999999995453
 31
0.0
  0
LINE
  5
1414
  8
2
 10
144.0
 20
72.0
 30
0.0
 11
144.0
 21
86.9999999999995453
 31
0.0
  0
LINE
  5
1415
  8
2
 10
131.0
 20
86.9999999999995453
 30
0.0
 11
131.0
 21
72.0
 31
0.0
  0
LINE
  5
1416
  8
2
 10
131.5000000000017906
 20
86.9999999999995453
 30
0.0
 11
131.5000000000017906
 21
72.0
 31
0.0
  0
LINE
  5
1417
  8
2
 10
131.5000000000017906
 20
65.9999999999995453
 30
0.0
 11
131.5000000000017906
 21
43.4999999999995381
 31
0.0
  0
LINE
  5
1418
  8
2
 10
143.5000000000017906
 20
43.4999999999995381
 30
0.0
 11
143.5000000000017906
 21
65.9999999999995453
 31
0.0
  0
LINE
  5
1419
  8
2
 10
143.5000000000017906
 20
72.0
 30
0.0
 11
143.5000000000017906
 21
86.9999999999995453
 31
0.0
  0
LINE
  5
141A
  8
0
 10
517.000000000001819
 20
69.9999999999995453
 30
0.0
 11
517.000000000001819
 21
65.9999999999995453
 31
0.0
  0
LINE
  5
141B
  8
0
 10
529.0
 20
65.9999999999995453
 30
0.0
 11
529.0
 21
69.9999999999995453
 31
0.0
  0
LINE
  5
141C
  8
0
 10
534.0
 20
51.9999999999995381
 30
0.0
 11
534.0
 21
65.9999999999995453
 31
0.0
  0
LINE
  5
141D
  8
0
 10
534.0
 20
51.9999999999995381
 30
0.0
 11
540.5
 21
51.9999999999995381
 31
0.0
  0
LINE
  5
141E
  8
0
 10
540.5
 20
40.9999999999995381
 30
0.0
 11
540.5
 21
51.9999999999995381
 31
0.0
  0
LINE
  5
141F
  8
0
 10
537.5
 20
37.9999999999995381
 30
0.0
 11
540.5
 21
40.9999999999995381
 31
0.0
  0
LINE
  5
1420
  8
0
 10
505.500000000001819
 20
40.9999999999995381
 30
0.0
 11
508.4999999999998863
 21
37.9999999999995381
 31
0.0
  0
LINE
  5
1421
  8
0
 10
512.0
 20
51.9999999999995381
 30
0.0
 11
512.0
 21
65.9999999999995453
 31
0.0
  0
LINE
  5
1422
  8
0
 10
534.0
 20
65.9999999999995453
 30
0.0
 11
512.0
 21
65.9999999999995453
 31
0.0
  0
LINE
  5
1423
  8
0
 10
505.500000000001819
 20
51.9999999999995381
 30
0.0
 11
505.500000000001819
 21
40.9999999999995381
 31
0.0
  0
LINE
  5
1424
  8
0
 10
512.0
 20
51.9999999999995381
 30
0.0
 11
505.500000000001819
 21
51.9999999999995381
 31
0.0
  0
LINE
  5
1425
  8
0
 10
508.4999999999998863
 20
37.9999999999995381
 30
0.0
 11
537.5
 21
37.9999999999995381
 31
0.0
  0
LINE
  5
1426
  8
0
 10
505.500000000001819
 20
69.9999999999995453
 30
0.0
 11
505.500000000001819
 21
100.0
 31
0.0
  0
LINE
  5
1427
  8
0
 10
540.5
 20
69.9999999999995453
 30
0.0
 11
540.500000000001819
 21
99.9999999999995453
 31
0.0
  0
LINE
  5
1428
  8
0
 10
505.500000000001819
 20
100.0
 30
0.0
 11
540.500000000001819
 21
99.9999999999995453
 31
0.0
  0
LINE
  5
1429
  8
0
 10
505.500000000001819
 20
69.9999999999995453
 30
0.0
 11
540.5
 21
69.9999999999995453
 31
0.0
  0
LINE
  5
142A
  8
0
 10
44.000000000001819
 20
69.9999999999995453
 30
0.0
 11
44.000000000001819
 21
65.9999999999995453
 31
0.0
  0
LINE
  5
142B
  8
0
 10
56.0
 20
65.9999999999995453
 30
0.0
 11
56.0
 21
69.9999999999995453
 31
0.0
  0
LINE
  5
142C
  8
0
 10
61.0
 20
65.9999999999995453
 30
0.0
 11
39.0
 21
65.9999999999995453
 31
0.0
  0
LINE
  5
142D
  8
0
 10
61.0
 20
51.9999999999995381
 30
0.0
 11
61.0
 21
65.9999999999995453
 31
0.0
  0
LINE
  5
142E
  8
0
 10
61.0
 20
51.9999999999995381
 30
0.0
 11
67.500000000001819
 21
51.9999999999995381
 31
0.0
  0
LINE
  5
142F
  8
0
 10
67.500000000001819
 20
40.9999999999995381
 30
0.0
 11
67.500000000001819
 21
51.9999999999995381
 31
0.0
  0
LINE
  5
1430
  8
0
 10
64.500000000001819
 20
37.9999999999995381
 30
0.0
 11
67.500000000001819
 21
40.9999999999995381
 31
0.0
  0
LINE
  5
1431
  8
0
 10
35.500000000001819
 20
37.9999999999995381
 30
0.0
 11
64.500000000001819
 21
37.9999999999995381
 31
0.0
  0
LINE
  5
1432
  8
0
 10
32.500000000001819
 20
40.9999999999995381
 30
0.0
 11
35.500000000001819
 21
37.9999999999995381
 31
0.0
  0
LINE
  5
1433
  8
0
 10
39.0
 20
51.9999999999995381
 30
0.0
 11
32.500000000001819
 21
51.9999999999995381
 31
0.0
  0
LINE
  5
1434
  8
0
 10
39.0
 20
51.9999999999995381
 30
0.0
 11
39.0
 21
65.9999999999995453
 31
0.0
  0
LINE
  5
1435
  8
0
 10
32.500000000001819
 20
51.9999999999995381
 30
0.0
 11
32.500000000001819
 21
40.9999999999995381
 31
0.0
  0
LINE
  5
1436
  8
0
 10
67.500000000001819
 20
69.9999999999995453
 30
0.0
 11
67.500000000001819
 21
99.9999999999995453
 31
0.0
  0
LINE
  5
1437
  8
0
 10
32.500000000001819
 20
69.9999999999995453
 30
0.0
 11
67.500000000001819
 21
69.9999999999995453
 31
0.0
  0
LINE
  5
1438
  8
0
 10
32.500000000001819
 20
69.9999999999995453
 30
0.0
 11
32.500000000001819
 21
99.9999999999995453
 31
0.0
  0
LINE
  5
1439
  8
0
 10
32.500000000001819
 20
99.9999999999995453
 30
0.0
 11
67.500000000001819
 21
99.9999999999995453
 31
0.0
  0
LINE
  5
143A
  8
2
 10
132.4000000000013983
 20
81.9999999999995453
 30
0.0
 11
131.5000000000017906
 21
83.7999999999992724
 31
0.0
  0
LINE
  5
143B
  8
2
 10
131.5000000000017906
 20
81.9999999999995453
 30
0.0
 11
143.5000000000017906
 21
81.9999999999995453
 31
0.0
  0
LINE
  5
143C
  8
2
 10
131.5000000000017906
 20
43.4999999999995381
 30
0.0
 11
143.5000000000017906
 21
43.4999999999995381
 31
0.0
  0
LINE
  5
143D
  8
2
 10
131.5000000000017906
 20
43.4999999999995381
 30
0.0
 11
133.0000000000017906
 21
41.9999999999995381
 31
0.0
  0
LINE
  5
143E
  8
2
 10
142.0000000000017906
 20
41.9999999999995381
 30
0.0
 11
133.0000000000017906
 21
41.9999999999995381
 31
0.0
  0
LINE
  5
143F
  8
2
 10
132.4000000000013983
 20
81.9999999999995453
 30
0.0
 11
132.4000000000013983
 21
72.0
 31
0.0
  0
LINE
  5
1440
  8
2
 10
142.6000000000022112
 20
81.9999999999995453
 30
0.0
 11
143.5000000000017906
 21
83.7999999999992724
 31
0.0
  0
LINE
  5
1441
  8
2
 10
143.5000000000017906
 20
43.4999999999995381
 30
0.0
 11
142.0000000000017906
 21
41.9999999999995381
 31
0.0
  0
LINE
  5
1442
  8
2
 10
142.6000000000022112
 20
81.9999999999995453
 30
0.0
 11
142.6000000000022112
 21
72.0
 31
0.0
  0
LINE
  5
1443
  8
2
 10
142.6000000000022112
 20
65.9999999999995453
 30
0.0
 11
142.6000000000022112
 21
42.5999999999989996
 31
0.0
  0
LINE
  5
1444
  8
2
 10
132.4000000000013983
 20
65.9999999999995453
 30
0.0
 11
132.4000000000013983
 21
42.5999999999989996
 31
0.0
  0
LINE
  5
1445
  8
3
 10
142.6000000000022112
 20
72.0
 30
0.0
 11
142.6000000000022112
 21
65.9999999999995453
 31
0.0
  0
LINE
  5
1446
  8
3
 10
132.4000000000013983
 20
72.0
 30
0.0
 11
132.4000000000013983
 21
65.9999999999995453
 31
0.0
  0
LINE
  5
1447
  8
1
 10
137.5000000000017906
 20
104.9999999999995026
 30
0.0
 11
137.5000000000017906
 21
32.9999999999995381
 31
0.0
  0
LINE
  5
1448
  8
3
 10
55.0999999999985519
 20
69.9999999999993179
 30
0.0
 11
55.1000000000003709
 21
65.9999999999995453
 31
0.0
  0
LINE
  5
1449
  8
3
 10
44.9000000000014481
 20
69.9999999999993179
 30
0.0
 11
44.9000000000014481
 21
65.9999999999995453
 31
0.0
  0
LINE
  5
144A
  8
1
 10
50.0
 20
104.9999999999995026
 30
0.0
 11
50.0
 21
32.9999999999995381
 31
0.0
  0
LINE
  5
144B
  8
3
 10
528.0999999999985448
 20
69.9999999999993179
 30
0.0
 11
528.1000000000003638
 21
65.9999999999995453
 31
0.0
  0
LINE
  5
144C
  8
3
 10
517.9000000000014552
 20
69.9999999999993179
 30
0.0
 11
517.9000000000014552
 21
65.9999999999995453
 31
0.0
  0
LINE
  5
144D
  8
1
 10
523.0
 20
104.9999999999995026
 30
0.0
 11
523.0
 21
32.9999999999995381
 31
0.0
  0
LINE
  5
144E
  8
2
 10
430.4000000000013983
 20
81.9999999999995453
 30
0.0
 11
429.500000000001819
 21
83.7999999999992724
 31
0.0
  0
LINE
  5
144F
  8
2
 10
429.500000000001819
 20
81.9999999999995453
 30
0.0
 11
441.500000000001819
 21
81.9999999999995453
 31
0.0
  0
LINE
  5
1450
  8
2
 10
429.500000000001819
 20
43.4999999999995381
 30
0.0
 11
441.500000000001819
 21
43.4999999999995381
 31
0.0
  0
LINE
  5
1451
  8
2
 10
429.500000000001819
 20
43.4999999999995381
 30
0.0
 11
431.000000000001819
 21
41.9999999999995381
 31
0.0
  0
LINE
  5
1452
  8
2
 10
440.000000000001819
 20
41.9999999999995381
 30
0.0
 11
431.000000000001819
 21
41.9999999999995381
 31
0.0
  0
LINE
  5
1453
  8
2
 10
430.4000000000013983
 20
81.9999999999995453
 30
0.0
 11
430.4000000000013983
 21
72.0
 31
0.0
  0
LINE
  5
1454
  8
2
 10
440.6000000000021259
 20
81.9999999999995453
 30
0.0
 11
441.500000000001819
 21
83.7999999999992724
 31
0.0
  0
LINE
  5
1455
  8
2
 10
441.500000000001819
 20
43.4999999999995381
 30
0.0
 11
440.000000000001819
 21
41.9999999999995381
 31
0.0
  0
LINE
  5
1456
  8
2
 10
440.6000000000021259
 20
81.9999999999995453
 30
0.0
 11
440.6000000000021259
 21
72.0
 31
0.0
  0
LINE
  5
1457
  8
2
 10
440.6000000000021259
 20
65.9999999999995453
 30
0.0
 11
440.6000000000021259
 21
42.5999999999989996
 31
0.0
  0
LINE
  5
1458
  8
2
 10
430.4000000000013983
 20
65.9999999999995453
 30
0.0
 11
430.4000000000013983
 21
42.5999999999989996
 31
0.0
  0
LINE
  5
1459
  8
3
 10
440.6000000000021259
 20
72.0
 30
0.0
 11
440.6000000000021259
 21
65.9999999999995453
 31
0.0
  0
LINE
  5
145A
  8
3
 10
430.4000000000013983
 20
72.0
 30
0.0
 11
430.4000000000013983
 21
65.9999999999995453
 31
0.0
  0
LINE
  5
145B
  8
1
 10
435.500000000001819
 20
104.9999999999995026
 30
0.0
 11
435.500000000001819
 21
32.9999999999995381
 31
0.0
  0
LINE
  5
145C
  8
1
 10
137.5000000000017906
 20
165.500000000000199
 30
0.0
 11
137.5000000000017906
 21
139.499999999999801
 31
0.0
  0
LINE
  5
145D
  8
1
 10
97.500000000001819
 20
152.4999999999994884
 30
0.0
 11
167.5
 21
152.500000000000199
 31
0.0
  0
LINE
  5
145E
  8
1
 10
405.4999999999998863
 20
152.5000000000007105
 30
0.0
 11
475.500000000001819
 21
152.5000000000013074
 31
0.0
  0
LINE
  5
145F
  8
1
 10
435.5
 20
165.5000000000009095
 30
0.0
 11
435.5
 21
139.5000000000009095
 31
0.0
  0
LINE
  5
161F
  8
2
 10
128.5000000000017906
 20
98.2999999999996135
 30
0.0
 11
129.7124355653000123
 21
98.9999999999995453
 31
0.0
  0
LINE
  5
1620
  8
2
 10
146.5000000000017906
 20
98.2999999999995566
 30
0.0
 11
145.2875644347035973
 21
98.9999999999995453
 31
0.0
  0
LINE
  5
1621
  8
2
 10
128.5000000000017906
 20
98.2999999999995566
 30
0.0
 11
146.5000000000017906
 21
98.2999999999995566
 31
0.0
  0
LINE
  5
1622
  8
2
 10
129.7124355653000123
 20
98.9999999999995453
 30
0.0
 11
145.2875644347035973
 21
98.9999999999995453
 31
0.0
  0
LINE
  5
1623
  8
2
 10
426.500000000001819
 20
98.2999999999996135
 30
0.0
 11
427.7124355652999839
 21
98.9999999999995453
 31
0.0
  0
LINE
  5
1624
  8
2
 10
444.500000000001819
 20
98.2999999999995566
 30
0.0
 11
443.2875644347035973
 21
98.9999999999995453
 31
0.0
  0
LINE
  5
1625
  8
2
 10
426.500000000001819
 20
98.2999999999995566
 30
0.0
 11
444.500000000001819
 21
98.2999999999995566
 31
0.0
  0
LINE
  5
1626
  8
2
 10
427.7124355652999839
 20
98.9999999999995453
 30
0.0
 11
443.2875644347035973
 21
98.9999999999995453
 31
0.0
  0
LINE
  5
1638
  8
2
 10
107.5000000000018048
 20
169.9999999999994884
 30
0.0
 11
107.5000000000018048
 21
134.9999999999994884
 31
0.0
  0
LINE
  5
1639
  8
2
 10
154.5000000000017906
 20
169.9999999999994884
 30
0.0
 11
154.5000000000017906
 21
134.9999999999994884
 31
0.0
  0
LINE
  5
163A
  8
2
 10
418.500000000001819
 20
170.0000000000013074
 30
0.0
 11
418.500000000001819
 21
135.0000000000013074
 31
0.0
  0
LINE
  5
163B
  8
2
 10
465.5
 20
170.0000000000013074
 30
0.0
 11
465.5
 21
135.0000000000013074
 31
0.0
  0
LINE
  5
1640
  8
2
 10
32.500000000001819
 20
72.0
 30
0.0
 11
67.500000000001819
 21
72.0
 31
0.0
  0
LINE
  5
1641
  8
2
 10
32.500000000001819
 20
89.4999999999995453
 30
0.0
 11
67.500000000001819
 21
89.4999999999995453
 31
0.0
  0
LINE
  5
1644
  8
2
 10
505.5000000000017053
 20
89.4999999999995453
 30
0.0
 11
540.5000000000011369
 21
89.4999999999995453
 31
0.0
  0
LINE
  5
1645
  8
2
 10
505.500000000001819
 20
72.0
 30
0.0
 11
540.5
 21
72.0
 31
0.0
  0
LINE
  5
1646
  8
2
 10
40.000000000001819
 20
86.9999999999995453
 30
0.0
 11
60.000000000001819
 21
86.9999999999995453
 31
0.0
  0
LINE
  5
1647
  8
2
 10
40.000000000001819
 20
99.9999999999995453
 30
0.0
 11
40.000000000001819
 21
86.9999999999995453
 31
0.0
  0
LINE
  5
1648
  8
2
 10
60.000000000001819
 20
86.9999999999995453
 30
0.0
 11
60.000000000001819
 21
99.9999999999995453
 31
0.0
  0
LINE
  5
1649
  8
2
 10
59.000000000001819
 20
86.9999999999995453
 30
0.0
 11
59.000000000001819
 21
98.2999999999995708
 31
0.0
  0
LINE
  5
164A
  8
2
 10
41.0000000000018119
 20
98.2999999999996135
 30
0.0
 11
41.0000000000018119
 21
86.9999999999995453
 31
0.0
  0
LINE
  5
164B
  8
2
 10
56.5
 20
72.0
 30
0.0
 11
56.5
 21
86.9999999999995453
 31
0.0
  0
LINE
  5
164C
  8
2
 10
43.5
 20
86.9999999999995453
 30
0.0
 11
43.5
 21
72.0
 31
0.0
  0
LINE
  5
164D
  8
2
 10
44.000000000001819
 20
86.9999999999995453
 30
0.0
 11
44.000000000001819
 21
69.9999999999995453
 31
0.0
  0
LINE
  5
164E
  8
2
 10
44.000000000001819
 20
65.9999999999995453
 30
0.0
 11
44.000000000001819
 21
43.4999999999995381
 31
0.0
  0
LINE
  5
164F
  8
2
 10
56.000000000001819
 20
43.4999999999995381
 30
0.0
 11
56.000000000001819
 21
65.9999999999995453
 31
0.0
  0
LINE
  5
1650
  8
2
 10
56.000000000001819
 20
69.9999999999995453
 30
0.0
 11
56.000000000001819
 21
86.9999999999995453
 31
0.0
  0
LINE
  5
1651
  8
2
 10
44.9000000000014481
 20
81.9999999999995453
 30
0.0
 11
44.000000000001819
 21
83.7999999999992724
 31
0.0
  0
LINE
  5
1652
  8
2
 10
44.000000000001819
 20
81.9999999999995453
 30
0.0
 11
56.000000000001819
 21
81.9999999999995453
 31
0.0
  0
LINE
  5
1653
  8
2
 10
44.000000000001819
 20
43.4999999999995381
 30
0.0
 11
56.000000000001819
 21
43.4999999999995381
 31
0.0
  0
LINE
  5
1654
  8
2
 10
44.000000000001819
 20
43.4999999999995381
 30
0.0
 11
45.5000000000018119
 21
41.9999999999995381
 31
0.0
  0
LINE
  5
1655
  8
2
 10
54.500000000001819
 20
41.9999999999995381
 30
0.0
 11
45.5000000000018119
 21
41.9999999999995381
 31
0.0
  0
LINE
  5
1656
  8
2
 10
44.9000000000014481
 20
81.9999999999995453
 30
0.0
 11
44.9000000000014481
 21
69.9999999999995453
 31
0.0
  0
LINE
  5
1657
  8
2
 10
55.1000000000021828
 20
81.9999999999995453
 30
0.0
 11
56.000000000001819
 21
83.7999999999992724
 31
0.0
  0
LINE
  5
1658
  8
2
 10
56.000000000001819
 20
43.4999999999995381
 30
0.0
 11
54.500000000001819
 21
41.9999999999995381
 31
0.0
  0
LINE
  5
1659
  8
2
 10
55.1000000000021828
 20
81.9999999999995453
 30
0.0
 11
55.1000000000021828
 21
69.9999999999995453
 31
0.0
  0
LINE
  5
165A
  8
2
 10
55.1000000000021828
 20
65.9999999999995453
 30
0.0
 11
55.1000000000021828
 21
42.5999999999989996
 31
0.0
  0
LINE
  5
165B
  8
2
 10
44.9000000000014481
 20
65.9999999999995453
 30
0.0
 11
44.9000000000014481
 21
42.5999999999989996
 31
0.0
  0
LINE
  5
165C
  8
2
 10
41.0000000000018119
 20
98.2999999999996135
 30
0.0
 11
42.2124355652999768
 21
98.9999999999995453
 31
0.0
  0
LINE
  5
165D
  8
2
 10
59.000000000001819
 20
98.2999999999995566
 30
0.0
 11
57.787564434703647
 21
98.9999999999995453
 31
0.0
  0
LINE
  5
165E
  8
2
 10
41.0000000000018119
 20
98.2999999999995566
 30
0.0
 11
59.000000000001819
 21
98.2999999999995566
 31
0.0
  0
LINE
  5
165F
  8
2
 10
42.2124355652999768
 20
98.9999999999995453
 30
0.0
 11
57.787564434703647
 21
98.9999999999995453
 31
0.0
  0
LINE
  5
1660
  8
2
 10
513.000000000001819
 20
86.9999999999997726
 30
0.0
 11
533.000000000001819
 21
86.9999999999997726
 31
0.0
  0
LINE
  5
1661
  8
2
 10
513.000000000001819
 20
99.9999999999997868
 30
0.0
 11
513.000000000001819
 21
86.9999999999997726
 31
0.0
  0
LINE
  5
1662
  8
2
 10
533.000000000001819
 20
86.9999999999997726
 30
0.0
 11
533.000000000001819
 21
99.9999999999997868
 31
0.0
  0
LINE
  5
1663
  8
2
 10
532.000000000001819
 20
86.9999999999997726
 30
0.0
 11
532.000000000001819
 21
98.2999999999997982
 31
0.0
  0
LINE
  5
1664
  8
2
 10
514.000000000001819
 20
98.2999999999998408
 30
0.0
 11
514.000000000001819
 21
86.9999999999997726
 31
0.0
  0
LINE
  5
1665
  8
2
 10
529.4999999999998863
 20
72.0000000000002274
 30
0.0
 11
529.4999999999998863
 21
86.9999999999997726
 31
0.0
  0
LINE
  5
1666
  8
2
 10
516.5
 20
86.9999999999997726
 30
0.0
 11
516.5
 21
72.0000000000002274
 31
0.0
  0
LINE
  5
1667
  8
2
 10
517.000000000001819
 20
86.9999999999997726
 30
0.0
 11
517.0000000000015916
 21
69.9999999999995453
 31
0.0
  0
LINE
  5
1668
  8
2
 10
517.000000000001819
 20
65.9999999999997726
 30
0.0
 11
517.000000000001819
 21
43.4999999999997726
 31
0.0
  0
LINE
  5
1669
  8
2
 10
529.000000000001819
 20
43.4999999999997726
 30
0.0
 11
529.000000000001819
 21
65.9999999999997726
 31
0.0
  0
LINE
  5
166A
  8
2
 10
529.000000000001819
 20
69.9999999999995453
 30
0.0
 11
529.000000000001819
 21
86.9999999999997726
 31
0.0
  0
LINE
  5
166B
  8
2
 10
517.9000000000014552
 20
81.9999999999997726
 30
0.0
 11
517.000000000001819
 21
83.799999999999514
 31
0.0
  0
LINE
  5
166C
  8
2
 10
517.000000000001819
 20
81.9999999999997726
 30
0.0
 11
529.000000000001819
 21
81.9999999999997726
 31
0.0
  0
LINE
  5
166D
  8
2
 10
517.000000000001819
 20
43.4999999999997726
 30
0.0
 11
529.000000000001819
 21
43.4999999999997726
 31
0.0
  0
LINE
  5
166E
  8
2
 10
517.000000000001819
 20
43.4999999999997726
 30
0.0
 11
518.500000000001819
 21
41.9999999999997726
 31
0.0
  0
LINE
  5
166F
  8
2
 10
527.500000000001819
 20
41.9999999999997726
 30
0.0
 11
518.500000000001819
 21
41.9999999999997726
 31
0.0
  0
LINE
  5
1670
  8
2
 10
517.9000000000014552
 20
81.9999999999997726
 30
0.0
 11
517.9000000000014552
 21
69.9999999999995453
 31
0.0
  0
LINE
  5
1671
  8
2
 10
528.1000000000020691
 20
81.9999999999997726
 30
0.0
 11
529.000000000001819
 21
83.799999999999514
 31
0.0
  0
LINE
  5
1672
  8
2
 10
529.000000000001819
 20
43.4999999999997726
 30
0.0
 11
527.500000000001819
 21
41.9999999999997726
 31
0.0
  0
LINE
  5
1673
  8
2
 10
528.1000000000020691
 20
81.9999999999997726
 30
0.0
 11
528.1000000000020691
 21
69.9999999999995453
 31
0.0
  0
LINE
  5
1674
  8
2
 10
528.1000000000020691
 20
65.9999999999997726
 30
0.0
 11
528.1000000000020691
 21
42.5999999999992198
 31
0.0
  0
LINE
  5
1675
  8
2
 10
517.9000000000014552
 20
65.9999999999997726
 30
0.0
 11
517.9000000000014552
 21
42.5999999999992198
 31
0.0
  0
LINE
  5
1676
  8
2
 10
514.000000000001819
 20
98.2999999999998408
 30
0.0
 11
515.2124355652999839
 21
98.9999999999997726
 31
0.0
  0
LINE
  5
1677
  8
2
 10
532.000000000001819
 20
98.299999999999784
 30
0.0
 11
530.7875644347036541
 21
98.9999999999997726
 31
0.0
  0
LINE
  5
1678
  8
2
 10
514.000000000001819
 20
98.299999999999784
 30
0.0
 11
532.000000000001819
 21
98.299999999999784
 31
0.0
  0
LINE
  5
1679
  8
2
 10
515.2124355652999839
 20
98.9999999999997726
 30
0.0
 11
530.7875644347036541
 21
98.9999999999997726
 31
0.0
  0
LINE
  5
167A
  8
0
 10
209.0000000000017906
 20
72.0
 30
0.0
 11
209.0000000000017906
 21
65.9999999999995453
 31
0.0
  0
LINE
  5
167B
  8
0
 10
221.0
 20
65.9999999999995453
 30
0.0
 11
221.0
 21
72.0
 31
0.0
  0
LINE
  5
167C
  8
0
 10
226.0
 20
65.9999999999995453
 30
0.0
 11
204.0
 21
65.9999999999995453
 31
0.0
  0
LINE
  5
167D
  8
0
 10
226.0
 20
51.9999999999995381
 30
0.0
 11
226.0
 21
65.9999999999995453
 31
0.0
  0
LINE
  5
167E
  8
0
 10
226.0
 20
51.9999999999995381
 30
0.0
 11
232.5000000000017906
 21
51.9999999999995381
 31
0.0
  0
LINE
  5
167F
  8
0
 10
232.5000000000017906
 20
40.9999999999995381
 30
0.0
 11
232.5000000000017906
 21
51.9999999999995381
 31
0.0
  0
LINE
  5
1680
  8
0
 10
229.5000000000017906
 20
37.9999999999995381
 30
0.0
 11
232.5000000000017906
 21
40.9999999999995381
 31
0.0
  0
LINE
  5
1681
  8
0
 10
200.5000000000017906
 20
37.9999999999995381
 30
0.0
 11
229.5000000000017906
 21
37.9999999999995381
 31
0.0
  0
LINE
  5
1682
  8
0
 10
197.5000000000017906
 20
40.9999999999995381
 30
0.0
 11
200.5000000000017906
 21
37.9999999999995381
 31
0.0
  0
LINE
  5
1683
  8
0
 10
204.0
 20
51.9999999999995381
 30
0.0
 11
197.5000000000017906
 21
51.9999999999995381
 31
0.0
  0
LINE
  5
1684
  8
0
 10
204.0
 20
51.9999999999995381
 30
0.0
 11
204.0
 21
65.9999999999995453
 31
0.0
  0
LINE
  5
1685
  8
0
 10
197.5000000000017906
 20
51.9999999999995381
 30
0.0
 11
197.5000000000017906
 21
40.9999999999995381
 31
0.0
  0
LINE
  5
1686
  8
0
 10
232.5000000000017906
 20
69.9999999999995453
 30
0.0
 11
232.5000000000017906
 21
99.9999999999995453
 31
0.0
  0
LINE
  5
1687
  8
0
 10
197.5000000000017906
 20
69.9999999999995453
 30
0.0
 11
209.0000000000017906
 21
69.9999999999995453
 31
0.0
  0
LINE
  5
1688
  8
0
 10
197.5000000000017906
 20
69.9999999999995453
 30
0.0
 11
197.5000000000017906
 21
99.9999999999995453
 31
0.0
  0
LINE
  5
1689
  8
0
 10
197.5000000000017906
 20
99.9999999999995453
 30
0.0
 11
232.5000000000017906
 21
99.9999999999995453
 31
0.0
  0
LINE
  5
168A
  8
3
 10
220.0999999999976069
 20
72.0
 30
0.0
 11
220.1000000000003922
 21
65.9999999999995453
 31
0.0
  0
LINE
  5
168B
  8
3
 10
209.9000000000013983
 20
72.0
 30
0.0
 11
209.9000000000013983
 21
65.9999999999995453
 31
0.0
  0
LINE
  5
168C
  8
1
 10
215.0
 20
104.9999999999995026
 30
0.0
 11
215.0
 21
32.9999999999995381
 31
0.0
  0
LINE
  5
168D
  8
2
 10
197.5000000000017906
 20
72.0
 30
0.0
 11
232.5000000000017906
 21
72.0
 31
0.0
  0
LINE
  5
168E
  8
2
 10
197.5000000000017906
 20
89.4999999999995453
 30
0.0
 11
232.5000000000017906
 21
89.4999999999995453
 31
0.0
  0
LINE
  5
168F
  8
2
 10
205.0000000000017906
 20
86.9999999999995453
 30
0.0
 11
225.0000000000017906
 21
86.9999999999995453
 31
0.0
  0
LINE
  5
1690
  8
2
 10
205.0000000000017906
 20
99.9999999999995453
 30
0.0
 11
205.0000000000017906
 21
86.9999999999995453
 31
0.0
  0
LINE
  5
1691
  8
2
 10
225.0000000000017906
 20
86.9999999999995453
 30
0.0
 11
225.0000000000017906
 21
99.9999999999995453
 31
0.0
  0
LINE
  5
1692
  8
2
 10
224.0000000000017906
 20
86.9999999999995453
 30
0.0
 11
224.0000000000017906
 21
98.2999999999995708
 31
0.0
  0
LINE
  5
1693
  8
2
 10
206.0000000000017906
 20
98.2999999999996135
 30
0.0
 11
206.0000000000017906
 21
86.9999999999995453
 31
0.0
  0
LINE
  5
1694
  8
2
 10
221.5
 20
72.0
 30
0.0
 11
221.5
 21
86.9999999999995453
 31
0.0
  0
LINE
  5
1695
  8
2
 10
208.5
 20
86.9999999999995453
 30
0.0
 11
208.5
 21
72.0
 31
0.0
  0
LINE
  5
1696
  8
2
 10
209.0000000000017906
 20
86.9999999999995453
 30
0.0
 11
209.0000000000017906
 21
72.0
 31
0.0
  0
LINE
  5
1697
  8
2
 10
209.0000000000017906
 20
65.9999999999995453
 30
0.0
 11
209.0000000000017906
 21
43.4999999999995381
 31
0.0
  0
LINE
  5
1698
  8
2
 10
221.0000000000017906
 20
43.4999999999995381
 30
0.0
 11
221.0000000000017906
 21
65.9999999999995453
 31
0.0
  0
LINE
  5
1699
  8
2
 10
221.0000000000017906
 20
72.0
 30
0.0
 11
221.0000000000017906
 21
86.9999999999995453
 31
0.0
  0
LINE
  5
169A
  8
2
 10
209.9000000000013983
 20
81.9999999999995453
 30
0.0
 11
209.0000000000017906
 21
83.7999999999992724
 31
0.0
  0
LINE
  5
169B
  8
2
 10
209.0000000000017906
 20
81.9999999999995453
 30
0.0
 11
221.0000000000017906
 21
81.9999999999995453
 31
0.0
  0
LINE
  5
169C
  8
2
 10
209.0000000000017906
 20
43.4999999999995381
 30
0.0
 11
221.0000000000017906
 21
43.4999999999995381
 31
0.0
  0
LINE
  5
169D
  8
2
 10
209.0000000000017906
 20
43.4999999999995381
 30
0.0
 11
210.5000000000017906
 21
41.9999999999995381
 31
0.0
  0
LINE
  5
169E
  8
2
 10
219.5000000000017906
 20
41.9999999999995381
 30
0.0
 11
210.5000000000017906
 21
41.9999999999995381
 31
0.0
  0
LINE
  5
169F
  8
2
 10
209.9000000000013983
 20
81.9999999999995453
 30
0.0
 11
209.9000000000013983
 21
72.0
 31
0.0
  0
LINE
  5
16A0
  8
2
 10
220.1000000000020975
 20
81.9999999999995453
 30
0.0
 11
221.0000000000017906
 21
83.7999999999992724
 31
0.0
  0
LINE
  5
16A1
  8
2
 10
221.0000000000017906
 20
43.4999999999995381
 30
0.0
 11
219.5000000000017906
 21
41.9999999999995381
 31
0.0
  0
LINE
  5
16A2
  8
2
 10
220.1000000000020975
 20
81.9999999999995453
 30
0.0
 11
220.1000000000020975
 21
72.0
 31
0.0
  0
LINE
  5
16A3
  8
2
 10
220.1000000000020975
 20
65.9999999999995453
 30
0.0
 11
220.1000000000020975
 21
42.5999999999989996
 31
0.0
  0
LINE
  5
16A4
  8
2
 10
209.9000000000013983
 20
65.9999999999995453
 30
0.0
 11
209.9000000000013983
 21
42.5999999999989996
 31
0.0
  0
LINE
  5
16A5
  8
2
 10
206.0000000000017906
 20
98.2999999999996135
 30
0.0
 11
207.2124355653000123
 21
98.9999999999995453
 31
0.0
  0
LINE
  5
16A6
  8
2
 10
224.0000000000017906
 20
98.2999999999995566
 30
0.0
 11
222.7875644347035973
 21
98.9999999999995453
 31
0.0
  0
LINE
  5
16A7
  8
2
 10
206.0000000000017906
 20
98.2999999999995566
 30
0.0
 11
224.0000000000017906
 21
98.2999999999995566
 31
0.0
  0
LINE
  5
16A8
  8
2
 10
207.2124355653000123
 20
98.9999999999995453
 30
0.0
 11
222.7875644347035973
 21
98.9999999999995453
 31
0.0
  0
LINE
  5
16A9
  8
0
 10
221.0
 20
69.9999999999995453
 30
0.0
 11
232.5000000000017906
 21
69.9999999999995453
 31
0.0
  0
LINE
  5
16AA
  8
0
 10
352.000000000001819
 20
72.0
 30
0.0
 11
352.000000000001819
 21
65.9999999999995453
 31
0.0
  0
LINE
  5
16AB
  8
0
 10
364.0
 20
65.9999999999995453
 30
0.0
 11
364.0
 21
72.0
 31
0.0
  0
LINE
  5
16AC
  8
0
 10
369.0
 20
65.9999999999995453
 30
0.0
 11
347.0
 21
65.9999999999995453
 31
0.0
  0
LINE
  5
16AD
  8
0
 10
369.0
 20
51.9999999999995381
 30
0.0
 11
369.0
 21
65.9999999999995453
 31
0.0
  0
LINE
  5
16AE
  8
0
 10
369.0
 20
51.9999999999995381
 30
0.0
 11
375.500000000001819
 21
51.9999999999995381
 31
0.0
  0
LINE
  5
16AF
  8
0
 10
375.500000000001819
 20
40.9999999999995381
 30
0.0
 11
375.500000000001819
 21
51.9999999999995381
 31
0.0
  0
LINE
  5
16B0
  8
0
 10
372.500000000001819
 20
37.9999999999995381
 30
0.0
 11
375.500000000001819
 21
40.9999999999995381
 31
0.0
  0
LINE
  5
16B1
  8
0
 10
343.500000000001819
 20
37.9999999999995381
 30
0.0
 11
372.500000000001819
 21
37.9999999999995381
 31
0.0
  0
LINE
  5
16B2
  8
0
 10
340.500000000001819
 20
40.9999999999995381
 30
0.0
 11
343.500000000001819
 21
37.9999999999995381
 31
0.0
  0
LINE
  5
16B3
  8
0
 10
347.0
 20
51.9999999999995381
 30
0.0
 11
340.500000000001819
 21
51.9999999999995381
 31
0.0
  0
LINE
  5
16B4
  8
0
 10
347.0
 20
51.9999999999995381
 30
0.0
 11
347.0
 21
65.9999999999995453
 31
0.0
  0
LINE
  5
16B5
  8
0
 10
340.500000000001819
 20
51.9999999999995381
 30
0.0
 11
340.500000000001819
 21
40.9999999999995381
 31
0.0
  0
LINE
  5
16B6
  8
0
 10
375.500000000001819
 20
69.9999999999995453
 30
0.0
 11
375.500000000001819
 21
99.9999999999995453
 31
0.0
  0
LINE
  5
16B7
  8
0
 10
340.500000000001819
 20
69.9999999999995453
 30
0.0
 11
352.000000000001819
 21
69.9999999999995453
 31
0.0
  0
LINE
  5
16B8
  8
0
 10
364.0
 20
69.9999999999995453
 30
0.0
 11
375.500000000001819
 21
69.9999999999995453
 31
0.0
  0
LINE
  5
16B9
  8
0
 10
340.500000000001819
 20
69.9999999999995453
 30
0.0
 11
340.500000000001819
 21
99.9999999999995453
 31
0.0
  0
LINE
  5
16BA
  8
0
 10
340.500000000001819
 20
99.9999999999995453
 30
0.0
 11
375.500000000001819
 21
99.9999999999995453
 31
0.0
  0
LINE
  5
16BB
  8
3
 10
363.0999999999975785
 20
72.0
 30
0.0
 11
363.1000000000004206
 21
65.9999999999995453
 31
0.0
  0
LINE
  5
16BC
  8
3
 10
352.900000000001512
 20
72.0
 30
0.0
 11
352.900000000001512
 21
65.9999999999995453
 31
0.0
  0
LINE
  5
16BD
  8
1
 10
358.0
 20
104.9999999999995026
 30
0.0
 11
358.0
 21
32.9999999999995381
 31
0.0
  0
LINE
  5
16BE
  8
2
 10
340.500000000001819
 20
72.0
 30
0.0
 11
375.500000000001819
 21
72.0
 31
0.0
  0
LINE
  5
16BF
  8
2
 10
340.500000000001819
 20
89.4999999999995453
 30
0.0
 11
375.500000000001819
 21
89.4999999999995453
 31
0.0
  0
LINE
  5
16C0
  8
2
 10
348.000000000001819
 20
86.9999999999995453
 30
0.0
 11
368.000000000001819
 21
86.9999999999995453
 31
0.0
  0
LINE
  5
16C1
  8
2
 10
348.000000000001819
 20
99.9999999999995453
 30
0.0
 11
348.000000000001819
 21
86.9999999999995453
 31
0.0
  0
LINE
  5
16C2
  8
2
 10
368.000000000001819
 20
86.9999999999995453
 30
0.0
 11
368.000000000001819
 21
99.9999999999995453
 31
0.0
  0
LINE
  5
16C3
  8
2
 10
367.000000000001819
 20
86.9999999999995453
 30
0.0
 11
367.000000000001819
 21
98.2999999999995708
 31
0.0
  0
LINE
  5
16C4
  8
2
 10
349.000000000001819
 20
98.2999999999996135
 30
0.0
 11
349.000000000001819
 21
86.9999999999995453
 31
0.0
  0
LINE
  5
16C5
  8
2
 10
364.5
 20
72.0
 30
0.0
 11
364.5
 21
86.9999999999995453
 31
0.0
  0
LINE
  5
16C6
  8
2
 10
351.5
 20
86.9999999999995453
 30
0.0
 11
351.5
 21
72.0
 31
0.0
  0
LINE
  5
16C7
  8
2
 10
352.000000000001819
 20
86.9999999999995453
 30
0.0
 11
352.000000000001819
 21
72.0
 31
0.0
  0
LINE
  5
16C8
  8
2
 10
352.000000000001819
 20
65.9999999999995453
 30
0.0
 11
352.000000000001819
 21
43.4999999999995381
 31
0.0
  0
LINE
  5
16C9
  8
2
 10
364.000000000001819
 20
43.4999999999995381
 30
0.0
 11
364.000000000001819
 21
65.9999999999995453
 31
0.0
  0
LINE
  5
16CA
  8
2
 10
364.000000000001819
 20
72.0
 30
0.0
 11
364.000000000001819
 21
86.9999999999995453
 31
0.0
  0
LINE
  5
16CB
  8
2
 10
352.900000000001512
 20
81.9999999999995453
 30
0.0
 11
352.000000000001819
 21
83.7999999999992724
 31
0.0
  0
LINE
  5
16CC
  8
2
 10
352.000000000001819
 20
81.9999999999995453
 30
0.0
 11
364.000000000001819
 21
81.9999999999995453
 31
0.0
  0
LINE
  5
16CD
  8
2
 10
352.000000000001819
 20
43.4999999999995381
 30
0.0
 11
364.000000000001819
 21
43.4999999999995381
 31
0.0
  0
LINE
  5
16CE
  8
2
 10
352.000000000001819
 20
43.4999999999995381
 30
0.0
 11
353.500000000001819
 21
41.9999999999995381
 31
0.0
  0
LINE
  5
16CF
  8
2
 10
362.500000000001819
 20
41.9999999999995381
 30
0.0
 11
353.500000000001819
 21
41.9999999999995381
 31
0.0
  0
LINE
  5
16D0
  8
2
 10
352.900000000001512
 20
81.9999999999995453
 30
0.0
 11
352.900000000001512
 21
72.0
 31
0.0
  0
LINE
  5
16D1
  8
2
 10
363.1000000000021828
 20
81.9999999999995453
 30
0.0
 11
364.000000000001819
 21
83.7999999999992724
 31
0.0
  0
LINE
  5
16D2
  8
2
 10
364.000000000001819
 20
43.4999999999995381
 30
0.0
 11
362.500000000001819
 21
41.9999999999995381
 31
0.0
  0
LINE
  5
16D3
  8
2
 10
363.1000000000021828
 20
81.9999999999995453
 30
0.0
 11
363.1000000000021828
 21
72.0
 31
0.0
  0
LINE
  5
16D4
  8
2
 10
363.1000000000021828
 20
65.9999999999995453
 30
0.0
 11
363.1000000000021828
 21
42.5999999999989996
 31
0.0
  0
LINE
  5
16D5
  8
2
 10
352.900000000001512
 20
65.9999999999995453
 30
0.0
 11
352.900000000001512
 21
42.5999999999989996
 31
0.0
  0
LINE
  5
16D6
  8
2
 10
349.000000000001819
 20
98.2999999999996135
 30
0.0
 11
350.2124355652999839
 21
98.9999999999995453
 31
0.0
  0
LINE
  5
16D7
  8
2
 10
367.000000000001819
 20
98.2999999999995566
 30
0.0
 11
365.787564434703711
 21
98.9999999999995453
 31
0.0
  0
LINE
  5
16D8
  8
2
 10
349.000000000001819
 20
98.2999999999995566
 30
0.0
 11
367.000000000001819
 21
98.2999999999995566
 31
0.0
  0
LINE
  5
16D9
  8
2
 10
350.2124355652999839
 20
98.9999999999995453
 30
0.0
 11
365.787564434703711
 21
98.9999999999995453
 31
0.0
  0
LINE
  5
16DB
  8
0
 10
197.5000000000017906
 20
96.9999999999995453
 30
0.0
 11
232.5000000000017906
 21
96.9999999999995453
 31
0.0
  0
LINE
  5
16DC
  8
0
 10
340.500000000001819
 20
96.9999999999995453
 30
0.0
 11
375.500000000001819
 21
96.9999999999995453
 31
0.0
  0
ENDSEC
  0
EOF
