  0
SECTION
  2
HEADER
  9
$ACADVER
  1
AC1009
  9
$INSBASE
 10
0.0
 20
0.0
 30
0.0
  9
$EXTMIN
 10
0.0
 20
-14.80218281036835
 30
0.0
  9
$EXTMAX
 10
1268.9999899268139
 20
889.9999931454804
 30
0.0
  9
$LIMMIN
 10
0.0
 20
0.0
  9
$LIMMAX
 10
4205.0
 20
2970.0
  9
$ORTHOMODE
 70
     1
  9
$REGENMODE
 70
     1
  9
$FILLMODE
 70
     1
  9
$QTEXTMODE
 70
     0
  9
$MIRRTEXT
 70
     0
  9
$DRAGMODE
 70
     2
  9
$LTSCALE
 40
25.0
  9
$OSMODE
 70
    37
  9
$ATTMODE
 70
     1
  9
$TEXTSIZE
 40
6.0
  9
$TRACEWID
 40
0.05
  9
$TEXTSTYLE
  7
07500
  9
$CLAYER
  8
0
  9
$CELTYPE
  6
BYLAYER
  9
$CECOLOR
 62
   256
  9
$DIMSCALE
 40
5.0
  9
$DIMASZ
 40
1.5
  9
$DIMEXO
 40
1.0
  9
$DIMDLI
 40
10.0
  9
$DIMRND
 40
0.0
  9
$DIMDLE
 40
0.0
  9
$DIMEXE
 40
1.0
  9
$DIMTP
 40
0.0
  9
$DIMTM
 40
0.0
  9
$DIMTXT
 40
1.5
  9
$DIMCEN
 40
0.0
  9
$DIMTSZ
 40
0.0
  9
$DIMTOL
 70
     0
  9
$DIMLIM
 70
     0
  9
$DIMTIH
 70
     0
  9
$DIMTOH
 70
     0
  9
$DIMSE1
 70
     0
  9
$DIMSE2
 70
     0
  9
$DIMTAD
 70
     1
  9
$DIMZIN
 70
     8
  9
$DIMBLK
  1

  9
$DIMASO
 70
     0
  9
$DIMSHO
 70
     0
  9
$DIMPOST
  1

  9
$DIMAPOST
  1

  9
$DIMALT
 70
     0
  9
$DIMALTD
 70
     2
  9
$DIMALTF
 40
25.399999999999999
  9
$DIMLFAC
 40
1.0
  9
$DIMTOFL
 70
     1
  9
$DIMTVP
 40
1.6000000000000001
  9
$DIMTIX
 70
     1
  9
$DIMSOXD
 70
     0
  9
$DIMSAH
 70
     0
  9
$DIMBLK1
  1

  9
$DIMBLK2
  1

  9
$DIMSTYLE
  2
STANDARD
  9
$DIMCLRD
 70
     0
  9
$DIMCLRE
 70
     0
  9
$DIMCLRT
 70
     0
  9
$DIMTFAC
 40
1.0
  9
$DIMGAP
 40
1.0
  9
$LUNITS
 70
     2
  9
$LUPREC
 70
     1
  9
$SKETCHINC
 40
0.1
  9
$FILLETRAD
 40
0.0
  9
$AUNITS
 70
     0
  9
$AUPREC
 70
     1
  9
$MENU
  1
ME
  9
$ELEVATION
 40
0.0
  9
$PELEVATION
 40
0.0
  9
$THICKNESS
 40
0.0
  9
$LIMCHECK
 70
     0
  9
$BLIPMODE
 70
     0
  9
$CHAMFERA
 40
3.0
  9
$CHAMFERB
 40
3.0
  9
$SKPOLY
 70
     0
  9
$TDCREATE
 40
2451920.3634869209
  9
$TDUPDATE
 40
2458348.4410182289
  9
$TDINDWG
 40
0.9412471875
  9
$TDUSRTIMER
 40
0.9412451042
  9
$USRTIMER
 70
     1
  9
$ANGBASE
 50
0.0
  9
$ANGDIR
 70
     0
  9
$PDMODE
 70
     0
  9
$PDSIZE
 40
0.0
  9
$PLINEWID
 40
0.0
  9
$COORDS
 70
     1
  9
$SPLFRAME
 70
     0
  9
$SPLINETYPE
 70
     6
  9
$SPLINESEGS
 70
     8
  9
$ATTDIA
 70
     0
  9
$ATTREQ
 70
     1
  9
$HANDLING
 70
     1
  9
$HANDSEED
  5
12C1D
  9
$SURFTAB1
 70
     6
  9
$SURFTAB2
 70
     6
  9
$SURFTYPE
 70
     6
  9
$SURFU
 70
     6
  9
$SURFV
 70
     6
  9
$UCSNAME
  2

  9
$UCSORG
 10
0.0
 20
0.0
 30
0.0
  9
$UCSXDIR
 10
1.0
 20
0.0
 30
0.0
  9
$UCSYDIR
 10
0.0
 20
1.0
 30
0.0
  9
$PUCSNAME
  2

  9
$PUCSORG
 10
0.0
 20
0.0
 30
0.0
  9
$PUCSXDIR
 10
1.0
 20
0.0
 30
0.0
  9
$PUCSYDIR
 10
0.0
 20
1.0
 30
0.0
  9
$USERI1
 70
     1
  9
$USERI2
 70
     1
  9
$USERI3
 70
     5
  9
$USERI4
 70
     1
  9
$USERI5
 70
     0
  9
$USERR1
 40
5.0
  9
$USERR2
 40
3.0
  9
$USERR3
 40
1.5
  9
$USERR4
 40
1.5
  9
$USERR5
 40
10.0
  9
$WORLDVIEW
 70
     1
  9
$SHADEDGE
 70
     3
  9
$SHADEDIF
 70
    70
  9
$TILEMODE
 70
     1
  9
$MAXACTVP
 70
    16
  9
$PLIMCHECK
 70
     0
  9
$PEXTMIN
 10
1.0000000000000000E+020
 20
1.0000000000000000E+020
 30
1.0000000000000000E+020
  9
$PEXTMAX
 10
-1.0000000000000000E+020
 20
-1.0000000000000000E+020
 30
-1.0000000000000000E+020
  9
$PLIMMIN
 10
0.0
 20
0.0
  9
$PLIMMAX
 10
12.0
 20
9.0
  9
$UNITMODE
 70
     0
  9
$VISRETAIN
 70
     0
  9
$PLINEGEN
 70
     0
  9
$PSLTSCALE
 70
     0
  0
ENDSEC
  0
SECTION
  2
TABLES
  0
TABLE
  2
VPORT
 70
     1
  0
VPORT
  2
*ACTIVE
 70
     0
 10
0.0
 20
0.0
 11
1.0
 21
1.0
 12
908.11965811965797
 22
500.0
 13
0.0
 23
0.0
 14
5.0
 24
5.0
 15
10.0
 25
10.0
 16
0.0
 26
0.0
 36
1.0
 17
0.0
 27
0.0
 37
0.0
 40
1000.0
 41
1.816239316239316
 42
50.0
 43
0.0
 44
0.0
 50
0.0
 51
0.0
 71
     0
 72
  1000
 73
     1
 74
     0
 75
     0
 76
     0
 77
     0
 78
     1
  0
ENDTAB
  0
TABLE
  2
LTYPE
 70
     4
  0
LTYPE
  2
CONTINUOUS
 70
     0
  3
Solid Line
 72
    65
 73
     0
 40
0.0
  0
LTYPE
  2
CENTER
 70
     0
  3
____ _ ____ _ ____ _ ____ _ ____ _ ____ _ ____
 72
    65
 73
     4
 40
2.0
 49
1.25
 49
-0.25
 49
0.25
 49
-0.25
  0
LTYPE
  2
HIDDEN
 70
     0
  3
_ _ _ _ _ _ _ _ _ _ _ _ _ _ _ _ _ _ _ _ _ _ _
 72
    65
 73
     2
 40
0.375
 49
0.25
 49
-0.125
  0
LTYPE
  2
PHANTOM2
 70
     0
  3
___ _ _ ___ _ _ ___ _ _ ___ _ _
 72
    65
 73
     6
 40
1.25
 49
0.625
 49
-0.125
 49
0.125
 49
-0.125
 49
0.125
 49
-0.125
  0
ENDTAB
  0
TABLE
  2
LAYER
 70
     6
  0
LAYER
  2
0
 70
     0
 62
     7
  6
CONTINUOUS
  0
LAYER
  2
1
 70
     0
 62
     1
  6
CENTER
  0
LAYER
  2
2
 70
     0
 62
     2
  6
HIDDEN
  0
LAYER
  2
3
 70
     0
 62
     3
  6
CONTINUOUS
  0
LAYER
  2
DEFPOINTS
 70
     0
 62
     7
  6
CONTINUOUS
  0
LAYER
  2
5
 70
     0
 62
     3
  6
PHANTOM2
  0
ENDTAB
  0
TABLE
  2
STYLE
 70
     3
  0
STYLE
  2
STANDARD
 70
     0
 40
0.0
 41
1.0
 50
0.0
 71
     0
 42
3.0
  3
C:/r13/com/fonts/Romans
  4
C:/r13/com/fonts/Extfont
  0
STYLE
  2
07500
 70
     0
 40
0.0
 41
0.75
 50
0.0
 71
     0
 42
6.0
  3
C:/r13/com/fonts/Romans
  4
C:/r13/com/fonts/Extfont
  0
STYLE
  2
STANDARD1
 70
     0
 40
0.0
 41
1.0
 50
0.0
 71
     0
 42
3.0
  3
txt
  4

  0
ENDTAB
  0
TABLE
  2
VIEW
 70
     0
  0
ENDTAB
  0
TABLE
  2
UCS
 70
     0
  0
ENDTAB
  0
TABLE
  2
APPID
 70
    11
  0
APPID
  2
ACAD
 70
     0
  0
APPID
  2
ACAD_MLEADERVER
 70
     0
  0
APPID
  2
ACAD_EXEMPT_FROM_CAD_STANDARDS
 70
     0
  0
APPID
  2
ACAD_NAV_VCDISPLAY
 70
     0
  0
APPID
  2
ACAD_DSTYLE_DIMJAG
 70
     0
  0
APPID
  2
ACAD_DSTYLE_DIMTALN
 70
     0
  0
APPID
  2
ACAD_PSEXT
 70
     0
  0
APPID
  2
ACAD_DSTYLE_DIMBREAK
 70
     0
  0
APPID
  2
ACAECLAYERSTANDARD
 70
     0
  0
APPID
  2
ACCMTRANSPARENCY
 70
     0
  0
APPID
  2
ACAD_DSTYLE_DIM_LINETYPE
 70
     0
  0
ENDTAB
  0
TABLE
  2
DIMSTYLE
 70
     1
  0
DIMSTYLE
  2
STANDARD
 70
     0
  3

  4

  5

  6

  7

 40
1.0
 41
0.18
 42
0.0625
 43
0.38
 44
0.18
 45
0.0
 46
0.0
 47
0.0
 48
0.0
140
0.18
141
0.09
142
0.0
143
25.399999999999999
144
1.0
145
0.0
146
1.0
147
0.09
 71
     0
 72
     0
 73
     1
 74
     1
 75
     0
 76
     0
 77
     0
 78
     0
170
     0
171
     2
172
     0
173
     0
174
     0
175
     0
176
     0
177
     0
178
     0
  0
ENDTAB
  0
ENDSEC
  0
SECTION
  2
BLOCKS
  0
BLOCK
  8
0
  2
$MODEL_SPACE
 70
     0
 10
0.0
 20
0.0
 30
0.0
  3
$MODEL_SPACE
  1

  0
ENDBLK
  5
293
  8
0
  0
BLOCK
 67
     1
  8
0
  2
$PAPER_SPACE
 70
     0
 10
0.0
 20
0.0
 30
0.0
  3
$PAPER_SPACE
  1

  0
ENDBLK
  5
291
 67
     1
  8
0
  0
ENDSEC
  0
SECTION
  2
ENTITIES
  0
TEXT
  5
350
  8
0
 62
     3
 10
0.0
 20
0.0
 30
0.0
 40
50.0
  1
MVMF150X200
  7
STANDARD1
  0
LINE
  5
34C6
  8
0
 10
851.46630018949497
 20
590.99999666215444
 30
0.0
 11
851.99999272823334
 21
590.99999666215444
 31
0.0
  0
LINE
  5
34C9
  8
0
 10
851.99999272823334
 20
590.99999666215444
 30
0.0
 11
852.99999102950085
 21
590.99999666215444
 31
0.0
  0
LINE
  5
34CB
  8
0
 10
856.49999067187298
 20
591.36602133513952
 30
0.0
 11
853.6925746500491
 21
591.36602133513952
 31
0.0
  0
POLYLINE
  5
34CC
  8
0
 66
     1
 10
0.0
 20
0.0
 30
0.0
 70
   128
  0
VERTEX
  5
129D9
  8
0
 10
853.6925746500491
 20
591.36602133513952
 30
0.0
  0
VERTEX
  5
129DA
  8
0
 10
854.49153766036034
 20
591.49998277427221
 30
0.0
  0
VERTEX
  5
129DB
  8
0
 10
854.49999034404755
 20
591.49999767543341
 30
0.0
  0
SEQEND
  5
129DC
  8
0
  0
LINE
  5
34CD
  8
0
 10
908.49999104626431
 20
591.49999767543341
 30
0.0
 11
851.23314499622279
 21
591.49999767543341
 31
0.0
  0
ARC
  5
34D1
  8
0
 10
902.49999105930272
 20
556.99999785424734
 30
0.0
 40
6.0000000000000853
 50
270.0
 51
0.0
  0
LINE
  5
34D2
  8
0
 10
902.49999122694135
 20
550.99999755622412
 30
0.0
 11
865.99999129772175
 21
550.99999755622412
 31
0.0
  0
LINE
  5
34D3
  8
0
 10
908.49999104626431
 20
556.99999853970075
 30
0.0
 11
908.49999104626431
 21
591.49999767543363
 31
0.0
  0
LINE
  5
34D4
  8
0
 10
856.49999067187298
 20
580.20520806314005
 30
0.0
 11
856.49999067187298
 21
591.36602133513952
 31
0.0
  0
ARC
  5
34D5
  8
0
 10
854.49999105930294
 20
588.99999785424643
 30
0.0
 40
2.5000000000001679
 50
108.8424632421941
 51
164.61332241236559
  0
ARC
  5
34D6
  8
0
 10
854.49999105930294
 20
588.99999785424643
 30
0.0
 40
2.5000000000000839
 50
245.38667758763461
 51
323.13010235415538
  0
ARC
  5
34D7
  8
0
 10
854.49999105930294
 20
588.99999785424643
 30
0.0
 40
2.0000000000001701
 50
222.80340300542861
 51
0.0
  0
ARC
  5
34D8
  8
0
 10
854.49999105930294
 20
588.99999785424643
 30
0.0
 40
2.0000000000001701
 50
90.0
 51
187.19659699456361
  0
LINE
  5
34D9
  8
0
 10
854.49999034404755
 20
590.99999666215444
 30
0.0
 11
856.49999067187298
 21
590.99999666215444
 31
0.0
  0
ARC
  5
34DA
  8
0
 10
854.49999105930294
 20
588.99999785424643
 30
0.0
 40
2.5000000000001701
 50
36.86989764584461
 51
45.000000000009742
  0
ARC
  5
34DB
  8
0
 10
854.49999105930294
 20
588.99999785424643
 30
0.0
 40
2.0000000000001701
 50
0.0
 51
44.999999999992468
  0
LINE
  5
34DC
  8
0
 10
856.26775979995716
 20
590.76776206494833
 30
0.0
 11
855.91420367360115
 21
590.4142096638825
 31
0.0
  0
LINE
  5
3515
  8
0
 10
853.99998933076847
 20
585.56647449733282
 30
0.0
 11
853.99998933076847
 21
586.55050992967153
 31
0.0
  0
LINE
  5
351B
  8
0
 10
909.99999105930283
 20
515.9999974072125
 30
0.0
 11
910.49999108305155
 21
516.49999842049135
 31
0.0
  0
LINE
  5
351C
  8
0
 10
853.49999204277981
 20
586.63873225451971
 30
0.0
 11
853.49999204277981
 21
586.70870810748602
 31
0.0
  0
LINE
  5
3521
  8
0
 10
908.49999104626431
 20
590.99999666215444
 30
0.0
 11
909.99999105930283
 21
590.99999666215444
 31
0.0
  0
LINE
  5
3523
  8
0
 10
910.49999108305155
 20
590.49999564887537
 30
0.0
 11
910.49999108305155
 21
516.49999842049135
 31
0.0
  0
LINE
  5
3525
  8
0
 10
910.49999108305155
 20
590.49999564887537
 30
0.0
 11
909.99999105930283
 21
590.99999666215444
 31
0.0
  0
LINE
  5
352A
  8
0
 10
806.99999094009388
 20
551.99999958278204
 30
0.0
 11
806.99999094009388
 21
562.49999850989843
 31
0.0
  0
LINE
  5
352B
  8
0
 10
806.99999094009388
 20
562.49999850989843
 30
0.0
 11
801.7371094226836
 21
562.49999850989843
 31
0.0
  0
LINE
  5
352C
  8
0
 10
790.27205447300094
 20
593.99999529124761
 30
0.0
 11
801.7371094226836
 21
562.49999850989843
 31
0.0
  0
LINE
  5
352E
  8
0
 10
850.9999907016753
 20
591.99999868871225
 30
0.0
 11
865.99999129772175
 21
559.83239263297583
 31
0.0
  0
LINE
  5
352F
  8
0
 10
790.99998831748962
 20
591.99999868871225
 30
0.0
 11
850.9999907016753
 21
591.99999868871225
 31
0.0
  0
LINE
  5
3532
  8
0
 10
865.99999129772175
 20
544.99999657274736
 30
0.0
 11
865.99999129772175
 21
559.83239263297583
 31
0.0
  0
LINE
  5
3537
  8
0
 10
790.99998831748962
 20
544.99999657274736
 30
0.0
 11
791.99999034404755
 21
543.99999827147985
 31
0.0
  0
LINE
  5
3538
  8
0
 10
790.99998831748962
 20
550.99999755622412
 30
0.0
 11
790.99998831748962
 21
544.99999657274736
 31
0.0
  0
LINE
  5
3539
  8
0
 10
791.99999034404755
 20
551.99999958278204
 30
0.0
 11
790.99998831748962
 21
550.99999755622412
 31
0.0
  0
LINE
  5
353B
  8
0
 10
864.99998927116394
 20
543.99999827147985
 30
0.0
 11
865.99999129772175
 21
544.99999657274736
 31
0.0
  0
ARC
  5
353C
  8
0
 10
801.39999105930281
 20
562.0999978542477
 30
0.0
 40
0.3999999999999204
 50
180.0
 51
0.0
  0
LINE
  5
353D
  8
0
 10
801.79999232292175
 20
562.39999681712652
 30
0.0
 11
801.79999232292175
 21
562.09999918939127
 31
0.0
  0
LINE
  5
353E
  8
0
 10
805.499987900257
 20
562.39999681712652
 30
0.0
 11
801.79999232292175
 21
562.39999681712652
 31
0.0
  0
LINE
  5
353F
  8
0
 10
805.499987900257
 20
551.99999958278204
 30
0.0
 11
805.499987900257
 21
562.39999681712652
 31
0.0
  0
LINE
  5
3540
  8
0
 10
780.99999785423279
 20
551.99999958278204
 30
0.0
 11
806.99999094009388
 21
551.99999958278204
 31
0.0
  0
LINE
  5
3541
  8
0
 10
780.99999785423279
 20
593.99999529124761
 30
0.0
 11
780.99999785423279
 21
551.99999958278204
 31
0.0
  0
LINE
  5
3542
  8
0
 10
790.26998788118362
 20
593.99999529124761
 30
0.0
 11
780.99999785423279
 21
593.99999529124761
 31
0.0
  0
LINE
  5
3544
  8
0
 10
800.99999368190765
 20
562.09999918939127
 30
0.0
 11
800.99999368190765
 21
564.47146683932795
 31
0.0
  0
LINE
  5
3545
  8
0
 10
580.99997639656056
 20
593.99999529124761
 30
0.0
 11
571.72999382019043
 21
593.99999529124761
 31
0.0
  0
LINE
  5
3546
  8
0
 10
580.99997639656056
 20
551.99999958278204
 30
0.0
 11
580.99997639656056
 21
593.99999529124761
 31
0.0
  0
LINE
  5
3547
  8
0
 10
580.99997639656056
 20
551.99999958278204
 30
0.0
 11
554.99998331069935
 21
551.99999958278204
 31
0.0
  0
LINE
  5
3548
  8
0
 10
556.49999380111694
 20
551.99999958278204
 30
0.0
 11
556.49999380111694
 21
562.39999681712652
 31
0.0
  0
LINE
  5
3549
  8
0
 10
556.49999380111694
 20
562.39999681712652
 30
0.0
 11
560.1999819278717
 21
562.39999681712652
 31
0.0
  0
LINE
  5
354A
  8
0
 10
560.1999819278717
 20
562.09999918939127
 30
0.0
 11
560.1999819278717
 21
562.39999681712652
 31
0.0
  0
ARC
  5
354B
  8
0
 10
560.59998450279272
 20
562.0999978542477
 30
0.0
 40
0.3999999999999204
 50
179.99999999998701
 51
0.0
  0
LINE
  5
354C
  8
0
 10
560.99999547004688
 20
562.09999918939127
 30
0.0
 11
560.99999547004688
 21
564.47146683932795
 31
0.0
  0
LINE
  5
354E
  8
0
 10
521.49999737739563
 20
538.99999931456114
 30
0.0
 11
532.49997496604908
 21
538.99999931456114
 31
0.0
  0
LINE
  5
3553
  8
0
 10
520.99997401237476
 20
539.4999966025498
 30
0.0
 11
521.49999737739563
 21
538.99999931456114
 31
0.0
  0
LINE
  5
355A
  8
0
 10
532.49997496604908
 20
538.99999931456114
 30
0.0
 11
532.99999833106995
 21
539.4999966025498
 31
0.0
  0
LINE
  5
355E
  8
0
 10
521.49999737739563
 20
548.99999722839846
 30
0.0
 11
520.99997401237476
 21
548.49999621511961
 31
0.0
  0
LINE
  5
3560
  8
0
 10
532.99999833106995
 20
548.49999621511961
 30
0.0
 11
532.49997496604908
 21
548.99999722839846
 31
0.0
  0
LINE
  5
3571
  8
0
 10
520.99997401237465
 20
538.19999694825674
 30
0.0
 11
520.99997401237476
 21
548.99999722839846
 31
0.0
  0
LINE
  5
3576
  8
0
 10
532.99999833106995
 20
548.99999722839846
 30
0.0
 11
532.99999833106995
 21
538.19999694825674
 31
0.0
  0
LINE
  5
3579
  8
0
 10
495.99999785423267
 20
544.99999657274736
 30
0.0
 11
496.99998497962952
 21
543.99999827147985
 31
0.0
  0
LINE
  5
357C
  8
0
 10
496.99998497962952
 20
591.99999868871225
 30
0.0
 11
495.99999785423267
 21
590.99999666215444
 31
0.0
  0
LINE
  5
357E
  8
0
 10
496.99998497962952
 20
591.99999868871225
 30
0.0
 11
570.69999575614918
 21
591.99999868871225
 31
0.0
  0
LINE
  5
357F
  8
0
 10
570.69999575614918
 20
591.99999868871225
 30
0.0
 11
570.91993689537037
 21
591.78005009891046
 31
0.0
  0
LINE
  5
3582
  8
0
 10
495.99999785423267
 20
544.99999657274736
 30
0.0
 11
495.99999785423267
 21
555.99999651314283
 31
0.0
  0
LINE
  5
3583
  8
0
 10
496.57571911811817
 20
556.57573267818952
 30
0.0
 11
495.99999785423267
 21
555.99999651314283
 31
0.0
  0
ARC
  5
3584
  8
0
 10
496.15145636536818
 20
556.99999785424734
 30
0.0
 40
0.6000000000001095
 50
315.0000000000075
 51
44.999999999992468
  0
LINE
  5
3585
  8
0
 10
495.99999785423267
 20
557.99999684096827
 30
0.0
 11
496.57571911811817
 21
557.42426067592169
 31
0.0
  0
LINE
  5
3586
  8
0
 10
495.99999785423267
 20
557.99999684096827
 30
0.0
 11
495.99999785423267
 21
560.99999547006155
 31
0.0
  0
LINE
  5
3587
  8
0
 10
496.57571911811817
 20
561.57573163510824
 30
0.0
 11
495.99999785423267
 21
560.99999547006155
 31
0.0
  0
ARC
  5
3588
  8
0
 10
496.15145636536818
 20
561.99999785424734
 30
0.0
 40
0.6000000000001095
 50
315.0000000000075
 51
44.999999999992468
  0
LINE
  5
3589
  8
0
 10
495.99999785423267
 20
562.99999952317739
 30
0.0
 11
496.57571911811817
 21
562.4242633581307
 31
0.0
  0
LINE
  5
358A
  8
0
 10
495.99999785423267
 20
562.99999952317739
 30
0.0
 11
495.99999785423267
 21
565.99999815227045
 31
0.0
  0
LINE
  5
358B
  8
0
 10
496.57571911811817
 20
566.57573431731726
 30
0.0
 11
495.99999785423267
 21
565.99999815227045
 31
0.0
  0
ARC
  5
358C
  8
0
 10
496.15145636536818
 20
566.99999785424734
 30
0.0
 40
0.6000000000001095
 50
315.0000000000075
 51
44.999999999992468
  0
LINE
  5
358D
  8
0
 10
495.99999785423267
 20
567.99999475480581
 30
0.0
 11
496.57571911811817
 21
567.42425858975912
 31
0.0
  0
LINE
  5
358E
  8
0
 10
495.99999785423267
 20
567.99999475480581
 30
0.0
 11
495.99999785423267
 21
571.00000083447947
 31
0.0
  0
LINE
  5
358F
  8
0
 10
496.57571911811817
 20
571.57573699952616
 30
0.0
 11
495.99999785423267
 21
571.00000083447947
 31
0.0
  0
ARC
  5
3590
  8
0
 10
496.15145636536818
 20
571.99999785424734
 30
0.0
 40
0.6000000000001095
 50
315.0000000000075
 51
44.999999999992468
  0
LINE
  5
3591
  8
0
 10
495.99999785423267
 20
572.99999743701483
 30
0.0
 11
496.57571911811817
 21
572.42426127196813
 31
0.0
  0
LINE
  5
3592
  8
0
 10
495.99999785423267
 20
572.99999743701483
 30
0.0
 11
495.99999785423267
 21
575.999996066108
 31
0.0
  0
LINE
  5
3593
  8
0
 10
496.57571911811817
 20
576.57573223115469
 30
0.0
 11
495.99999785423267
 21
575.999996066108
 31
0.0
  0
ARC
  5
3594
  8
0
 10
496.15145636536818
 20
576.99999785424734
 30
0.0
 40
0.6000000000001095
 50
315.0000000000075
 51
44.999999999992468
  0
LINE
  5
3595
  8
0
 10
495.99999785423267
 20
578.00000011922384
 30
0.0
 11
496.57571911811817
 21
577.42426395417715
 31
0.0
  0
LINE
  5
3596
  8
0
 10
495.99999785423267
 20
578.00000011922384
 30
0.0
 11
495.99999785423267
 21
580.99999874831701
 31
0.0
  0
LINE
  5
3597
  8
0
 10
496.57571911811817
 20
581.5757349133637
 30
0.0
 11
495.99999785423267
 21
580.99999874831701
 31
0.0
  0
ARC
  5
3598
  8
0
 10
496.15145636536818
 20
581.99999785424734
 30
0.0
 40
0.6000000000000089
 50
315.0000000000075
 51
44.999999999991317
  0
LINE
  5
3599
  8
0
 10
495.99999785423267
 20
582.99999535085215
 30
0.0
 11
496.57571911811817
 21
582.42425918580545
 31
0.0
  0
LINE
  5
359A
  8
0
 10
495.99999785423267
 20
582.99999535085215
 30
0.0
 11
495.99999785423267
 21
586.00000143052603
 31
0.0
  0
LINE
  5
359B
  8
0
 10
496.57571911811817
 20
586.57573014499212
 30
0.0
 11
495.99999785423267
 21
586.00000143052603
 31
0.0
  0
ARC
  5
359C
  8
0
 10
496.15145636536818
 20
586.99999785424734
 30
0.0
 40
0.6000000000000089
 50
315.0000000000075
 51
44.999999999992468
  0
LINE
  5
359D
  8
0
 10
496.57571911811817
 20
587.42426186801447
 30
0.0
 11
495.99999785423267
 21
587.99999803306116
 31
0.0
  0
LINE
  5
359E
  8
0
 10
495.99999785423267
 20
587.99999803306116
 30
0.0
 11
495.99999785423267
 21
590.99999666215444
 31
0.0
  0
LINE
  5
35A3
  8
0
 10
554.99998331069935
 20
551.99999958278204
 30
0.0
 11
554.99998331069935
 21
562.49999850989843
 31
0.0
  0
LINE
  5
35A4
  8
0
 10
569.9999988079071
 20
551.99999958278204
 30
0.0
 11
570.99998593330383
 21
550.99999755622412
 31
0.0
  0
LINE
  5
35A7
  8
0
 10
560.26286482810974
 20
562.49999850989843
 30
0.0
 11
571.72999382019043
 21
593.99999529124761
 31
0.0
  0
LINE
  5
35A8
  8
0
 10
554.99998331069935
 20
562.49999850989843
 30
0.0
 11
560.26286482810974
 21
562.49999850989843
 31
0.0
  0
LINE
  5
35A9
  8
0
 10
570.99998593330383
 20
550.99999755622412
 30
0.0
 11
570.99998593330383
 21
544.99999657274736
 31
0.0
  0
LINE
  5
35AB
  8
0
 10
569.9999988079071
 20
543.99999827147985
 30
0.0
 11
570.99998593330383
 21
544.99999657274736
 31
0.0
  0
LINE
  5
35B0
  8
0
 10
909.99999105930283
 20
495.99999785424728
 30
0.0
 11
496.99998497962952
 21
495.9999978542088
 31
0.0
  0
LINE
  5
35BB
  8
0
 10
496.99998497962952
 20
543.99999827147985
 30
0.0
 11
520.99997401237476
 21
543.99999827147985
 31
0.0
  0
LINE
  5
35BE
  8
0
 10
496.99998497962952
 20
495.99999785424728
 30
0.0
 11
496.99998497962952
 21
543.99999827147985
 31
0.0
  0
LINE
  5
35C2
  8
0
 10
532.99999833106995
 20
538.19999694825674
 30
0.0
 11
520.99997401237476
 21
538.19999694825674
 31
0.0
  0
LINE
  5
35C6
  8
0
 10
909.99999105930283
 20
528.49999666215444
 30
0.0
 11
496.99998497962952
 21
528.49999666215444
 31
0.0
  0
LINE
  5
35C9
  8
0
 10
496.99998497962952
 20
515.49999825657869
 30
0.0
 11
909.99999105930283
 21
515.49999825657869
 31
0.0
  0
LINE
  5
35CD
  8
0
 10
532.99999833106995
 20
543.99999827147985
 30
0.0
 11
909.99999105930283
 21
543.99999827147985
 31
0.0
  0
LINE
  5
35CE
  8
0
 10
909.99999105930283
 20
543.99999827147985
 30
0.0
 11
909.99999105930283
 21
495.99999785424728
 31
0.0
  0
LINE
  5
35D0
  8
0
 10
619.99998092651356
 20
500.99999774248857
 30
0.0
 11
619.99998092651356
 21
495.99999785421909
 31
0.0
  0
LINE
  5
35D1
  8
0
 10
614.49999213218678
 20
500.99999774248857
 30
0.0
 11
619.99998092651356
 21
500.99999774248857
 31
0.0
  0
LINE
  5
35D2
  8
0
 10
614.49999213218678
 20
500.99999774248857
 30
0.0
 11
614.49999213218678
 21
501.49999782444502
 31
0.0
  0
LINE
  5
35D3
  8
0
 10
607.49999284744263
 20
501.49999782444502
 30
0.0
 11
614.49999213218678
 21
501.49999782444502
 31
0.0
  0
LINE
  5
35D4
  8
0
 10
607.49999284744263
 20
501.49999782444502
 30
0.0
 11
607.49999284744263
 21
500.99999774248857
 31
0.0
  0
LINE
  5
35D5
  8
0
 10
601.99997425079334
 20
500.99999774248857
 30
0.0
 11
607.49999284744263
 21
500.99999774248857
 31
0.0
  0
LINE
  5
35D6
  8
0
 10
601.99997425079334
 20
495.99999785424728
 30
0.0
 11
601.99997425079334
 21
500.99999774248857
 31
0.0
  0
LINE
  5
3AF7
  8
2
 10
617.24997162818897
 20
508.74999761582882
 30
0.0
 11
604.74998354911804
 21
508.74999761582882
 31
0.0
  0
LINE
  5
3AF8
  8
2
 10
817.24999338388443
 20
508.74999761583808
 30
0.0
 11
804.74999040365219
 21
508.74999761583808
 31
0.0
  0
LINE
  5
3CB2
  8
2
 10
597.4999725818634
 20
515.9999974072125
 30
0.0
 11
604.74998354911804
 21
508.74999761582882
 31
0.0
  0
LINE
  5
3CB3
  8
2
 10
617.24997162818897
 20
508.74999761582882
 30
0.0
 11
624.49998259544373
 21
515.9999974072125
 31
0.0
  0
LINE
  5
3CB4
  8
2
 10
797.50000923871994
 20
515.99999740722183
 30
0.0
 11
804.74999040365219
 21
508.74999761583808
 31
0.0
  0
LINE
  5
3CB5
  8
2
 10
817.24999338388443
 20
508.74999761583808
 30
0.0
 11
824.50000435113907
 21
515.99999740722183
 31
0.0
  0
LINE
  5
3CBE
  8
2
 10
804.74999040365219
 20
508.74999761583808
 30
0.0
 11
804.74999040365219
 21
495.99999785425661
 31
0.0
  0
LINE
  5
3CBF
  8
2
 10
817.24999338388443
 20
495.99999785425661
 30
0.0
 11
817.24999338388443
 21
508.74999761583808
 31
0.0
  0
LINE
  5
3CC2
  8
2
 10
604.74998354911804
 20
508.74999761582882
 30
0.0
 11
604.74998354911804
 21
495.9999978542179
 31
0.0
  0
LINE
  5
3CC3
  8
2
 10
617.24997162818886
 20
495.99999785421898
 30
0.0
 11
617.24997162818897
 21
508.74999761582882
 31
0.0
  0
LINE
  5
3CD7
  8
0
 10
851.99999272823516
 20
843.49999390543962
 30
0.0
 11
851.99999272823516
 21
827.24999450148596
 31
0.0
  0
LINE
  5
3D3A
  8
0
 10
536.07178330421436
 20
766.99999347330595
 30
0.0
 11
539.53588604927063
 21
760.99999248982931
 31
0.0
  0
LINE
  5
3D3B
  8
0
 10
539.53588604927063
 20
760.99999248982931
 30
0.0
 11
546.46409153938293
 21
760.99999248982931
 31
0.0
  0
LINE
  5
3D3C
  8
0
 10
546.46409153938293
 20
760.99999248982931
 30
0.0
 11
549.92819428443897
 21
766.99999347330595
 31
0.0
  0
LINE
  5
3D3D
  8
0
 10
549.92819428443897
 20
766.99999347330595
 30
0.0
 11
546.46409153938293
 21
772.99999445678259
 31
0.0
  0
LINE
  5
3D3E
  8
0
 10
546.46409153938293
 20
772.99999445678259
 30
0.0
 11
539.53588604927063
 21
772.99999445678259
 31
0.0
  0
LINE
  5
3D3F
  8
0
 10
539.53588604927063
 20
772.99999445678259
 30
0.0
 11
536.07178330421436
 21
766.99999347330595
 31
0.0
  0
CIRCLE
  5
3D40
  8
0
 10
542.9999845027919
 20
766.9999942183631
 30
0.0
 40
10.49999999999997
  0
LINE
  5
3D5E
  8
0
 10
851.99999272823516
 20
790.49999453128839
 30
0.0
 11
851.99999272823493
 21
806.74999393524195
 31
0.0
  0
LINE
  5
3D6B
  8
0
 10
857.9999899864215
 20
827.24999450148596
 30
0.0
 11
857.9999899864215
 21
806.74999393524195
 31
0.0
  0
LINE
  5
3D6F
  8
0
 10
908.49999104626613
 20
789.99999351800943
 30
0.0
 11
908.49999104626613
 21
843.99999491871802
 31
0.0
  0
LINE
  5
3D73
  8
0
 10
851.99999272823516
 20
827.24999450148596
 30
0.0
 11
857.9999899864215
 21
827.24999450148596
 31
0.0
  0
LINE
  5
3D76
  8
0
 10
856.49999067187503
 20
843.49999390543962
 30
0.0
 11
851.99999272823516
 21
843.49999390544008
 31
0.0
  0
LINE
  5
3D77
  8
0
 10
856.49999067187503
 20
843.99999491871847
 30
0.0
 11
856.49999067187503
 21
843.49999390543962
 31
0.0
  0
LINE
  5
3D7A
  8
0
 10
857.9999899864215
 20
806.74999393524195
 30
0.0
 11
851.99999272823516
 21
806.74999393524195
 31
0.0
  0
LINE
  5
441D
  8
0
 10
908.49999104626613
 20
842.89999492467905
 30
0.0
 11
909.99999105930465
 21
842.89999492467905
 31
0.0
  0
LINE
  5
4424
  8
0
 10
910.49999108305326
 20
842.39999391140009
 30
0.0
 11
910.49999108305326
 21
791.59999638797262
 31
0.0
  0
LINE
  5
4425
  8
0
 10
910.49999108305326
 20
842.39999391140009
 30
0.0
 11
909.99999105930465
 21
842.89999492467905
 31
0.0
  0
LINE
  5
4433
  8
0
 10
790.99998831749144
 20
888.89999687673105
 30
0.0
 11
790.99998831749144
 21
745.09999155999685
 31
0.0
  0
LINE
  5
4435
  8
0
 10
850.99999070167735
 20
745.09999155999685
 30
0.0
 11
850.99999070167735
 21
888.89999687673105
 31
0.0
  0
LINE
  5
443E
  8
0
 10
865.99999129772368
 20
888.89999687673105
 30
0.0
 11
865.99999129772368
 21
843.99999491871847
 31
0.0
  0
LINE
  5
443F
  8
0
 10
909.99999105930465
 20
843.99999491871847
 30
0.0
 11
850.99999070167735
 21
843.99999491871847
 31
0.0
  0
POLYLINE
  5
4440
  8
0
 10
860.32614422240465
 20
854.99999421836424
 30
0.0
 66
     1
 70
     8
  0
VERTEX
  8
0
  5
12A15
 10
860.326
 20
855.000
 30
0.000000
  70
    32
  0
VERTEX
  8
0
  5
12A16
 10
860.223
 20
854.995
 30
0.000000
  70
    32
  0
VERTEX
  8
0
  5
12A17
 10
860.120
 20
854.978
 30
0.000000
  70
    32
  0
VERTEX
  8
0
  5
12A18
 10
860.018
 20
854.951
 30
0.000000
  70
    32
  0
VERTEX
  8
0
  5
12A19
 10
859.917
 20
854.914
 30
0.000000
  70
    32
  0
VERTEX
  8
0
  5
12A1A
 10
859.816
 20
854.865
 30
0.000000
  70
    32
  0
VERTEX
  8
0
  5
12A1B
 10
859.717
 20
854.806
 30
0.000000
  70
    32
  0
VERTEX
  8
0
  5
12A1C
 10
859.619
 20
854.737
 30
0.000000
  70
    32
  0
VERTEX
  8
0
  5
12A1D
 10
859.523
 20
854.657
 30
0.000000
  70
    32
  0
VERTEX
  8
0
  5
12A1E
 10
859.429
 20
854.568
 30
0.000000
  70
    32
  0
VERTEX
  8
0
  5
12A1F
 10
859.337
 20
854.469
 30
0.000000
  70
    32
  0
VERTEX
  8
0
  5
12A20
 10
859.247
 20
854.360
 30
0.000000
  70
    32
  0
VERTEX
  8
0
  5
12A21
 10
859.160
 20
854.242
 30
0.000000
  70
    32
  0
VERTEX
  8
0
  5
12A22
 10
859.076
 20
854.114
 30
0.000000
  70
    32
  0
VERTEX
  8
0
  5
12A23
 10
858.995
 20
853.979
 30
0.000000
  70
    32
  0
VERTEX
  8
0
  5
12A24
 10
858.917
 20
853.834
 30
0.000000
  70
    32
  0
VERTEX
  8
0
  5
12A25
 10
858.842
 20
853.682
 30
0.000000
  70
    32
  0
VERTEX
  8
0
  5
12A26
 10
858.771
 20
853.522
 30
0.000000
  70
    32
  0
VERTEX
  8
0
  5
12A27
 10
858.704
 20
853.355
 30
0.000000
  70
    32
  0
VERTEX
  8
0
  5
12A28
 10
858.641
 20
853.181
 30
0.000000
  70
    32
  0
VERTEX
  8
0
  5
12A29
 10
858.581
 20
853.000
 30
0.000000
  70
    32
  0
VERTEX
  8
0
  5
12A2A
 10
858.526
 20
852.813
 30
0.000000
  70
    32
  0
VERTEX
  8
0
  5
12A2B
 10
858.476
 20
852.621
 30
0.000000
  70
    32
  0
VERTEX
  8
0
  5
12A2C
 10
858.429
 20
852.424
 30
0.000000
  70
    32
  0
VERTEX
  8
0
  5
12A2D
 10
858.387
 20
852.222
 30
0.000000
  70
    32
  0
VERTEX
  8
0
  5
12A2E
 10
858.350
 20
852.016
 30
0.000000
  70
    32
  0
VERTEX
  8
0
  5
12A2F
 10
858.318
 20
851.806
 30
0.000000
  70
    32
  0
VERTEX
  8
0
  5
12A30
 10
858.291
 20
851.593
 30
0.000000
  70
    32
  0
VERTEX
  8
0
  5
12A31
 10
858.268
 20
851.378
 30
0.000000
  70
    32
  0
VERTEX
  8
0
  5
12A32
 10
858.250
 20
851.160
 30
0.000000
  70
    32
  0
VERTEX
  8
0
  5
12A33
 10
858.238
 20
850.941
 30
0.000000
  70
    32
  0
VERTEX
  8
0
  5
12A34
 10
858.230
 20
850.721
 30
0.000000
  70
    32
  0
VERTEX
  8
0
  5
12A35
 10
858.228
 20
850.500
 30
0.000000
  70
    32
  0
VERTEX
  8
0
  5
12A36
 10
858.230
 20
850.279
 30
0.000000
  70
    32
  0
VERTEX
  8
0
  5
12A37
 10
858.238
 20
850.059
 30
0.000000
  70
    32
  0
VERTEX
  8
0
  5
12A38
 10
858.250
 20
849.840
 30
0.000000
  70
    32
  0
VERTEX
  8
0
  5
12A39
 10
858.268
 20
849.622
 30
0.000000
  70
    32
  0
VERTEX
  8
0
  5
12A3A
 10
858.291
 20
849.407
 30
0.000000
  70
    32
  0
VERTEX
  8
0
  5
12A3B
 10
858.318
 20
849.194
 30
0.000000
  70
    32
  0
VERTEX
  8
0
  5
12A3C
 10
858.350
 20
848.984
 30
0.000000
  70
    32
  0
VERTEX
  8
0
  5
12A3D
 10
858.387
 20
848.778
 30
0.000000
  70
    32
  0
VERTEX
  8
0
  5
12A3E
 10
858.429
 20
848.576
 30
0.000000
  70
    32
  0
VERTEX
  8
0
  5
12A3F
 10
858.476
 20
848.379
 30
0.000000
  70
    32
  0
VERTEX
  8
0
  5
12A40
 10
858.526
 20
848.187
 30
0.000000
  70
    32
  0
VERTEX
  8
0
  5
12A41
 10
858.581
 20
848.000
 30
0.000000
  70
    32
  0
VERTEX
  8
0
  5
12A42
 10
858.641
 20
847.819
 30
0.000000
  70
    32
  0
VERTEX
  8
0
  5
12A43
 10
858.704
 20
847.645
 30
0.000000
  70
    32
  0
VERTEX
  8
0
  5
12A44
 10
858.771
 20
847.478
 30
0.000000
  70
    32
  0
VERTEX
  8
0
  5
12A45
 10
858.842
 20
847.318
 30
0.000000
  70
    32
  0
VERTEX
  8
0
  5
12A46
 10
858.917
 20
847.166
 30
0.000000
  70
    32
  0
VERTEX
  8
0
  5
12A47
 10
858.995
 20
847.021
 30
0.000000
  70
    32
  0
VERTEX
  8
0
  5
12A48
 10
859.076
 20
846.886
 30
0.000000
  70
    32
  0
VERTEX
  8
0
  5
12A49
 10
859.160
 20
846.758
 30
0.000000
  70
    32
  0
VERTEX
  8
0
  5
12A4A
 10
859.247
 20
846.640
 30
0.000000
  70
    32
  0
VERTEX
  8
0
  5
12A4B
 10
859.337
 20
846.531
 30
0.000000
  70
    32
  0
VERTEX
  8
0
  5
12A4C
 10
859.429
 20
846.432
 30
0.000000
  70
    32
  0
VERTEX
  8
0
  5
12A4D
 10
859.523
 20
846.343
 30
0.000000
  70
    32
  0
VERTEX
  8
0
  5
12A4E
 10
859.619
 20
846.263
 30
0.000000
  70
    32
  0
VERTEX
  8
0
  5
12A4F
 10
859.717
 20
846.194
 30
0.000000
  70
    32
  0
VERTEX
  8
0
  5
12A50
 10
859.816
 20
846.135
 30
0.000000
  70
    32
  0
VERTEX
  8
0
  5
12A51
 10
859.917
 20
846.086
 30
0.000000
  70
    32
  0
VERTEX
  8
0
  5
12A52
 10
860.018
 20
846.049
 30
0.000000
  70
    32
  0
VERTEX
  8
0
  5
12A53
 10
860.120
 20
846.022
 30
0.000000
  70
    32
  0
VERTEX
  8
0
  5
12A54
 10
860.223
 20
846.005
 30
0.000000
  70
    32
  0
VERTEX
  8
0
  5
12A55
 10
860.326
 20
846.000
 30
0.000000
  70
    32
  0
VERTEX
  8
0
  5
12A56
 10
860.429
 20
846.005
 30
0.000000
  70
    32
  0
VERTEX
  8
0
  5
12A57
 10
860.532
 20
846.022
 30
0.000000
  70
    32
  0
VERTEX
  8
0
  5
12A58
 10
860.634
 20
846.049
 30
0.000000
  70
    32
  0
VERTEX
  8
0
  5
12A59
 10
860.736
 20
846.086
 30
0.000000
  70
    32
  0
VERTEX
  8
0
  5
12A5A
 10
860.836
 20
846.135
 30
0.000000
  70
    32
  0
VERTEX
  8
0
  5
12A5B
 10
860.935
 20
846.194
 30
0.000000
  70
    32
  0
VERTEX
  8
0
  5
12A5C
 10
861.033
 20
846.263
 30
0.000000
  70
    32
  0
VERTEX
  8
0
  5
12A5D
 10
861.129
 20
846.343
 30
0.000000
  70
    32
  0
VERTEX
  8
0
  5
12A5E
 10
861.223
 20
846.432
 30
0.000000
  70
    32
  0
VERTEX
  8
0
  5
12A5F
 10
861.315
 20
846.531
 30
0.000000
  70
    32
  0
VERTEX
  8
0
  5
12A60
 10
861.405
 20
846.640
 30
0.000000
  70
    32
  0
VERTEX
  8
0
  5
12A61
 10
861.492
 20
846.758
 30
0.000000
  70
    32
  0
VERTEX
  8
0
  5
12A62
 10
861.576
 20
846.886
 30
0.000000
  70
    32
  0
VERTEX
  8
0
  5
12A63
 10
861.657
 20
847.021
 30
0.000000
  70
    32
  0
VERTEX
  8
0
  5
12A64
 10
861.735
 20
847.166
 30
0.000000
  70
    32
  0
VERTEX
  8
0
  5
12A65
 10
861.810
 20
847.318
 30
0.000000
  70
    32
  0
VERTEX
  8
0
  5
12A66
 10
861.881
 20
847.478
 30
0.000000
  70
    32
  0
VERTEX
  8
0
  5
12A67
 10
861.948
 20
847.645
 30
0.000000
  70
    32
  0
VERTEX
  8
0
  5
12A68
 10
862.012
 20
847.819
 30
0.000000
  70
    32
  0
VERTEX
  8
0
  5
12A69
 10
862.071
 20
848.000
 30
0.000000
  70
    32
  0
VERTEX
  8
0
  5
12A6A
 10
862.126
 20
848.187
 30
0.000000
  70
    32
  0
VERTEX
  8
0
  5
12A6B
 10
862.177
 20
848.379
 30
0.000000
  70
    32
  0
VERTEX
  8
0
  5
12A6C
 10
862.223
 20
848.576
 30
0.000000
  70
    32
  0
VERTEX
  8
0
  5
12A6D
 10
862.265
 20
848.778
 30
0.000000
  70
    32
  0
VERTEX
  8
0
  5
12A6E
 10
862.302
 20
848.984
 30
0.000000
  70
    32
  0
VERTEX
  8
0
  5
12A6F
 10
862.334
 20
849.194
 30
0.000000
  70
    32
  0
VERTEX
  8
0
  5
12A70
 10
862.362
 20
849.407
 30
0.000000
  70
    32
  0
VERTEX
  8
0
  5
12A71
 10
862.384
 20
849.622
 30
0.000000
  70
    32
  0
VERTEX
  8
0
  5
12A72
 10
862.402
 20
849.840
 30
0.000000
  70
    32
  0
VERTEX
  8
0
  5
12A73
 10
862.414
 20
850.059
 30
0.000000
  70
    32
  0
VERTEX
  8
0
  5
12A74
 10
862.422
 20
850.279
 30
0.000000
  70
    32
  0
VERTEX
  8
0
  5
12A75
 10
862.425
 20
850.500
 30
0.000000
  70
    32
  0
VERTEX
  8
0
  5
12A76
 10
862.422
 20
850.721
 30
0.000000
  70
    32
  0
VERTEX
  8
0
  5
12A77
 10
862.414
 20
850.941
 30
0.000000
  70
    32
  0
VERTEX
  8
0
  5
12A78
 10
862.402
 20
851.160
 30
0.000000
  70
    32
  0
VERTEX
  8
0
  5
12A79
 10
862.384
 20
851.378
 30
0.000000
  70
    32
  0
VERTEX
  8
0
  5
12A7A
 10
862.362
 20
851.593
 30
0.000000
  70
    32
  0
VERTEX
  8
0
  5
12A7B
 10
862.334
 20
851.806
 30
0.000000
  70
    32
  0
VERTEX
  8
0
  5
12A7C
 10
862.302
 20
852.016
 30
0.000000
  70
    32
  0
VERTEX
  8
0
  5
12A7D
 10
862.265
 20
852.222
 30
0.000000
  70
    32
  0
VERTEX
  8
0
  5
12A7E
 10
862.223
 20
852.424
 30
0.000000
  70
    32
  0
VERTEX
  8
0
  5
12A7F
 10
862.177
 20
852.621
 30
0.000000
  70
    32
  0
VERTEX
  8
0
  5
12A80
 10
862.126
 20
852.813
 30
0.000000
  70
    32
  0
VERTEX
  8
0
  5
12A81
 10
862.071
 20
853.000
 30
0.000000
  70
    32
  0
VERTEX
  8
0
  5
12A82
 10
862.012
 20
853.181
 30
0.000000
  70
    32
  0
VERTEX
  8
0
  5
12A83
 10
861.948
 20
853.355
 30
0.000000
  70
    32
  0
VERTEX
  8
0
  5
12A84
 10
861.881
 20
853.522
 30
0.000000
  70
    32
  0
VERTEX
  8
0
  5
12A85
 10
861.810
 20
853.682
 30
0.000000
  70
    32
  0
VERTEX
  8
0
  5
12A86
 10
861.735
 20
853.834
 30
0.000000
  70
    32
  0
VERTEX
  8
0
  5
12A87
 10
861.657
 20
853.979
 30
0.000000
  70
    32
  0
VERTEX
  8
0
  5
12A88
 10
861.576
 20
854.114
 30
0.000000
  70
    32
  0
VERTEX
  8
0
  5
12A89
 10
861.492
 20
854.242
 30
0.000000
  70
    32
  0
VERTEX
  8
0
  5
12A8A
 10
861.405
 20
854.360
 30
0.000000
  70
    32
  0
VERTEX
  8
0
  5
12A8B
 10
861.315
 20
854.469
 30
0.000000
  70
    32
  0
VERTEX
  8
0
  5
12A8C
 10
861.223
 20
854.568
 30
0.000000
  70
    32
  0
VERTEX
  8
0
  5
12A8D
 10
861.129
 20
854.657
 30
0.000000
  70
    32
  0
VERTEX
  8
0
  5
12A8E
 10
861.033
 20
854.737
 30
0.000000
  70
    32
  0
VERTEX
  8
0
  5
12A8F
 10
860.935
 20
854.806
 30
0.000000
  70
    32
  0
VERTEX
  8
0
  5
12A90
 10
860.836
 20
854.865
 30
0.000000
  70
    32
  0
VERTEX
  8
0
  5
12A91
 10
860.736
 20
854.914
 30
0.000000
  70
    32
  0
VERTEX
  8
0
  5
12A92
 10
860.634
 20
854.951
 30
0.000000
  70
    32
  0
VERTEX
  8
0
  5
12A93
 10
860.532
 20
854.978
 30
0.000000
  70
    32
  0
VERTEX
  8
0
  5
12A94
 10
860.429
 20
854.995
 30
0.000000
  70
    32
  0
VERTEX
  8
0
  5
12A95
 10
860.326
 20
855.000
 30
0.000000
  70
    32
  0
SEQEND
  8
0
  5
12A96
  0
POLYLINE
  5
4441
  8
0
 10
860.32614422240465
 20
787.9999942183639
 30
0.0
 66
     1
 70
     8
  0
VERTEX
  8
0
  5
12A97
 10
860.326
 20
788.000
 30
0.000000
  70
    32
  0
VERTEX
  8
0
  5
12A98
 10
860.223
 20
787.995
 30
0.000000
  70
    32
  0
VERTEX
  8
0
  5
12A99
 10
860.120
 20
787.978
 30
0.000000
  70
    32
  0
VERTEX
  8
0
  5
12A9A
 10
860.018
 20
787.951
 30
0.000000
  70
    32
  0
VERTEX
  8
0
  5
12A9B
 10
859.917
 20
787.914
 30
0.000000
  70
    32
  0
VERTEX
  8
0
  5
12A9C
 10
859.816
 20
787.865
 30
0.000000
  70
    32
  0
VERTEX
  8
0
  5
12A9D
 10
859.717
 20
787.806
 30
0.000000
  70
    32
  0
VERTEX
  8
0
  5
12A9E
 10
859.619
 20
787.737
 30
0.000000
  70
    32
  0
VERTEX
  8
0
  5
12A9F
 10
859.523
 20
787.657
 30
0.000000
  70
    32
  0
VERTEX
  8
0
  5
12AA0
 10
859.429
 20
787.568
 30
0.000000
  70
    32
  0
VERTEX
  8
0
  5
12AA1
 10
859.337
 20
787.469
 30
0.000000
  70
    32
  0
VERTEX
  8
0
  5
12AA2
 10
859.247
 20
787.360
 30
0.000000
  70
    32
  0
VERTEX
  8
0
  5
12AA3
 10
859.160
 20
787.242
 30
0.000000
  70
    32
  0
VERTEX
  8
0
  5
12AA4
 10
859.076
 20
787.114
 30
0.000000
  70
    32
  0
VERTEX
  8
0
  5
12AA5
 10
858.995
 20
786.979
 30
0.000000
  70
    32
  0
VERTEX
  8
0
  5
12AA6
 10
858.917
 20
786.834
 30
0.000000
  70
    32
  0
VERTEX
  8
0
  5
12AA7
 10
858.842
 20
786.682
 30
0.000000
  70
    32
  0
VERTEX
  8
0
  5
12AA8
 10
858.771
 20
786.522
 30
0.000000
  70
    32
  0
VERTEX
  8
0
  5
12AA9
 10
858.704
 20
786.355
 30
0.000000
  70
    32
  0
VERTEX
  8
0
  5
12AAA
 10
858.641
 20
786.181
 30
0.000000
  70
    32
  0
VERTEX
  8
0
  5
12AAB
 10
858.581
 20
786.000
 30
0.000000
  70
    32
  0
VERTEX
  8
0
  5
12AAC
 10
858.526
 20
785.813
 30
0.000000
  70
    32
  0
VERTEX
  8
0
  5
12AAD
 10
858.476
 20
785.621
 30
0.000000
  70
    32
  0
VERTEX
  8
0
  5
12AAE
 10
858.429
 20
785.424
 30
0.000000
  70
    32
  0
VERTEX
  8
0
  5
12AAF
 10
858.387
 20
785.222
 30
0.000000
  70
    32
  0
VERTEX
  8
0
  5
12AB0
 10
858.350
 20
785.016
 30
0.000000
  70
    32
  0
VERTEX
  8
0
  5
12AB1
 10
858.318
 20
784.806
 30
0.000000
  70
    32
  0
VERTEX
  8
0
  5
12AB2
 10
858.291
 20
784.593
 30
0.000000
  70
    32
  0
VERTEX
  8
0
  5
12AB3
 10
858.268
 20
784.378
 30
0.000000
  70
    32
  0
VERTEX
  8
0
  5
12AB4
 10
858.250
 20
784.160
 30
0.000000
  70
    32
  0
VERTEX
  8
0
  5
12AB5
 10
858.238
 20
783.941
 30
0.000000
  70
    32
  0
VERTEX
  8
0
  5
12AB6
 10
858.230
 20
783.721
 30
0.000000
  70
    32
  0
VERTEX
  8
0
  5
12AB7
 10
858.228
 20
783.500
 30
0.000000
  70
    32
  0
VERTEX
  8
0
  5
12AB8
 10
858.230
 20
783.279
 30
0.000000
  70
    32
  0
VERTEX
  8
0
  5
12AB9
 10
858.238
 20
783.059
 30
0.000000
  70
    32
  0
VERTEX
  8
0
  5
12ABA
 10
858.250
 20
782.840
 30
0.000000
  70
    32
  0
VERTEX
  8
0
  5
12ABB
 10
858.268
 20
782.622
 30
0.000000
  70
    32
  0
VERTEX
  8
0
  5
12ABC
 10
858.291
 20
782.407
 30
0.000000
  70
    32
  0
VERTEX
  8
0
  5
12ABD
 10
858.318
 20
782.194
 30
0.000000
  70
    32
  0
VERTEX
  8
0
  5
12ABE
 10
858.350
 20
781.984
 30
0.000000
  70
    32
  0
VERTEX
  8
0
  5
12ABF
 10
858.387
 20
781.778
 30
0.000000
  70
    32
  0
VERTEX
  8
0
  5
12AC0
 10
858.429
 20
781.576
 30
0.000000
  70
    32
  0
VERTEX
  8
0
  5
12AC1
 10
858.476
 20
781.379
 30
0.000000
  70
    32
  0
VERTEX
  8
0
  5
12AC2
 10
858.526
 20
781.187
 30
0.000000
  70
    32
  0
VERTEX
  8
0
  5
12AC3
 10
858.581
 20
781.000
 30
0.000000
  70
    32
  0
VERTEX
  8
0
  5
12AC4
 10
858.641
 20
780.819
 30
0.000000
  70
    32
  0
VERTEX
  8
0
  5
12AC5
 10
858.704
 20
780.645
 30
0.000000
  70
    32
  0
VERTEX
  8
0
  5
12AC6
 10
858.771
 20
780.478
 30
0.000000
  70
    32
  0
VERTEX
  8
0
  5
12AC7
 10
858.842
 20
780.318
 30
0.000000
  70
    32
  0
VERTEX
  8
0
  5
12AC8
 10
858.917
 20
780.166
 30
0.000000
  70
    32
  0
VERTEX
  8
0
  5
12AC9
 10
858.995
 20
780.021
 30
0.000000
  70
    32
  0
VERTEX
  8
0
  5
12ACA
 10
859.076
 20
779.886
 30
0.000000
  70
    32
  0
VERTEX
  8
0
  5
12ACB
 10
859.160
 20
779.758
 30
0.000000
  70
    32
  0
VERTEX
  8
0
  5
12ACC
 10
859.247
 20
779.640
 30
0.000000
  70
    32
  0
VERTEX
  8
0
  5
12ACD
 10
859.337
 20
779.531
 30
0.000000
  70
    32
  0
VERTEX
  8
0
  5
12ACE
 10
859.429
 20
779.432
 30
0.000000
  70
    32
  0
VERTEX
  8
0
  5
12ACF
 10
859.523
 20
779.343
 30
0.000000
  70
    32
  0
VERTEX
  8
0
  5
12AD0
 10
859.619
 20
779.263
 30
0.000000
  70
    32
  0
VERTEX
  8
0
  5
12AD1
 10
859.717
 20
779.194
 30
0.000000
  70
    32
  0
VERTEX
  8
0
  5
12AD2
 10
859.816
 20
779.135
 30
0.000000
  70
    32
  0
VERTEX
  8
0
  5
12AD3
 10
859.917
 20
779.086
 30
0.000000
  70
    32
  0
VERTEX
  8
0
  5
12AD4
 10
860.018
 20
779.049
 30
0.000000
  70
    32
  0
VERTEX
  8
0
  5
12AD5
 10
860.120
 20
779.022
 30
0.000000
  70
    32
  0
VERTEX
  8
0
  5
12AD6
 10
860.223
 20
779.005
 30
0.000000
  70
    32
  0
VERTEX
  8
0
  5
12AD7
 10
860.326
 20
779.000
 30
0.000000
  70
    32
  0
VERTEX
  8
0
  5
12AD8
 10
860.429
 20
779.005
 30
0.000000
  70
    32
  0
VERTEX
  8
0
  5
12AD9
 10
860.532
 20
779.022
 30
0.000000
  70
    32
  0
VERTEX
  8
0
  5
12ADA
 10
860.634
 20
779.049
 30
0.000000
  70
    32
  0
VERTEX
  8
0
  5
12ADB
 10
860.736
 20
779.086
 30
0.000000
  70
    32
  0
VERTEX
  8
0
  5
12ADC
 10
860.836
 20
779.135
 30
0.000000
  70
    32
  0
VERTEX
  8
0
  5
12ADD
 10
860.935
 20
779.194
 30
0.000000
  70
    32
  0
VERTEX
  8
0
  5
12ADE
 10
861.033
 20
779.263
 30
0.000000
  70
    32
  0
VERTEX
  8
0
  5
12ADF
 10
861.129
 20
779.343
 30
0.000000
  70
    32
  0
VERTEX
  8
0
  5
12AE0
 10
861.223
 20
779.432
 30
0.000000
  70
    32
  0
VERTEX
  8
0
  5
12AE1
 10
861.315
 20
779.531
 30
0.000000
  70
    32
  0
VERTEX
  8
0
  5
12AE2
 10
861.405
 20
779.640
 30
0.000000
  70
    32
  0
VERTEX
  8
0
  5
12AE3
 10
861.492
 20
779.758
 30
0.000000
  70
    32
  0
VERTEX
  8
0
  5
12AE4
 10
861.576
 20
779.886
 30
0.000000
  70
    32
  0
VERTEX
  8
0
  5
12AE5
 10
861.657
 20
780.021
 30
0.000000
  70
    32
  0
VERTEX
  8
0
  5
12AE6
 10
861.735
 20
780.166
 30
0.000000
  70
    32
  0
VERTEX
  8
0
  5
12AE7
 10
861.810
 20
780.318
 30
0.000000
  70
    32
  0
VERTEX
  8
0
  5
12AE8
 10
861.881
 20
780.478
 30
0.000000
  70
    32
  0
VERTEX
  8
0
  5
12AE9
 10
861.948
 20
780.645
 30
0.000000
  70
    32
  0
VERTEX
  8
0
  5
12AEA
 10
862.012
 20
780.819
 30
0.000000
  70
    32
  0
VERTEX
  8
0
  5
12AEB
 10
862.071
 20
781.000
 30
0.000000
  70
    32
  0
VERTEX
  8
0
  5
12AEC
 10
862.126
 20
781.187
 30
0.000000
  70
    32
  0
VERTEX
  8
0
  5
12AED
 10
862.177
 20
781.379
 30
0.000000
  70
    32
  0
VERTEX
  8
0
  5
12AEE
 10
862.223
 20
781.576
 30
0.000000
  70
    32
  0
VERTEX
  8
0
  5
12AEF
 10
862.265
 20
781.778
 30
0.000000
  70
    32
  0
VERTEX
  8
0
  5
12AF0
 10
862.302
 20
781.984
 30
0.000000
  70
    32
  0
VERTEX
  8
0
  5
12AF1
 10
862.334
 20
782.194
 30
0.000000
  70
    32
  0
VERTEX
  8
0
  5
12AF2
 10
862.362
 20
782.407
 30
0.000000
  70
    32
  0
VERTEX
  8
0
  5
12AF3
 10
862.384
 20
782.622
 30
0.000000
  70
    32
  0
VERTEX
  8
0
  5
12AF4
 10
862.402
 20
782.840
 30
0.000000
  70
    32
  0
VERTEX
  8
0
  5
12AF5
 10
862.414
 20
783.059
 30
0.000000
  70
    32
  0
VERTEX
  8
0
  5
12AF6
 10
862.422
 20
783.279
 30
0.000000
  70
    32
  0
VERTEX
  8
0
  5
12AF7
 10
862.425
 20
783.500
 30
0.000000
  70
    32
  0
VERTEX
  8
0
  5
12AF8
 10
862.422
 20
783.721
 30
0.000000
  70
    32
  0
VERTEX
  8
0
  5
12AF9
 10
862.414
 20
783.941
 30
0.000000
  70
    32
  0
VERTEX
  8
0
  5
12AFA
 10
862.402
 20
784.160
 30
0.000000
  70
    32
  0
VERTEX
  8
0
  5
12AFB
 10
862.384
 20
784.378
 30
0.000000
  70
    32
  0
VERTEX
  8
0
  5
12AFC
 10
862.362
 20
784.593
 30
0.000000
  70
    32
  0
VERTEX
  8
0
  5
12AFD
 10
862.334
 20
784.806
 30
0.000000
  70
    32
  0
VERTEX
  8
0
  5
12AFE
 10
862.302
 20
785.016
 30
0.000000
  70
    32
  0
VERTEX
  8
0
  5
12AFF
 10
862.265
 20
785.222
 30
0.000000
  70
    32
  0
VERTEX
  8
0
  5
12B00
 10
862.223
 20
785.424
 30
0.000000
  70
    32
  0
VERTEX
  8
0
  5
12B01
 10
862.177
 20
785.621
 30
0.000000
  70
    32
  0
VERTEX
  8
0
  5
12B02
 10
862.126
 20
785.813
 30
0.000000
  70
    32
  0
VERTEX
  8
0
  5
12B03
 10
862.071
 20
786.000
 30
0.000000
  70
    32
  0
VERTEX
  8
0
  5
12B04
 10
862.012
 20
786.181
 30
0.000000
  70
    32
  0
VERTEX
  8
0
  5
12B05
 10
861.948
 20
786.355
 30
0.000000
  70
    32
  0
VERTEX
  8
0
  5
12B06
 10
861.881
 20
786.522
 30
0.000000
  70
    32
  0
VERTEX
  8
0
  5
12B07
 10
861.810
 20
786.682
 30
0.000000
  70
    32
  0
VERTEX
  8
0
  5
12B08
 10
861.735
 20
786.834
 30
0.000000
  70
    32
  0
VERTEX
  8
0
  5
12B09
 10
861.657
 20
786.979
 30
0.000000
  70
    32
  0
VERTEX
  8
0
  5
12B0A
 10
861.576
 20
787.114
 30
0.000000
  70
    32
  0
VERTEX
  8
0
  5
12B0B
 10
861.492
 20
787.242
 30
0.000000
  70
    32
  0
VERTEX
  8
0
  5
12B0C
 10
861.405
 20
787.360
 30
0.000000
  70
    32
  0
VERTEX
  8
0
  5
12B0D
 10
861.315
 20
787.469
 30
0.000000
  70
    32
  0
VERTEX
  8
0
  5
12B0E
 10
861.223
 20
787.568
 30
0.000000
  70
    32
  0
VERTEX
  8
0
  5
12B0F
 10
861.129
 20
787.657
 30
0.000000
  70
    32
  0
VERTEX
  8
0
  5
12B10
 10
861.033
 20
787.737
 30
0.000000
  70
    32
  0
VERTEX
  8
0
  5
12B11
 10
860.935
 20
787.806
 30
0.000000
  70
    32
  0
VERTEX
  8
0
  5
12B12
 10
860.836
 20
787.865
 30
0.000000
  70
    32
  0
VERTEX
  8
0
  5
12B13
 10
860.736
 20
787.914
 30
0.000000
  70
    32
  0
VERTEX
  8
0
  5
12B14
 10
860.634
 20
787.951
 30
0.000000
  70
    32
  0
VERTEX
  8
0
  5
12B15
 10
860.532
 20
787.978
 30
0.000000
  70
    32
  0
VERTEX
  8
0
  5
12B16
 10
860.429
 20
787.995
 30
0.000000
  70
    32
  0
VERTEX
  8
0
  5
12B17
 10
860.326
 20
788.000
 30
0.000000
  70
    32
  0
SEQEND
  8
0
  5
12B18
  0
LINE
  5
4442
  8
0
 10
865.99999129772368
 20
789.99999351800943
 30
0.0
 11
865.99999129772368
 21
745.09999155999685
 31
0.0
  0
LINE
  5
4443
  8
0
 10
865.99999129772368
 20
745.09999155999685
 30
0.0
 11
864.99998927116576
 21
744.09999698401953
 31
0.0
  0
LINE
  5
4445
  8
0
 10
851.46630018949702
 20
744.09999698401953
 30
0.0
 11
850.99999070167735
 21
745.09999155999685
 31
0.0
  0
LINE
  5
4448
  8
0
 10
790.99998831749144
 20
745.09999155999685
 30
0.0
 11
791.36396408081225
 21
744.09999698401953
 31
0.0
  0
LINE
  5
4450
  8
0
 10
790.26998788118544
 20
889.89999145270849
 30
0.0
 11
790.26998788118544
 21
744.09999698401953
 31
0.0
  0
LINE
  5
4452
  8
0
 10
780.99999785423461
 20
889.89999145270849
 30
0.0
 11
780.99999785423461
 21
744.09999698401953
 31
0.0
  0
LINE
  5
4455
  8
0
 10
571.72999382019043
 20
744.09999698401953
 30
0.0
 11
571.72999382019043
 21
889.89999145270849
 31
0.0
  0
LINE
  5
4458
  8
0
 10
580.99997639656056
 20
744.09999698401953
 30
0.0
 11
580.99997639656056
 21
889.89999145270849
 31
0.0
  0
LINE
  5
4459
  8
0
 10
580.99997639656056
 20
744.09999698401953
 30
0.0
 11
496.99998497962952
 21
744.09999698401953
 31
0.0
  0
LINE
  5
4465
  8
0
 10
495.99999785423267
 20
888.89999687673105
 30
0.0
 11
496.99998497962952
 21
889.89999145270849
 31
0.0
  0
LINE
  5
446C
  8
0
 10
570.91993689537037
 20
744.88005042077555
 30
0.0
 11
570.91993689537037
 21
889.11993801595224
 31
0.0
  0
LINE
  5
446F
  8
0
 10
495.99999785423267
 20
745.09999155999685
 30
0.0
 11
495.99999785423267
 21
888.89999687673105
 31
0.0
  0
LINE
  5
4478
  8
0
 10
570.91993689537037
 20
744.88005042077555
 30
0.0
 11
570.74520587921143
 21
744.39999461175455
 31
0.0
  0
LINE
  5
4479
  8
0
 10
570.74520587921143
 20
744.39999461175455
 30
0.0
 11
570.31676769256592
 21
744.09999698401953
 31
0.0
  0
LINE
  5
447A
  8
0
 10
495.99999785423267
 20
745.09999155999685
 30
0.0
 11
496.99998497962952
 21
744.09999698401953
 31
0.0
  0
LINE
  5
4487
  8
0
 10
780.99999785423461
 20
842.99999475480581
 30
0.0
 11
580.99997639656056
 21
842.99999475480581
 31
0.0
  0
LINE
  5
4488
  8
0
 10
909.99999105929714
 20
889.9999931454804
 30
0.0
 11
909.99999105930476
 21
842.89999492467905
 31
0.0
  0
LINE
  5
4489
  8
0
 10
580.99997639656056
 20
790.99999368192221
 30
0.0
 11
780.99999785423461
 21
790.99999368192221
 31
0.0
  0
LINE
  5
4493
  8
0
 10
909.99999105930465
 20
743.99999529124761
 30
0.0
 11
496.99998497962952
 21
743.99999529124761
 31
0.0
  0
LINE
  5
4495
  8
0
 10
496.99998497962952
 20
743.99999529124761
 30
0.0
 11
496.99998497962952
 21
744.09999698401953
 31
0.0
  0
CIRCLE
  5
4499
  8
0
 10
610.99998450279224
 20
816.99999421836401
 30
0.0
 40
13.49999999999994
  0
CIRCLE
  5
449B
  8
0
 10
610.99998450279224
 20
816.99999421836401
 30
0.0
 40
6.2500000000002842
  0
LINE
  5
4515
  8
0
 10
496.99998497962952
 20
200.10000169277191
 30
0.0
 11
495.99999785423267
 21
201.09999626874921
 31
0.0
  0
LINE
  5
4517
  8
0
 10
495.99999785423267
 20
201.09999626874921
 30
0.0
 11
495.99999785423267
 21
344.90000158548349
 31
0.0
  0
LINE
  5
4519
  8
0
 10
496.99998497962952
 20
345.89999616146088
 30
0.0
 11
495.99999785423267
 21
344.90000158548349
 31
0.0
  0
LINE
  5
451C
  8
0
 10
909.99999785423074
 20
345.99999785423279
 30
0.0
 11
909.99999785423097
 21
200.0
 31
0.0
  0
LINE
  5
451D
  8
0
 10
909.99999785423051
 20
200.0
 30
0.0
 11
496.99998497962952
 21
199.9999999999998
 31
0.0
  0
LINE
  5
4524
  8
0
 10
601.99997425079334
 20
308.35887670286479
 30
0.0
 11
601.99997425079334
 21
344.64110136032099
 31
0.0
  0
LINE
  5
4529
  8
0
 10
496.99998497962952
 20
199.9999999999998
 30
0.0
 11
496.99998497962952
 21
345.99999785423279
 31
0.0
  0
LINE
  5
4533
  8
0
 10
872.35889726877042
 20
281.9999985396862
 30
0.0
 11
908.64109891559747
 21
281.9999985396862
 31
0.0
  0
LINE
  5
4535
  8
0
 10
908.64109891559747
 20
263.99999931454659
 30
0.0
 11
872.35889726877042
 21
263.99999931454659
 31
0.0
  0
CIRCLE
  5
453C
  8
0
 10
610.99998450279224
 20
272.99999892711639
 30
0.0
 40
6.2500000000002842
  0
LINE
  5
4542
  8
0
 10
909.99999785423051
 20
241.9999994337559
 30
0.0
 11
620.99999785423267
 21
241.9999994337559
 31
0.0
  0
LINE
  5
4545
  8
0
 10
496.99998497962952
 20
303.99999842047691
 30
0.0
 11
600.99998712539673
 21
303.99999842047691
 31
0.0
  0
LINE
  5
4549
  8
0
 10
909.99999785423051
 20
323.99999797344208
 30
0.0
 11
619.99998092651356
 21
323.99999797344208
 31
0.0
  0
LINE
  5
454B
  8
0
 10
619.99998092651356
 20
344.64110136032099
 30
0.0
 11
619.99998092651344
 21
308.3589052547411
 31
0.0
  0
LINE
  5
4554
  8
0
 10
496.99998497962952
 20
221.99999988079071
 30
0.0
 11
601.99997425079334
 21
221.99999988079071
 31
0.0
  0
LINE
  5
455A
  8
0
 10
619.99998092651356
 20
221.99999988079071
 30
0.0
 11
909.99999785423051
 21
221.99999988079071
 31
0.0
  0
LINE
  5
455E
  8
0
 10
600.99998712539673
 20
241.9999994337559
 30
0.0
 11
496.99998497962952
 21
241.9999994337559
 31
0.0
  0
LINE
  5
4561
  8
0
 10
620.99999785423267
 20
303.99999842047691
 30
0.0
 11
909.99999785423051
 21
303.99999842047691
 31
0.0
  0
LINE
  5
4563
  8
0
 10
601.99997425079334
 20
323.99999797344208
 30
0.0
 11
496.99998497962952
 21
323.99999797344208
 31
0.0
  0
LINE
  5
4567
  8
0
 10
496.99998497962952
 20
345.99999785423279
 30
0.0
 11
909.99999785423051
 21
345.99999785423279
 31
0.0
  0
LINE
  5
4587
  8
0
 10
607.49999284744263
 20
339.63250070810318
 30
0.0
 11
607.49999284744263
 21
313.36749419569969
 31
0.0
  0
LINE
  5
458A
  8
0
 10
614.49999213218678
 20
313.36749419569969
 30
0.0
 11
614.49999213218678
 21
339.63250070810318
 31
0.0
  0
LINE
  5
45A0
  8
0
 10
239.9999991059301
 20
521.49999737741007
 30
0.0
 11
240.50000011920909
 21
520.99999822677626
 31
0.0
  0
LINE
  5
45A1
  8
0
 10
240.50000011920909
 20
520.99999822677626
 30
0.0
 11
247.0999982208011
 21
520.99999822677626
 31
0.0
  0
LINE
  5
45A2
  8
0
 10
298.89999777078611
 20
520.99999822677626
 30
0.0
 11
305.49999773502333
 21
520.99999822677626
 31
0.0
  0
LINE
  5
45A3
  8
0
 10
305.49999773502333
 20
520.99999822677626
 30
0.0
 11
305.99999874830218
 21
521.49999737741007
 31
0.0
  0
LINE
  5
45B5
  8
0
 10
240.50000011920929
 20
530.99999800325895
 30
0.0
 11
240.50000011920929
 21
522.99999855460192
 31
0.0
  0
LINE
  5
45CB
  8
0
 10
248.4999995678661
 20
543.9499974250939
 30
0.0
 11
297.49999828636618
 21
543.9499974250939
 31
0.0
  0
LINE
  5
45CD
  8
0
 10
248.4999995678661
 20
543.9499974250939
 30
0.0
 11
247.4999994039533
 21
542.94999912382616
 31
0.0
  0
LINE
  5
45CF
  8
0
 10
247.4999994039533
 20
532.9999983310845
 30
0.0
 11
247.4999994039533
 21
542.94999912382616
 31
0.0
  0
LINE
  5
45D1
  8
0
 10
240.50000011920929
 20
522.99999855460192
 30
0.0
 11
241.49999842047691
 21
521.99999839068914
 31
0.0
  0
LINE
  5
45D2
  8
0
 10
240.50000011920929
 20
530.99999800325895
 30
0.0
 11
241.49999842047691
 21
531.99999630452646
 31
0.0
  0
LINE
  5
45D4
  8
0
 10
241.49999842047691
 20
521.99999839068914
 30
0.0
 11
304.49999943375587
 21
521.99999839068914
 31
0.0
  0
LINE
  5
45D6
  8
0
 10
298.49999845027901
 20
542.94999912382616
 30
0.0
 11
297.49999828636618
 21
543.9499974250939
 31
0.0
  0
LINE
  5
45D8
  8
0
 10
304.49999943375587
 20
531.99999630452646
 30
0.0
 11
305.4999977350235
 21
530.99999800325895
 31
0.0
  0
LINE
  5
45DB
  8
0
 10
298.49999845027901
 20
542.94999912382616
 30
0.0
 11
298.49999845027901
 21
532.9999983310845
 31
0.0
  0
LINE
  5
45DD
  8
0
 10
305.4999977350235
 20
530.99999800325895
 30
0.0
 11
305.4999977350235
 21
522.99999855460192
 31
0.0
  0
LINE
  5
45DF
  8
0
 10
305.4999977350235
 20
522.99999855460192
 30
0.0
 11
304.49999943375587
 21
521.99999839068914
 31
0.0
  0
ARC
  5
45E0
  8
0
 10
298.49999892711941
 20
531.99999785424734
 30
0.0
 40
1.0000000000295011
 50
90.0
 51
0.0000000005211021
  0
ARC
  5
45E1
  8
0
 10
247.49999892711961
 20
531.99999785424734
 30
0.0
 40
1.000000000035612
 50
179.99999999757031
 51
90.0
  0
LINE
  5
45E2
  8
0
 10
239.9999991059301
 20
531.99999630452646
 30
0.0
 11
239.9999991059301
 21
521.49999737741007
 31
0.0
  0
LINE
  5
45E6
  8
0
 10
305.99999874830218
 20
521.49999737741007
 30
0.0
 11
305.99999874830218
 21
531.99999630452646
 31
0.0
  0
LINE
  5
45FB
  8
0
 10
247.0999982208011
 20
516.99999757112516
 30
0.0
 11
247.0999982208011
 21
521.9999983906888
 31
0.0
  0
LINE
  5
45FD
  8
0
 10
247.59999923408009
 20
516.49999842049135
 30
0.0
 11
298.39999862015219
 21
516.49999842049135
 31
0.0
  0
LINE
  5
45FE
  8
0
 10
247.0999982208011
 20
516.99999757112516
 30
0.0
 11
247.59999923408009
 21
516.49999842049135
 31
0.0
  0
LINE
  5
45FF
  8
0
 10
298.89999777078611
 20
521.9999983906888
 30
0.0
 11
298.89999777078611
 21
516.99999757112516
 31
0.0
  0
LINE
  5
4600
  8
0
 10
298.39999862015219
 20
516.49999842049135
 30
0.0
 11
298.89999777078611
 21
516.99999757112516
 31
0.0
  0
LINE
  5
4608
  8
0
 10
345.89999616146059
 20
593.99999529124761
 30
0.0
 11
200.10000169277171
 21
593.99999529124761
 31
0.0
  0
LINE
  5
4609
  8
0
 10
345.89999616146059
 20
544.9999965727477
 30
0.0
 11
345.89999616146059
 21
593.99999529124761
 31
0.0
  0
LINE
  5
460A
  8
0
 10
200.10000169277171
 20
544.9999965727477
 30
0.0
 11
200.10000169277171
 21
593.99999529124761
 31
0.0
  0
LINE
  5
469F
  8
0
 10
201.09999626874921
 20
591.99999868871225
 30
0.0
 11
344.90000158548349
 21
591.99999868871225
 31
0.0
  0
LINE
  5
46A1
  8
0
 10
201.09999626874921
 20
543.99999827147985
 30
0.0
 11
200.10000169277171
 21
544.99999657274736
 31
0.0
  0
LINE
  5
46A4
  8
0
 10
200.10000169277171
 20
590.99999666215444
 30
0.0
 11
201.09999626874921
 21
591.99999868871225
 31
0.0
  0
LINE
  5
46A5
  8
0
 10
344.90000158548349
 20
543.99999827147985
 30
0.0
 11
345.89999616146059
 21
544.99999657274736
 31
0.0
  0
LINE
  5
46A6
  8
0
 10
345.89999616146059
 20
590.99999666215444
 30
0.0
 11
344.90000158548349
 21
591.99999868871225
 31
0.0
  0
LINE
  5
46AD
  8
0
 10
239.4999980926514
 20
531.99999630452646
 30
0.0
 11
246.99999839067459
 21
531.99999630452646
 31
0.0
  0
LINE
  5
46AE
  8
0
 10
239.4999980926514
 20
520.49999721349741
 30
0.0
 11
239.4999980926514
 21
531.99999630452646
 31
0.0
  0
LINE
  5
46AF
  8
0
 10
246.79999873042081
 20
520.49999721349741
 30
0.0
 11
239.4999980926514
 21
520.49999721349741
 31
0.0
  0
LINE
  5
46B0
  8
0
 10
246.79999873042081
 20
515.9999974072125
 30
0.0
 11
246.79999873042081
 21
520.49999721349741
 31
0.0
  0
LINE
  5
46B1
  8
0
 10
299.19999912381149
 20
515.9999974072125
 30
0.0
 11
246.79999873042081
 21
515.9999974072125
 31
0.0
  0
LINE
  5
46B2
  8
0
 10
299.19999912381149
 20
520.49999721349741
 30
0.0
 11
299.19999912381149
 21
515.9999974072125
 31
0.0
  0
LINE
  5
46B3
  8
0
 10
306.49999976158142
 20
520.49999721349741
 30
0.0
 11
299.19999912381149
 21
520.49999721349741
 31
0.0
  0
LINE
  5
46B4
  8
0
 10
306.49999976158142
 20
531.99999630452646
 30
0.0
 11
306.49999976158142
 21
520.49999721349741
 31
0.0
  0
LINE
  5
46B5
  8
0
 10
298.9999994635582
 20
531.99999630452646
 30
0.0
 11
306.49999976158142
 21
531.99999630452646
 31
0.0
  0
LINE
  5
46B6
  8
0
 10
298.9999994635582
 20
543.99999827147985
 30
0.0
 11
298.9999994635582
 21
531.99999630452646
 31
0.0
  0
LINE
  5
46B9
  8
0
 10
345.99999785423279
 20
542.99999624492193
 30
0.0
 11
344.99999582767492
 21
543.99999827147985
 31
0.0
  0
LINE
  5
46BA
  8
0
 10
345.99999785423279
 20
529.49999868871225
 30
0.0
 11
345.99999785423279
 21
542.99999624492193
 31
0.0
  0
LINE
  5
46BB
  8
0
 10
344.99999582767492
 20
528.49999666215444
 30
0.0
 11
345.99999785423279
 21
529.49999868871225
 31
0.0
  0
LINE
  5
46BC
  8
0
 10
338.99999856948853
 20
528.49999666215444
 30
0.0
 11
344.99999582767492
 21
528.49999666215444
 31
0.0
  0
LINE
  5
46BD
  8
0
 10
338.99999856948853
 20
515.49999825657869
 30
0.0
 11
338.99999856948853
 21
528.49999666215444
 31
0.0
  0
LINE
  5
46BE
  8
0
 10
344.99999582767492
 20
515.49999825657869
 30
0.0
 11
338.99999856948853
 21
515.49999825657869
 31
0.0
  0
LINE
  5
46BF
  8
0
 10
345.99999785423279
 20
514.49999809266592
 30
0.0
 11
344.99999582767492
 21
515.49999825657869
 31
0.0
  0
LINE
  5
46C0
  8
0
 10
345.99999785423279
 20
496.99999790174479
 30
0.0
 11
345.99999785423279
 21
514.49999809266592
 31
0.0
  0
LINE
  5
46C1
  8
0
 10
344.99999582767492
 20
495.99999785418998
 30
0.0
 11
345.99999785423279
 21
496.99999790174479
 31
0.0
  0
LINE
  5
46C2
  8
0
 10
324.99999999999977
 20
495.99999785424728
 30
0.0
 11
344.99999582767492
 21
495.99999785424728
 31
0.0
  0
LINE
  5
46C3
  8
0
 10
323.99999797344208
 20
496.99999790174479
 30
0.0
 11
324.99999999999977
 21
495.99999785424728
 31
0.0
  0
LINE
  5
46C4
  8
0
 10
303.99999842047669
 20
496.99999790174479
 30
0.0
 11
323.99999797344208
 21
496.99999790174479
 31
0.0
  0
LINE
  5
46C5
  8
0
 10
302.99999825656391
 20
495.99999785421909
 30
0.0
 11
303.99999842047669
 21
496.99999790174479
 31
0.0
  0
LINE
  5
46C6
  8
0
 10
302.99999825656391
 20
495.99999785424728
 30
0.0
 11
281.99999892711622
 21
495.99999785430612
 31
0.0
  0
LINE
  5
46CB
  8
0
 10
241.99999943375559
 20
496.99999790174479
 30
0.0
 11
242.99999959766839
 21
495.99999785424728
 31
0.0
  0
LINE
  5
46CC
  8
0
 10
221.99999988079071
 20
496.99999790174479
 30
0.0
 11
241.99999943375559
 21
496.99999790174479
 31
0.0
  0
LINE
  5
46CD
  8
0
 10
220.99999785423259
 20
495.99999785424728
 30
0.0
 11
221.99999988079071
 21
496.99999790174479
 31
0.0
  0
LINE
  5
46CE
  8
0
 10
201.00000202655789
 20
495.99999785424728
 30
0.0
 11
220.99999785423259
 21
495.99999785424728
 31
0.0
  0
LINE
  5
46CF
  8
0
 10
200.0
 20
496.99999790174479
 30
0.0
 11
201.00000202655789
 21
495.99999785424728
 31
0.0
  0
LINE
  5
46D0
  8
0
 10
200.0
 20
514.49999809266592
 30
0.0
 11
200.0
 21
496.99999790174479
 31
0.0
  0
LINE
  5
46D1
  8
0
 10
201.00000202655789
 20
515.49999825657869
 30
0.0
 11
200.0
 21
514.49999809266592
 31
0.0
  0
LINE
  5
46D2
  8
0
 10
206.99999928474429
 20
515.49999825657869
 30
0.0
 11
201.00000202655789
 21
515.49999825657869
 31
0.0
  0
LINE
  5
46D3
  8
0
 10
206.99999928474429
 20
528.49999666215444
 30
0.0
 11
206.99999928474429
 21
515.49999825657869
 31
0.0
  0
LINE
  5
46D4
  8
0
 10
201.00000202655789
 20
528.49999666215444
 30
0.0
 11
206.99999928474429
 21
528.49999666215444
 31
0.0
  0
LINE
  5
46D5
  8
0
 10
200.0
 20
529.49999868871225
 30
0.0
 11
201.00000202655789
 21
528.49999666215444
 31
0.0
  0
LINE
  5
46D6
  8
0
 10
200.0
 20
542.99999624492193
 30
0.0
 11
200.0
 21
529.49999868871225
 31
0.0
  0
LINE
  5
46D7
  8
0
 10
201.00000202655789
 20
543.99999827147985
 30
0.0
 11
200.0
 21
542.99999624492193
 31
0.0
  0
LINE
  5
46D8
  8
0
 10
344.99999582767481
 20
543.99999827148008
 30
0.0
 11
201.00000202655789
 21
543.99999827147985
 31
0.0
  0
LINE
  5
46DA
  8
0
 10
246.99999839067459
 20
531.99999630452646
 30
0.0
 11
246.99999839067459
 21
543.99999827147985
 31
0.0
  0
LINE
  5
46DC
  8
0
 10
263.99999931454641
 20
489.49999735505833
 30
0.0
 11
263.99999931454641
 21
500.99999774248857
 31
0.0
  0
LINE
  5
46DD
  8
0
 10
281.99999853968598
 20
500.99999774248857
 30
0.0
 11
281.99999853968598
 21
489.49999735505833
 31
0.0
  0
LINE
  5
46DF
  8
0
 10
276.49999903514959
 20
501.49999782444502
 30
0.0
 11
276.49999903514959
 21
500.99999774248857
 31
0.0
  0
LINE
  5
46E0
  8
0
 10
276.49999903514959
 20
501.49999782444502
 30
0.0
 11
269.49999881908269
 21
501.49999782444502
 31
0.0
  0
LINE
  5
46E1
  8
0
 10
269.49999881908269
 20
500.99999774248857
 30
0.0
 11
269.49999881908269
 21
501.49999782444502
 31
0.0
  0
LINE
  5
5B2F
  8
0
 10
504.07178330421488
 20
766.99999347330595
 30
0.0
 11
507.53588604927108
 21
760.99999248982931
 31
0.0
  0
LINE
  5
5B30
  8
0
 10
507.53588604927108
 20
760.99999248982931
 30
0.0
 11
514.46409153938339
 21
760.99999248982931
 31
0.0
  0
LINE
  5
5B31
  8
0
 10
514.46409153938339
 20
760.99999248982931
 30
0.0
 11
517.92819428443954
 21
766.99999347330595
 31
0.0
  0
LINE
  5
5B32
  8
0
 10
517.92819428443954
 20
766.99999347330595
 30
0.0
 11
514.46409153938339
 21
772.99999445678259
 31
0.0
  0
LINE
  5
5B33
  8
0
 10
514.46409153938339
 20
772.99999445678259
 30
0.0
 11
507.53588604927108
 21
772.99999445678259
 31
0.0
  0
LINE
  5
5B34
  8
0
 10
507.53588604927108
 20
772.99999445678259
 30
0.0
 11
504.07178330421488
 21
766.99999347330595
 31
0.0
  0
CIRCLE
  5
5B35
  8
0
 10
510.9999845027923
 20
766.9999942183631
 30
0.0
 40
10.49999999999997
  0
LINE
  5
5B36
  8
0
 10
504.07178330421488
 20
816.99998847503673
 30
0.0
 11
507.53588604927108
 21
810.99998749156009
 31
0.0
  0
LINE
  5
5B37
  8
0
 10
507.53588604927108
 20
810.99998749156009
 30
0.0
 11
514.46409153938339
 21
810.99998749156009
 31
0.0
  0
LINE
  5
5B38
  8
0
 10
514.46409153938339
 20
810.99998749156009
 30
0.0
 11
517.92819428443954
 21
816.99998847503673
 31
0.0
  0
LINE
  5
5B39
  8
0
 10
517.92819428443954
 20
816.99998847503673
 30
0.0
 11
514.46409153938339
 21
822.99998945851337
 31
0.0
  0
LINE
  5
5B3A
  8
0
 10
514.46409153938339
 20
822.99998945851337
 30
0.0
 11
507.53588604927108
 21
822.99998945851337
 31
0.0
  0
LINE
  5
5B3B
  8
0
 10
507.53588604927108
 20
822.99998945851337
 30
0.0
 11
504.07178330421488
 21
816.99998847503673
 31
0.0
  0
CIRCLE
  5
5B3C
  8
0
 10
510.9999845027923
 20
816.99998922009388
 30
0.0
 40
10.49999999999997
  0
LINE
  5
5B3D
  8
0
 10
536.07178759574936
 20
816.99998847503673
 30
0.0
 11
539.53589034080539
 21
810.99998749156009
 31
0.0
  0
LINE
  5
5B3E
  8
0
 10
539.53589034080539
 20
810.99998749156009
 30
0.0
 11
546.4640958309177
 21
810.99998749156009
 31
0.0
  0
LINE
  5
5B3F
  8
0
 10
546.4640958309177
 20
810.99998749156009
 30
0.0
 11
549.92819857597385
 21
816.99998847503673
 31
0.0
  0
LINE
  5
5B40
  8
0
 10
549.92819857597385
 20
816.99998847503673
 30
0.0
 11
546.4640958309177
 21
822.99998945851337
 31
0.0
  0
LINE
  5
5B41
  8
0
 10
546.4640958309177
 20
822.99998945851337
 30
0.0
 11
539.53589034080539
 21
822.99998945851337
 31
0.0
  0
LINE
  5
5B42
  8
0
 10
539.53589034080539
 20
822.99998945851337
 30
0.0
 11
536.07178759574936
 21
816.99998847503673
 31
0.0
  0
CIRCLE
  5
5B43
  8
0
 10
542.99998879432667
 20
816.99998922009388
 30
0.0
 40
10.49999999999997
  0
LINE
  5
5B44
  8
0
 10
536.07178330421436
 20
866.99999347330595
 30
0.0
 11
539.53588604927063
 21
860.99999248982931
 31
0.0
  0
LINE
  5
5B45
  8
0
 10
539.53588604927063
 20
860.99999248982931
 30
0.0
 11
546.46409153938293
 21
860.99999248982931
 31
0.0
  0
LINE
  5
5B46
  8
0
 10
546.46409153938293
 20
860.99999248982931
 30
0.0
 11
549.92819428443897
 21
866.99999347330595
 31
0.0
  0
LINE
  5
5B47
  8
0
 10
549.92819428443897
 20
866.99999347330595
 30
0.0
 11
546.46409153938293
 21
872.99999445678259
 31
0.0
  0
LINE
  5
5B48
  8
0
 10
546.46409153938293
 20
872.99999445678259
 30
0.0
 11
539.53588604927063
 21
872.99999445678259
 31
0.0
  0
LINE
  5
5B49
  8
0
 10
539.53588604927063
 20
872.99999445678259
 30
0.0
 11
536.07178330421436
 21
866.99999347330595
 31
0.0
  0
CIRCLE
  5
5B4A
  8
0
 10
542.9999845027919
 20
866.9999942183631
 30
0.0
 40
10.49999999999997
  0
LINE
  5
5B4B
  8
0
 10
504.07178330421488
 20
866.99999347330595
 30
0.0
 11
507.53588604927108
 21
860.99999248982931
 31
0.0
  0
LINE
  5
5B4C
  8
0
 10
507.53588604927108
 20
860.99999248982931
 30
0.0
 11
514.46409153938339
 21
860.99999248982931
 31
0.0
  0
LINE
  5
5B4D
  8
0
 10
514.46409153938339
 20
860.99999248982931
 30
0.0
 11
517.92819428443954
 21
866.99999347330595
 31
0.0
  0
LINE
  5
5B4E
  8
0
 10
517.92819428443954
 20
866.99999347330595
 30
0.0
 11
514.46409153938339
 21
872.99999445678259
 31
0.0
  0
LINE
  5
5B4F
  8
0
 10
514.46409153938339
 20
872.99999445678259
 30
0.0
 11
507.53588604927108
 21
872.99999445678259
 31
0.0
  0
LINE
  5
5B50
  8
0
 10
507.53588604927108
 20
872.99999445678259
 30
0.0
 11
504.07178330421488
 21
866.99999347330595
 31
0.0
  0
CIRCLE
  5
5B51
  8
0
 10
510.9999845027923
 20
866.9999942183631
 30
0.0
 40
10.49999999999997
  0
LINE
  5
5B52
  8
0
 10
780.99999785423461
 20
744.09999698401953
 30
0.0
 11
864.99998927116576
 21
744.09999698401953
 31
0.0
  0
LINE
  5
5B5A
  8
0
 10
865.99999129772368
 20
888.89999687673105
 30
0.0
 11
864.99998927116576
 21
889.89999145270849
 31
0.0
  0
LINE
  5
5B5B
  8
0
 10
851.46630018949702
 20
889.89999145270849
 30
0.0
 11
850.99999070167735
 21
888.89999687673105
 31
0.0
  0
LINE
  5
5B5C
  8
0
 10
790.99998831749144
 20
888.89999687673105
 30
0.0
 11
791.36396408081225
 21
889.89999145270849
 31
0.0
  0
LINE
  5
5B5D
  8
0
 10
580.99997639656056
 20
889.89999145270849
 30
0.0
 11
496.99998497962952
 21
889.89999145270849
 31
0.0
  0
LINE
  5
5B5E
  8
0
 10
570.91993689537037
 20
889.11993801595224
 30
0.0
 11
570.74520587921143
 21
889.59999382497335
 31
0.0
  0
LINE
  5
5B5F
  8
0
 10
570.74520587921143
 20
889.59999382497335
 30
0.0
 11
570.31676769256592
 21
889.89999145270849
 31
0.0
  0
LINE
  5
5B60
  8
0
 10
495.99999785423267
 20
888.89999687673105
 30
0.0
 11
496.99998497962952
 21
889.89999145270849
 31
0.0
  0
LINE
  5
5B61
  8
0
 10
909.99999105930465
 20
889.9999931454804
 30
0.0
 11
496.99998497962952
 21
889.9999931454804
 31
0.0
  0
LINE
  5
5B62
  8
0
 10
496.99998497962952
 20
889.9999931454804
 30
0.0
 11
496.99998497962952
 21
889.89999145270849
 31
0.0
  0
LINE
  5
5B63
  8
0
 10
780.99999785423461
 20
889.89999145270849
 30
0.0
 11
864.99998927116576
 21
889.89999145270849
 31
0.0
  0
LINE
  5
5BB1
  8
0
 10
856.49999067187503
 20
790.49999453128839
 30
0.0
 11
851.99999272823516
 21
790.49999453128794
 31
0.0
  0
LINE
  5
5BB2
  8
0
 10
856.49999067187503
 20
789.99999351800943
 30
0.0
 11
856.49999067187503
 21
790.49999453128839
 31
0.0
  0
LINE
  5
5BB3
  8
0
 10
908.49999104626613
 20
791.09999537469355
 30
0.0
 11
909.99999105930465
 21
791.09999537469355
 31
0.0
  0
LINE
  5
5BB4
  8
0
 10
910.49999108305326
 20
791.59999638797262
 30
0.0
 11
909.99999105930465
 21
791.09999537469355
 31
0.0
  0
LINE
  5
5BB6
  8
0
 10
909.99999105930465
 20
789.99999351800943
 30
0.0
 11
850.99999070167735
 21
789.99999351800943
 31
0.0
  0
LINE
  5
5BB8
  8
0
 10
909.9999910592968
 20
743.99999529124761
 30
0.0
 11
909.99999105930476
 21
791.09999537469355
 31
0.0
  0
LINE
  5
5F2D
  8
0
 10
951.49999339878696
 20
833.49999513707201
 30
0.0
 11
952.99999271333354
 21
831.99999456512012
 31
0.0
  0
LINE
  5
5F2E
  8
0
 10
952.99999271333365
 20
801.99999475588834
 30
0.0
 11
951.49999339878707
 21
800.49999329965635
 31
0.0
  0
LINE
  5
5F2F
  8
0
 10
951.49999339878707
 20
800.49999329965635
 30
0.0
 11
948.99999205768245
 21
800.49999329965635
 31
0.0
  0
LINE
  5
5F30
  8
0
 10
948.99999205768245
 20
833.49999513707201
 30
0.0
 11
951.49999339878696
 21
833.49999513707201
 31
0.0
  0
ARC
  5
5F31
  8
0
 10
948.59999187886865
 20
831.39999459394517
 30
0.0
 40
0.3999999999999204
 50
270.0
 51
0.0
  0
ARC
  5
5F32
  8
0
 10
948.59999187886865
 20
802.59999459394487
 30
0.0
 40
0.4000000000000626
 50
0.0000000000260551
 51
90.0
  0
LINE
  5
5F33
  8
0
 10
948.59999273717551
 20
802.99999484242858
 30
0.0
 11
910.49999108305326
 21
802.99999484242858
 31
0.0
  0
LINE
  5
5F34
  8
0
 10
910.49999108305326
 20
830.99999359429899
 30
0.0
 11
948.5999927371754
 21
830.99999359429899
 31
0.0
  0
ARC
  5
5F35
  8
0
 10
970.29828595669665
 20
806.99999459394553
 30
0.0
 40
2.7017059221718389
 50
338.26051268787819
 51
0.0
  0
ARC
  5
5F36
  8
0
 10
970.29828595669665
 20
826.99999459394553
 30
0.0
 40
2.7017059221718389
 50
0.0
 51
21.72402599247263
  0
LINE
  5
5F37
  8
3
 10
910.49999108305326
 20
828.24999575796824
 30
0.0
 11
935.58485149219746
 21
828.24999575796767
 31
0.0
  0
LINE
  5
5F38
  8
3
 10
935.58485149219757
 20
805.74999590104403
 30
0.0
 11
910.49999108305326
 21
805.74999590104346
 31
0.0
  0
LINE
  5
5F39
  8
0
 10
952.99999271333354
 20
831.99999456512012
 30
0.0
 11
952.99999271333365
 21
801.99999475588834
 31
0.0
  0
LINE
  5
5F3A
  8
0
 10
951.49999339878696
 20
833.49999513707201
 30
0.0
 11
951.49999339878707
 21
800.49999329965635
 31
0.0
  0
LINE
  5
5F3B
  8
0
 10
948.99999205768245
 20
833.49999513707201
 30
0.0
 11
948.99999205768245
 21
800.49999329965635
 31
0.0
  0
LINE
  5
5F3C
  8
0
 10
972.99999187886851
 20
826.99999459394553
 30
0.0
 11
972.99999187886851
 21
806.99999459394553
 31
0.0
  0
LINE
  5
5F3D
  8
0
 10
971.79385130107539
 20
817.83128130855607
 30
0.0
 11
971.79385130107539
 21
816.16870797924105
 31
0.0
  0
POLYLINE
  5
5F3E
  8
0
 66
     1
 10
0.0
 20
0.0
 30
0.0
 70
   128
  0
VERTEX
  5
129DD
  8
0
 10
971.79385130107539
 20
816.16870797924105
 30
0.0
  0
VERTEX
  5
129DE
  8
0
 10
972.35341598093635
 20
815.08650613279599
 30
0.0
  0
VERTEX
  5
129DF
  8
0
 10
972.73114179074901
 20
813.3090187814289
 30
0.0
  0
VERTEX
  5
129E0
  8
0
 10
972.80811001360553
 20
811.49325804468424
 30
0.0
  0
VERTEX
  5
129E1
  8
0
 10
972.70783637464206
 20
809.41193372447208
 30
0.0
  0
VERTEX
  5
129E2
  8
0
 10
972.14668844640391
 20
807.41116210104906
 30
0.0
  0
VERTEX
  5
129E3
  8
0
 10
971.79385130107539
 20
806.83128139011399
 30
0.0
  0
SEQEND
  5
129E4
  8
0
  0
LINE
  5
5F3F
  8
0
 10
971.79385130107539
 20
805.9999947652924
 30
0.0
 11
971.79385130107539
 21
806.83128139011399
 31
0.0
  0
LINE
  5
5F40
  8
0
 10
971.79385130107539
 20
827.16870743231198
 30
0.0
 11
971.79385130107539
 21
827.99999413680803
 31
0.0
  0
POLYLINE
  5
5F41
  8
0
 66
     1
 10
0.0
 20
0.0
 30
0.0
 70
   128
  0
VERTEX
  5
129E5
  8
0
 10
971.79385130107539
 20
827.16870743231198
 30
0.0
  0
VERTEX
  5
129E6
  8
0
 10
972.35341598093635
 20
826.08650555849658
 30
0.0
  0
VERTEX
  5
129E7
  8
0
 10
972.71875892579692
 20
824.32581722227155
 30
0.0
  0
VERTEX
  5
129E8
  8
0
 10
972.80811001360553
 20
822.49325787843838
 30
0.0
  0
VERTEX
  5
129E9
  8
0
 10
972.69275639951366
 20
820.45215860712074
 30
0.0
  0
VERTEX
  5
129EA
  8
0
 10
972.14668844640391
 20
818.41116289530896
 30
0.0
  0
VERTEX
  5
129EB
  8
0
 10
971.79385130107539
 20
817.83128130855607
 30
0.0
  0
SEQEND
  5
129EC
  8
0
  0
LINE
  5
5F42
  8
0
 10
952.99999271333354
 20
827.16870743231198
 30
0.0
 11
971.79385130107539
 21
827.16870743231198
 31
0.0
  0
LINE
  5
5F43
  8
0
 10
971.79385130107539
 20
817.83128130855607
 30
0.0
 11
952.99999271333354
 21
817.83128130855607
 31
0.0
  0
LINE
  5
5F44
  8
0
 10
952.99999271333354
 20
816.16870797924105
 30
0.0
 11
971.79385130107539
 21
816.16870797924105
 31
0.0
  0
LINE
  5
5F45
  8
0
 10
971.79385130107539
 20
806.83128139011399
 30
0.0
 11
952.99999271333354
 21
806.83128139011399
 31
0.0
  0
LINE
  5
5F46
  8
0
 10
972.80810981588934
 20
827.99999413680803
 30
0.0
 11
952.99999271333354
 21
827.99999413680803
 31
0.0
  0
LINE
  5
5F47
  8
0
 10
952.99999271333354
 20
805.9999947652924
 30
0.0
 11
972.8081097020206
 21
805.99999476529285
 31
0.0
  0
LINE
  5
5F48
  8
0
 10
935.58485149219746
 20
830.99999359429933
 30
0.0
 11
935.58485149219746
 21
802.99999484242858
 31
0.0
  0
LINE
  5
5F49
  8
3
 10
935.58485149219757
 20
805.74999590104403
 30
0.0
 11
940.34799304658679
 21
802.99999484242858
 31
0.0
  0
LINE
  5
5F4A
  8
3
 10
935.58485149219757
 20
828.24999575796767
 30
0.0
 11
940.34798746542776
 21
830.99999359429899
 31
0.0
  0
LINE
  5
603E
  8
1
 10
696.99998450279224
 20
828.99999421835798
 30
0.0
 11
696.99998450279224
 21
804.99999421836992
 31
0.0
  0
LINE
  5
603F
  8
1
 10
610.99998450279224
 20
835.49999421836401
 30
0.0
 11
610.99998450279224
 21
798.49999421836401
 31
0.0
  0
LINE
  5
608F
  8
1
 10
510.9999845027923
 20
882.49999421836299
 30
0.0
 11
510.9999845027923
 21
851.4999942183631
 31
0.0
  0
LINE
  5
6090
  8
1
 10
542.9999845027919
 20
882.49999421836299
 30
0.0
 11
542.9999845027919
 21
851.4999942183631
 31
0.0
  0
LINE
  5
6091
  8
1
 10
495.49998450279242
 20
866.9999942183631
 30
0.0
 11
526.49998450279224
 21
866.9999942183631
 31
0.0
  0
LINE
  5
6092
  8
1
 10
527.49998450279179
 20
866.9999942183631
 30
0.0
 11
558.4999845027919
 21
866.9999942183631
 31
0.0
  0
LINE
  5
6093
  8
1
 10
510.9999845027923
 20
782.4999942183631
 30
0.0
 11
510.9999845027923
 21
751.4999942183631
 31
0.0
  0
LINE
  5
6094
  8
1
 10
542.9999845027919
 20
782.4999942183631
 30
0.0
 11
542.9999845027919
 21
751.4999942183631
 31
0.0
  0
LINE
  5
6095
  8
1
 10
495.49998450279242
 20
766.9999942183631
 30
0.0
 11
526.49998450279224
 21
766.9999942183631
 31
0.0
  0
LINE
  5
6096
  8
1
 10
527.49998450279179
 20
766.9999942183631
 30
0.0
 11
558.4999845027919
 21
766.9999942183631
 31
0.0
  0
LINE
  5
6097
  8
1
 10
510.99998450279219
 20
832.4999942183639
 30
0.0
 11
510.99998450279219
 21
801.49999421836401
 31
0.0
  0
LINE
  5
6098
  8
1
 10
542.99998450279179
 20
832.4999942183639
 30
0.0
 11
542.99998450279179
 21
801.49999421836401
 31
0.0
  0
LINE
  5
6184
  8
0
 10
520.99997401237476
 20
548.99999722839846
 30
0.0
 11
532.99999833106995
 21
548.99999722839846
 31
0.0
  0
LINE
  5
61D5
  8
2
 10
496.99998497962952
 20
515.99999785420891
 30
0.0
 11
909.99999105930283
 21
515.99999785424734
 31
0.0
  0
LINE
  5
61D9
  8
0
 10
951.49999359250023
 20
552.49999892824871
 30
0.0
 11
948.99999225139572
 21
552.49999892824871
 31
0.0
  0
LINE
  5
61DA
  8
0
 10
948.99999225139572
 20
585.49999459076025
 30
0.0
 11
951.49999359250023
 21
585.49999459076025
 31
0.0
  0
LINE
  5
61DB
  8
0
 10
951.49999359250023
 20
585.49999459076025
 30
0.0
 11
952.99999290704682
 21
583.99999681024565
 31
0.0
  0
LINE
  5
61DC
  8
0
 10
952.99999290704682
 20
553.99999670876321
 30
0.0
 11
951.49999359250023
 21
552.49999892824871
 31
0.0
  0
ARC
  5
61DD
  8
0
 10
970.29828093558365
 20
558.99999898726298
 30
0.0
 40
2.7017111369984179
 50
303.61187715589489
 51
359.99997408634908
  0
ARC
  5
61DE
  8
0
 10
970.29828785511961
 20
578.99999816798754
 30
0.0
 40
2.7017042174619772
 50
359.99999146088248
 51
56.388201508179613
  0
LINE
  5
61DF
  8
0
 10
971.79385149478867
 20
556.74999637166002
 30
0.0
 11
952.99999290704682
 21
556.74999637166002
 31
0.0
  0
LINE
  5
61E0
  8
0
 10
952.99999290704682
 20
581.24999707428742
 30
0.0
 11
971.79385149478867
 21
581.24999707428742
 31
0.0
  0
LINE
  5
61E1
  8
0
 10
948.99999225139572
 20
585.49999459076025
 30
0.0
 11
948.99999225139572
 21
552.49999892824906
 31
0.0
  0
LINE
  5
61E2
  8
0
 10
951.49999359250023
 20
585.49999459076025
 30
0.0
 11
951.49999359250057
 21
552.49999892824906
 31
0.0
  0
LINE
  5
61E3
  8
0
 10
952.99999290704682
 20
583.99999681024565
 30
0.0
 11
952.99999290704682
 21
553.99999670876321
 31
0.0
  0
LINE
  5
61E4
  8
0
 10
972.99999207258179
 20
578.99999783511885
 30
0.0
 11
972.99999207258179
 21
558.99999776533684
 31
0.0
  0
LINE
  5
61E5
  8
0
 10
971.79385149478867
 20
581.24999707428742
 30
0.0
 11
971.79385149478867
 21
581.22176303646393
 31
0.0
  0
POLYLINE
  5
61E6
  8
0
 66
     1
 10
0.0
 20
0.0
 30
0.0
 70
   128
  0
VERTEX
  5
129ED
  8
0
 10
971.79385149478867
 20
581.22176303646393
 30
0.0
  0
VERTEX
  5
129EE
  8
0
 10
972.35341617464974
 20
580.59694953360395
 30
0.0
  0
VERTEX
  5
129EF
  8
0
 10
972.7187591195102
 20
579.58041937572671
 30
0.0
  0
VERTEX
  5
129F0
  8
0
 10
972.8081102073188
 20
578.52238692206174
 30
0.0
  0
VERTEX
  5
129F1
  8
0
 10
972.69275659322693
 20
577.34396068648584
 30
0.0
  0
VERTEX
  5
129F2
  8
0
 10
972.14668864011719
 20
576.16558684177005
 30
0.0
  0
VERTEX
  5
129F3
  8
0
 10
971.79385149478867
 20
575.8307913314602
 30
0.0
  0
SEQEND
  5
129F4
  8
0
  0
LINE
  5
61E7
  8
0
 10
971.79385149478867
 20
574.39096332622739
 30
0.0
 11
971.79385149478867
 21
575.8307913314602
 31
0.0
  0
POLYLINE
  5
61E8
  8
0
 66
     1
 10
0.0
 20
0.0
 30
0.0
 70
   128
  0
VERTEX
  5
129F5
  8
0
 10
971.79385149478867
 20
574.39096332622739
 30
0.0
  0
VERTEX
  5
129F6
  8
0
 10
972.35341617464974
 20
573.14134570891474
 30
0.0
  0
VERTEX
  5
129F7
  8
0
 10
972.7187591195102
 20
571.10827429167512
 30
0.0
  0
VERTEX
  5
129F8
  8
0
 10
972.8081102073188
 20
568.99222086528596
 30
0.0
  0
VERTEX
  5
129F9
  8
0
 10
972.69275659322693
 20
566.63536108844619
 30
0.0
  0
VERTEX
  5
129FA
  8
0
 10
972.14668864011719
 20
564.27861911524167
 30
0.0
  0
VERTEX
  5
129FB
  8
0
 10
971.79385149478867
 20
563.60903152752053
 30
0.0
  0
SEQEND
  5
129FC
  8
0
  0
LINE
  5
61E9
  8
0
 10
971.79385149478867
 20
562.16920412351089
 30
0.0
 11
971.79385149478867
 21
563.60903152752053
 31
0.0
  0
POLYLINE
  5
61EA
  8
0
 66
     1
 10
0.0
 20
0.0
 30
0.0
 70
   128
  0
VERTEX
  5
129FD
  8
0
 10
971.79385149478867
 20
562.16920412351089
 30
0.0
  0
VERTEX
  5
129FE
  8
0
 10
972.35341617464974
 20
561.54439308094061
 30
0.0
  0
VERTEX
  5
129FF
  8
0
 10
972.7187591195102
 20
560.52785874969413
 30
0.0
  0
VERTEX
  5
12A00
  8
0
 10
972.8081102073188
 20
559.46983099497902
 30
0.0
  0
VERTEX
  5
12A01
  8
0
 10
972.69275659322693
 20
558.29140071685015
 30
0.0
  0
VERTEX
  5
12A02
  8
0
 10
972.14668864011719
 20
557.11302895991412
 30
0.0
  0
VERTEX
  5
12A03
  8
0
 10
971.79385149478867
 20
556.77823688250282
 30
0.0
  0
SEQEND
  5
12A04
  8
0
  0
LINE
  5
61EB
  8
0
 10
971.79385149478867
 20
556.74999637166002
 30
0.0
 11
971.79385149478867
 21
556.77823688250282
 31
0.0
  0
LINE
  5
61EC
  8
0
 10
952.99999290704682
 20
574.39096332622739
 30
0.0
 11
971.79385149478867
 21
574.39096332622739
 31
0.0
  0
LINE
  5
61ED
  8
0
 10
971.79385149478867
 20
563.60903152752053
 30
0.0
 11
952.99999290704682
 21
563.60903152752053
 31
0.0
  0
LINE
  5
61EE
  8
0
 10
971.79385149478867
 20
575.8307913314602
 30
0.0
 11
952.99999290704682
 21
575.8307913314602
 31
0.0
  0
LINE
  5
61EF
  8
0
 10
952.99999290704682
 20
562.16920412351089
 30
0.0
 11
971.79385149478867
 21
562.16920412351089
 31
0.0
  0
LINE
  5
61F0
  8
0
 10
971.79385149478867
 20
556.77823688250282
 30
0.0
 11
952.99999290704682
 21
556.77823688250282
 31
0.0
  0
LINE
  5
61F1
  8
0
 10
952.99999290704682
 20
581.22176303646393
 30
0.0
 11
971.79385149478867
 21
581.22176303646393
 31
0.0
  0
ARC
  5
61F2
  8
0
 10
948.5999918788666
 20
583.39999715694455
 30
0.0
 40
0.3999999999999204
 50
270.0
 51
0.0
  0
ARC
  5
61F3
  8
0
 10
948.5999918788666
 20
554.59999715694437
 30
0.0
 40
0.4000000000000626
 50
0.0000000000260551
 51
90.0
  0
LINE
  5
61F4
  8
0
 10
948.59999273717358
 20
554.99999740542796
 30
0.0
 11
910.49999108305155
 21
554.99999740542796
 31
0.0
  0
LINE
  5
61F5
  8
0
 10
910.49999108305155
 20
582.99999615729826
 30
0.0
 11
948.59999273717335
 21
582.99999615729837
 31
0.0
  0
LINE
  5
61F6
  8
3
 10
910.49999108305155
 20
580.24999832096785
 30
0.0
 11
935.5848514921953
 21
580.24999832096717
 31
0.0
  0
LINE
  5
61F7
  8
3
 10
935.58485149219575
 20
557.74999846404353
 30
0.0
 11
910.49999108305155
 21
557.74999846404353
 31
0.0
  0
LINE
  5
61F8
  8
0
 10
935.5848514921953
 20
582.99999615729894
 30
0.0
 11
935.58485149219575
 21
554.99999740542796
 31
0.0
  0
LINE
  5
61F9
  8
3
 10
935.58485149219575
 20
557.74999846404353
 30
0.0
 11
940.34799304658486
 21
554.99999740542796
 31
0.0
  0
LINE
  5
61FA
  8
3
 10
935.58485149219575
 20
580.24999832096717
 30
0.0
 11
940.34798746542594
 21
582.99999615729837
 31
0.0
  0
LINE
  5
61FB
  8
1
 10
905.49999108305155
 20
568.99999678136373
 30
0.0
 11
992.9999918788684
 21
568.99999678136373
 31
0.0
  0
LINE
  5
61FD
  8
1
 10
810.99999785423302
 20
520.99999785423586
 30
0.0
 11
810.99999785423279
 21
490.99999785423569
 31
0.0
  0
LINE
  5
61FE
  8
1
 10
610.99998503923416
 20
520.99999785421835
 30
0.0
 11
610.99998503923416
 21
483.99999774248869
 31
0.0
  0
LINE
  5
6245
  8
1
 10
556.99998450279224
 20
512.99999785424734
 30
0.0
 11
556.99998450279224
 21
530.99999785424734
 31
0.0
  0
LINE
  5
6246
  8
1
 10
547.99998450279224
 20
521.99999785424734
 30
0.0
 11
565.99998450279236
 21
521.99999785424734
 31
0.0
  0
LINE
  5
6247
  8
1
 10
849.99999105930317
 20
512.99999785424734
 30
0.0
 11
849.99999105930317
 21
530.99999785424734
 31
0.0
  0
LINE
  5
6248
  8
1
 10
840.99999105930317
 20
521.99999785424734
 30
0.0
 11
858.99999105930317
 21
521.99999785424734
 31
0.0
  0
LINE
  5
624B
  8
1
 10
526.99998450279224
 20
556.99999785424825
 30
0.0
 11
526.99998450279224
 21
578.99999785424825
 31
0.0
  0
LINE
  5
624C
  8
1
 10
515.99998450279236
 20
567.99999785424825
 30
0.0
 11
537.99998450279224
 21
567.99999785424825
 31
0.0
  0
LINE
  5
624E
  8
1
 10
526.99998617172264
 20
533.19999694825674
 30
0.0
 11
526.99998617172241
 21
553.99999722839846
 31
0.0
  0
LINE
  5
62AD
  8
0
 10
1163.99998947978
 20
520.99999822677523
 30
0.0
 11
1163.2499916851509
 21
520.99999822677523
 31
0.0
  0
LINE
  5
62AE
  8
0
 10
1163.2499916851509
 20
520.99999822677523
 30
0.0
 11
1162.7499906718731
 21
521.49999737740904
 31
0.0
  0
LINE
  5
62AF
  8
0
 10
1163.99998947978
 20
520.49999721349616
 30
0.0
 11
1163.99998947978
 21
521.19999788702864
 31
0.0
  0
LINE
  5
62B0
  8
0
 10
1221.99999153614
 20
591.49999767543216
 30
0.0
 11
1169.9999904632559
 21
591.49999767543216
 31
0.0
  0
ARC
  5
62B1
  8
0
 10
1169.999990999698
 20
590.4999978542462
 30
0.0
 40
1.000000000000085
 50
90.0
 51
180.0
  0
ARC
  5
62B2
  8
0
 10
1221.999990999698
 20
590.4999978542462
 30
0.0
 40
1.000000000000085
 50
0.0
 51
90.0
  0
LINE
  5
62B3
  8
0
 10
1123.0999937653539
 20
593.99999529124636
 30
0.0
 11
1268.8999882340429
 21
593.99999529124636
 31
0.0
  0
CIRCLE
  5
62B4
  8
0
 10
1195.9999926940709
 20
568.99999785424711
 30
0.0
 40
16.50000000000011
  0
LINE
  5
62B5
  8
0
 10
1163.4748800098889
 20
529.68529462815673
 30
0.0
 11
1170.0999921560281
 21
529.68529462815707
 31
0.0
  0
POLYLINE
  5
62B6
  8
0
 10
1163.4748784196029
 20
529.68529467639564
 30
0.0
 66
     1
 70
     8
  0
VERTEX
  8
0
  5
12B19
 10
1163.47
 20
529.685
 30
0.000000
  70
    32
  0
VERTEX
  8
0
  5
12B1A
 10
1163.47
 20
529.683
 30
0.000000
  70
    32
  0
VERTEX
  8
0
  5
12B1B
 10
1163.47
 20
529.682
 30
0.000000
  70
    32
  0
VERTEX
  8
0
  5
12B1C
 10
1163.47
 20
529.680
 30
0.000000
  70
    32
  0
VERTEX
  8
0
  5
12B1D
 10
1163.47
 20
529.678
 30
0.000000
  70
    32
  0
VERTEX
  8
0
  5
12B1E
 10
1163.47
 20
529.676
 30
0.000000
  70
    32
  0
VERTEX
  8
0
  5
12B1F
 10
1163.46
 20
529.674
 30
0.000000
  70
    32
  0
VERTEX
  8
0
  5
12B20
 10
1163.46
 20
529.672
 30
0.000000
  70
    32
  0
VERTEX
  8
0
  5
12B21
 10
1163.46
 20
529.670
 30
0.000000
  70
    32
  0
VERTEX
  8
0
  5
12B22
 10
1163.46
 20
529.669
 30
0.000000
  70
    32
  0
VERTEX
  8
0
  5
12B23
 10
1163.46
 20
529.667
 30
0.000000
  70
    32
  0
VERTEX
  8
0
  5
12B24
 10
1163.46
 20
529.665
 30
0.000000
  70
    32
  0
VERTEX
  8
0
  5
12B25
 10
1163.45
 20
529.663
 30
0.000000
  70
    32
  0
VERTEX
  8
0
  5
12B26
 10
1163.45
 20
529.661
 30
0.000000
  70
    32
  0
VERTEX
  8
0
  5
12B27
 10
1163.45
 20
529.659
 30
0.000000
  70
    32
  0
VERTEX
  8
0
  5
12B28
 10
1163.45
 20
529.658
 30
0.000000
  70
    32
  0
VERTEX
  8
0
  5
12B29
 10
1163.45
 20
529.656
 30
0.000000
  70
    32
  0
VERTEX
  8
0
  5
12B2A
 10
1163.45
 20
529.654
 30
0.000000
  70
    32
  0
VERTEX
  8
0
  5
12B2B
 10
1163.44
 20
529.652
 30
0.000000
  70
    32
  0
VERTEX
  8
0
  5
12B2C
 10
1163.44
 20
529.650
 30
0.000000
  70
    32
  0
VERTEX
  8
0
  5
12B2D
 10
1163.44
 20
529.648
 30
0.000000
  70
    32
  0
VERTEX
  8
0
  5
12B2E
 10
1163.44
 20
529.646
 30
0.000000
  70
    32
  0
VERTEX
  8
0
  5
12B2F
 10
1163.44
 20
529.645
 30
0.000000
  70
    32
  0
VERTEX
  8
0
  5
12B30
 10
1163.43
 20
529.643
 30
0.000000
  70
    32
  0
VERTEX
  8
0
  5
12B31
 10
1163.43
 20
529.641
 30
0.000000
  70
    32
  0
VERTEX
  8
0
  5
12B32
 10
1163.43
 20
529.639
 30
0.000000
  70
    32
  0
VERTEX
  8
0
  5
12B33
 10
1163.43
 20
529.637
 30
0.000000
  70
    32
  0
VERTEX
  8
0
  5
12B34
 10
1163.43
 20
529.635
 30
0.000000
  70
    32
  0
VERTEX
  8
0
  5
12B35
 10
1163.43
 20
529.633
 30
0.000000
  70
    32
  0
VERTEX
  8
0
  5
12B36
 10
1163.42
 20
529.632
 30
0.000000
  70
    32
  0
VERTEX
  8
0
  5
12B37
 10
1163.42
 20
529.630
 30
0.000000
  70
    32
  0
VERTEX
  8
0
  5
12B38
 10
1163.42
 20
529.628
 30
0.000000
  70
    32
  0
VERTEX
  8
0
  5
12B39
 10
1163.42
 20
529.626
 30
0.000000
  70
    32
  0
VERTEX
  8
0
  5
12B3A
 10
1163.42
 20
529.624
 30
0.000000
  70
    32
  0
VERTEX
  8
0
  5
12B3B
 10
1163.42
 20
529.622
 30
0.000000
  70
    32
  0
VERTEX
  8
0
  5
12B3C
 10
1163.41
 20
529.620
 30
0.000000
  70
    32
  0
VERTEX
  8
0
  5
12B3D
 10
1163.41
 20
529.619
 30
0.000000
  70
    32
  0
VERTEX
  8
0
  5
12B3E
 10
1163.41
 20
529.617
 30
0.000000
  70
    32
  0
VERTEX
  8
0
  5
12B3F
 10
1163.41
 20
529.615
 30
0.000000
  70
    32
  0
VERTEX
  8
0
  5
12B40
 10
1163.41
 20
529.613
 30
0.000000
  70
    32
  0
VERTEX
  8
0
  5
12B41
 10
1163.40
 20
529.611
 30
0.000000
  70
    32
  0
VERTEX
  8
0
  5
12B42
 10
1163.40
 20
529.609
 30
0.000000
  70
    32
  0
VERTEX
  8
0
  5
12B43
 10
1163.40
 20
529.607
 30
0.000000
  70
    32
  0
VERTEX
  8
0
  5
12B44
 10
1163.40
 20
529.606
 30
0.000000
  70
    32
  0
VERTEX
  8
0
  5
12B45
 10
1163.40
 20
529.604
 30
0.000000
  70
    32
  0
VERTEX
  8
0
  5
12B46
 10
1163.40
 20
529.602
 30
0.000000
  70
    32
  0
VERTEX
  8
0
  5
12B47
 10
1163.39
 20
529.600
 30
0.000000
  70
    32
  0
VERTEX
  8
0
  5
12B48
 10
1163.39
 20
529.598
 30
0.000000
  70
    32
  0
VERTEX
  8
0
  5
12B49
 10
1163.39
 20
529.596
 30
0.000000
  70
    32
  0
VERTEX
  8
0
  5
12B4A
 10
1163.39
 20
529.594
 30
0.000000
  70
    32
  0
VERTEX
  8
0
  5
12B4B
 10
1163.39
 20
529.593
 30
0.000000
  70
    32
  0
VERTEX
  8
0
  5
12B4C
 10
1163.39
 20
529.591
 30
0.000000
  70
    32
  0
VERTEX
  8
0
  5
12B4D
 10
1163.38
 20
529.589
 30
0.000000
  70
    32
  0
VERTEX
  8
0
  5
12B4E
 10
1163.38
 20
529.587
 30
0.000000
  70
    32
  0
VERTEX
  8
0
  5
12B4F
 10
1163.38
 20
529.585
 30
0.000000
  70
    32
  0
VERTEX
  8
0
  5
12B50
 10
1163.38
 20
529.583
 30
0.000000
  70
    32
  0
VERTEX
  8
0
  5
12B51
 10
1163.38
 20
529.582
 30
0.000000
  70
    32
  0
VERTEX
  8
0
  5
12B52
 10
1163.38
 20
529.580
 30
0.000000
  70
    32
  0
VERTEX
  8
0
  5
12B53
 10
1163.37
 20
529.578
 30
0.000000
  70
    32
  0
VERTEX
  8
0
  5
12B54
 10
1163.37
 20
529.576
 30
0.000000
  70
    32
  0
VERTEX
  8
0
  5
12B55
 10
1163.37
 20
529.574
 30
0.000000
  70
    32
  0
VERTEX
  8
0
  5
12B56
 10
1163.37
 20
529.572
 30
0.000000
  70
    32
  0
VERTEX
  8
0
  5
12B57
 10
1163.37
 20
529.570
 30
0.000000
  70
    32
  0
VERTEX
  8
0
  5
12B58
 10
1163.36
 20
529.569
 30
0.000000
  70
    32
  0
VERTEX
  8
0
  5
12B59
 10
1163.36
 20
529.567
 30
0.000000
  70
    32
  0
VERTEX
  8
0
  5
12B5A
 10
1163.36
 20
529.565
 30
0.000000
  70
    32
  0
VERTEX
  8
0
  5
12B5B
 10
1163.36
 20
529.563
 30
0.000000
  70
    32
  0
VERTEX
  8
0
  5
12B5C
 10
1163.36
 20
529.561
 30
0.000000
  70
    32
  0
VERTEX
  8
0
  5
12B5D
 10
1163.36
 20
529.559
 30
0.000000
  70
    32
  0
VERTEX
  8
0
  5
12B5E
 10
1163.35
 20
529.557
 30
0.000000
  70
    32
  0
VERTEX
  8
0
  5
12B5F
 10
1163.35
 20
529.556
 30
0.000000
  70
    32
  0
VERTEX
  8
0
  5
12B60
 10
1163.35
 20
529.554
 30
0.000000
  70
    32
  0
VERTEX
  8
0
  5
12B61
 10
1163.35
 20
529.552
 30
0.000000
  70
    32
  0
VERTEX
  8
0
  5
12B62
 10
1163.35
 20
529.550
 30
0.000000
  70
    32
  0
VERTEX
  8
0
  5
12B63
 10
1163.35
 20
529.548
 30
0.000000
  70
    32
  0
VERTEX
  8
0
  5
12B64
 10
1163.34
 20
529.546
 30
0.000000
  70
    32
  0
VERTEX
  8
0
  5
12B65
 10
1163.34
 20
529.544
 30
0.000000
  70
    32
  0
VERTEX
  8
0
  5
12B66
 10
1163.34
 20
529.543
 30
0.000000
  70
    32
  0
VERTEX
  8
0
  5
12B67
 10
1163.34
 20
529.541
 30
0.000000
  70
    32
  0
VERTEX
  8
0
  5
12B68
 10
1163.34
 20
529.539
 30
0.000000
  70
    32
  0
VERTEX
  8
0
  5
12B69
 10
1163.33
 20
529.537
 30
0.000000
  70
    32
  0
VERTEX
  8
0
  5
12B6A
 10
1163.33
 20
529.535
 30
0.000000
  70
    32
  0
VERTEX
  8
0
  5
12B6B
 10
1163.33
 20
529.533
 30
0.000000
  70
    32
  0
VERTEX
  8
0
  5
12B6C
 10
1163.33
 20
529.531
 30
0.000000
  70
    32
  0
VERTEX
  8
0
  5
12B6D
 10
1163.33
 20
529.530
 30
0.000000
  70
    32
  0
VERTEX
  8
0
  5
12B6E
 10
1163.33
 20
529.528
 30
0.000000
  70
    32
  0
VERTEX
  8
0
  5
12B6F
 10
1163.32
 20
529.526
 30
0.000000
  70
    32
  0
VERTEX
  8
0
  5
12B70
 10
1163.32
 20
529.524
 30
0.000000
  70
    32
  0
VERTEX
  8
0
  5
12B71
 10
1163.32
 20
529.522
 30
0.000000
  70
    32
  0
VERTEX
  8
0
  5
12B72
 10
1163.32
 20
529.520
 30
0.000000
  70
    32
  0
VERTEX
  8
0
  5
12B73
 10
1163.32
 20
529.518
 30
0.000000
  70
    32
  0
VERTEX
  8
0
  5
12B74
 10
1163.32
 20
529.517
 30
0.000000
  70
    32
  0
VERTEX
  8
0
  5
12B75
 10
1163.31
 20
529.515
 30
0.000000
  70
    32
  0
VERTEX
  8
0
  5
12B76
 10
1163.31
 20
529.513
 30
0.000000
  70
    32
  0
VERTEX
  8
0
  5
12B77
 10
1163.31
 20
529.511
 30
0.000000
  70
    32
  0
VERTEX
  8
0
  5
12B78
 10
1163.31
 20
529.509
 30
0.000000
  70
    32
  0
VERTEX
  8
0
  5
12B79
 10
1163.31
 20
529.507
 30
0.000000
  70
    32
  0
VERTEX
  8
0
  5
12B7A
 10
1163.30
 20
529.505
 30
0.000000
  70
    32
  0
VERTEX
  8
0
  5
12B7B
 10
1163.30
 20
529.504
 30
0.000000
  70
    32
  0
VERTEX
  8
0
  5
12B7C
 10
1163.30
 20
529.502
 30
0.000000
  70
    32
  0
VERTEX
  8
0
  5
12B7D
 10
1163.30
 20
529.500
 30
0.000000
  70
    32
  0
VERTEX
  8
0
  5
12B7E
 10
1163.30
 20
529.498
 30
0.000000
  70
    32
  0
VERTEX
  8
0
  5
12B7F
 10
1163.30
 20
529.496
 30
0.000000
  70
    32
  0
VERTEX
  8
0
  5
12B80
 10
1163.29
 20
529.494
 30
0.000000
  70
    32
  0
VERTEX
  8
0
  5
12B81
 10
1163.29
 20
529.492
 30
0.000000
  70
    32
  0
VERTEX
  8
0
  5
12B82
 10
1163.29
 20
529.491
 30
0.000000
  70
    32
  0
VERTEX
  8
0
  5
12B83
 10
1163.29
 20
529.489
 30
0.000000
  70
    32
  0
VERTEX
  8
0
  5
12B84
 10
1163.29
 20
529.487
 30
0.000000
  70
    32
  0
VERTEX
  8
0
  5
12B85
 10
1163.29
 20
529.485
 30
0.000000
  70
    32
  0
VERTEX
  8
0
  5
12B86
 10
1163.28
 20
529.483
 30
0.000000
  70
    32
  0
VERTEX
  8
0
  5
12B87
 10
1163.28
 20
529.481
 30
0.000000
  70
    32
  0
VERTEX
  8
0
  5
12B88
 10
1163.28
 20
529.480
 30
0.000000
  70
    32
  0
VERTEX
  8
0
  5
12B89
 10
1163.28
 20
529.478
 30
0.000000
  70
    32
  0
VERTEX
  8
0
  5
12B8A
 10
1163.28
 20
529.476
 30
0.000000
  70
    32
  0
VERTEX
  8
0
  5
12B8B
 10
1163.27
 20
529.474
 30
0.000000
  70
    32
  0
VERTEX
  8
0
  5
12B8C
 10
1163.27
 20
529.472
 30
0.000000
  70
    32
  0
VERTEX
  8
0
  5
12B8D
 10
1163.27
 20
529.470
 30
0.000000
  70
    32
  0
VERTEX
  8
0
  5
12B8E
 10
1163.27
 20
529.468
 30
0.000000
  70
    32
  0
VERTEX
  8
0
  5
12B8F
 10
1163.27
 20
529.467
 30
0.000000
  70
    32
  0
VERTEX
  8
0
  5
12B90
 10
1163.27
 20
529.465
 30
0.000000
  70
    32
  0
VERTEX
  8
0
  5
12B91
 10
1163.26
 20
529.463
 30
0.000000
  70
    32
  0
VERTEX
  8
0
  5
12B92
 10
1163.26
 20
529.461
 30
0.000000
  70
    32
  0
VERTEX
  8
0
  5
12B93
 10
1163.26
 20
529.459
 30
0.000000
  70
    32
  0
VERTEX
  8
0
  5
12B94
 10
1163.26
 20
529.457
 30
0.000000
  70
    32
  0
VERTEX
  8
0
  5
12B95
 10
1163.26
 20
529.455
 30
0.000000
  70
    32
  0
VERTEX
  8
0
  5
12B96
 10
1163.26
 20
529.454
 30
0.000000
  70
    32
  0
VERTEX
  8
0
  5
12B97
 10
1163.25
 20
529.452
 30
0.000000
  70
    32
  0
VERTEX
  8
0
  5
12B98
 10
1163.25
 20
529.450
 30
0.000000
  70
    32
  0
VERTEX
  8
0
  5
12B99
 10
1163.25
 20
529.448
 30
0.000000
  70
    32
  0
SEQEND
  8
0
  5
12B9A
  0
LINE
  5
62B7
  8
0
 10
1162.7499906718731
 20
521.49999737740904
 30
0.0
 11
1162.7499906718731
 21
531.99999630452578
 31
0.0
  0
LINE
  5
62B8
  8
0
 10
1162.7499906718731
 20
529.06099930406947
 30
0.0
 11
1163.2499916851509
 21
529.44795638324172
 31
0.0
  0
LINE
  5
62B9
  8
0
 10
1163.99998947978
 20
521.19999788702864
 30
0.0
 11
1170.0999921560281
 21
521.19999788702864
 31
0.0
  0
LINE
  5
62BA
  8
0
 10
1170.0999921560281
 20
590.49999564887435
 30
0.0
 11
1170.0999921560281
 21
516.49999842049033
 31
0.0
  0
LINE
  5
62BB
  8
0
 10
1170.0999921560281
 20
590.49999564887435
 30
0.0
 11
1170.5999913066621
 21
590.99999666215331
 31
0.0
  0
LINE
  5
62BC
  8
0
 10
1221.899991706013
 20
590.49999564887435
 30
0.0
 11
1221.899991706013
 21
516.49999842049033
 31
0.0
  0
LINE
  5
62BD
  8
0
 10
1221.899991706013
 20
590.49999564887435
 30
0.0
 11
1221.399990692734
 21
590.99999666215331
 31
0.0
  0
LINE
  5
62BE
  8
0
 10
1221.399990692734
 20
590.99999666215331
 30
0.0
 11
1170.5999913066621
 21
590.99999666215331
 31
0.0
  0
LINE
  5
62BF
  8
0
 10
1170.5999913066621
 20
515.99999740721125
 30
0.0
 11
1170.0999921560281
 21
516.49999842049033
 31
0.0
  0
LINE
  5
62C0
  8
0
 10
1168.9999902993429
 20
591.99999868871157
 30
0.0
 11
1168.9999902993429
 21
549.23847913743396
 31
0.0
  0
LINE
  5
62C1
  8
0
 10
1222.999991700053
 20
559.83239263297457
 30
0.0
 11
1268.8999882340429
 21
559.83239263297457
 31
0.0
  0
LINE
  5
62C2
  8
0
 10
1268.8999882340429
 20
590.99999666215331
 30
0.0
 11
1267.8999936580649
 21
591.99999868871123
 31
0.0
  0
LINE
  5
62C3
  8
0
 10
1267.8999936580649
 20
591.99999868871123
 30
0.0
 11
1124.0999883413299
 21
591.99999868871123
 31
0.0
  0
LINE
  5
62C4
  8
0
 10
1222.999991700053
 20
591.99999868871123
 30
0.0
 11
1222.999991700053
 21
549.23847754148824
 31
0.0
  0
ARC
  5
62C5
  8
0
 10
1222.562919366658
 20
548.56842696475417
 30
0.0
 40
0.8000000000000449
 50
315.27857411318519
 51
56.883749191538477
  0
LINE
  5
62C6
  8
0
 10
1221.899991706013
 20
546.7621083725187
 30
0.0
 11
1223.1313491612671
 21
548.00549745561034
 31
0.0
  0
LINE
  5
62C7
  8
0
 10
1268.8999882340429
 20
593.99999529124636
 30
0.0
 11
1268.8999882340429
 21
544.99999657274634
 31
0.0
  0
LINE
  5
62C8
  8
0
 10
1267.8999936580649
 20
543.99999827147872
 30
0.0
 11
1268.8999882340429
 21
544.99999657274634
 31
0.0
  0
LINE
  5
62C9
  8
0
 10
1221.9944911450141
 20
549.13135468961138
 30
0.0
 11
1221.899991706013
 21
549.0359324923445
 31
0.0
  0
ARC
  5
62CA
  8
0
 10
1222.562919366658
 20
548.56842696475417
 30
0.0
 40
0.7999999999999945
 50
56.883749191538477
 51
135.27857411318519
  0
LINE
  5
62CB
  8
0
 10
1165.99999167025
 20
495.99999785424637
 30
0.0
 11
1186.9999913871279
 21
495.99999785424632
 31
0.0
  0
LINE
  5
62CC
  8
0
 10
1226.9999904930589
 20
496.9999979017436
 30
0.0
 11
1225.9999903291459
 21
495.99999785424609
 31
0.0
  0
LINE
  5
62CD
  8
0
 10
1226.9999904930589
 20
496.9999979017436
 30
0.0
 11
1246.9999900460241
 21
496.9999979017436
 31
0.0
  0
LINE
  5
62CE
  8
0
 10
1247.999992072582
 20
495.99999785424609
 30
0.0
 11
1246.9999900460241
 21
496.9999979017436
 31
0.0
  0
LINE
  5
62CF
  8
0
 10
1268.9999899268139
 20
496.9999979017436
 30
0.0
 11
1268.9999899268139
 21
514.49999809266467
 31
0.0
  0
LINE
  5
62D0
  8
0
 10
1267.9999879002571
 20
515.49999825657756
 30
0.0
 11
1268.9999899268139
 21
514.49999809266467
 31
0.0
  0
LINE
  5
62D1
  8
0
 10
1267.9999879002571
 20
515.49999825657756
 30
0.0
 11
1261.9999906420701
 21
515.49999825657756
 31
0.0
  0
LINE
  5
62D2
  8
0
 10
1261.9999906420701
 20
515.49999825657756
 30
0.0
 11
1261.9999906420701
 21
528.49999666215331
 31
0.0
  0
LINE
  5
62D3
  8
0
 10
1261.9999906420701
 20
528.49999666215331
 30
0.0
 11
1267.9999879002571
 21
528.49999666215331
 31
0.0
  0
LINE
  5
62D4
  8
0
 10
1268.9999899268139
 20
529.49999868871123
 30
0.0
 11
1267.9999879002571
 21
528.49999666215331
 31
0.0
  0
LINE
  5
62D5
  8
0
 10
1268.9999899268139
 20
529.49999868871123
 30
0.0
 11
1268.9999899268139
 21
542.99999624492068
 31
0.0
  0
LINE
  5
62D6
  8
0
 10
1267.9999879002571
 20
543.99999827147872
 30
0.0
 11
1268.9999899268139
 21
542.99999624492068
 31
0.0
  0
LINE
  5
62D7
  8
0
 10
1267.9999879002571
 20
543.99999827147872
 30
0.0
 11
1221.899991706013
 21
543.99999827147872
 31
0.0
  0
LINE
  5
62D8
  8
0
 10
1222.1999911963931
 20
515.99999740721125
 30
0.0
 11
1169.7999908030031
 21
515.99999740721125
 31
0.0
  0
LINE
  5
62D9
  8
0
 10
1169.7999908030031
 20
515.99999740721125
 30
0.0
 11
1169.7999908030031
 21
520.49999721349616
 31
0.0
  0
LINE
  5
62DA
  8
0
 10
1169.7999908030031
 20
520.49999721349616
 30
0.0
 11
1162.4999901652329
 21
520.49999721349616
 31
0.0
  0
LINE
  5
62DB
  8
0
 10
1162.4999901652329
 20
520.49999721349616
 30
0.0
 11
1162.4999901652329
 21
531.99999630452544
 31
0.0
  0
LINE
  5
62DC
  8
0
 10
1162.4999901652329
 20
531.99999630452544
 30
0.0
 11
1170.0999921560281
 21
531.99999630452544
 31
0.0
  0
LINE
  5
62DD
  8
0
 10
1169.0999919921151
 20
543.99999827147872
 30
0.0
 11
1170.0999921560281
 21
542.99999624492068
 31
0.0
  0
LINE
  5
62DE
  8
0
 10
1123.9999940991399
 20
528.49999666215331
 30
0.0
 11
1122.999992072582
 21
529.49999868871123
 31
0.0
  0
LINE
  5
62DF
  8
0
 10
1123.9999940991399
 20
528.49999666215331
 30
0.0
 11
1129.9999913573261
 21
528.49999666215331
 31
0.0
  0
LINE
  5
62E0
  8
0
 10
1129.9999913573261
 20
528.49999666215331
 30
0.0
 11
1129.9999913573261
 21
515.49999825657756
 31
0.0
  0
LINE
  5
62E1
  8
0
 10
1129.9999913573261
 20
515.49999825657756
 30
0.0
 11
1123.9999940991399
 21
515.49999825657756
 31
0.0
  0
LINE
  5
62E2
  8
0
 10
1122.999992072582
 20
514.49999809266467
 30
0.0
 11
1123.9999940991399
 21
515.49999825657756
 31
0.0
  0
LINE
  5
62E3
  8
0
 10
1122.999992072582
 20
514.49999809266467
 30
0.0
 11
1122.999992072582
 21
496.9999979017436
 31
0.0
  0
LINE
  5
62E4
  8
0
 10
1123.9999940991399
 20
495.99999785424609
 30
0.0
 11
1122.999992072582
 21
496.9999979017436
 31
0.0
  0
LINE
  5
62E5
  8
0
 10
1123.9999940991399
 20
495.99999785424609
 30
0.0
 11
1143.9999899268139
 21
495.99999785424609
 31
0.0
  0
LINE
  5
62E6
  8
0
 10
1144.999991953372
 20
496.9999979017436
 30
0.0
 11
1143.9999899268139
 21
495.99999785424609
 31
0.0
  0
LINE
  5
62E7
  8
0
 10
1144.999991953372
 20
496.9999979017436
 30
0.0
 11
1164.9999915063379
 21
496.9999979017436
 31
0.0
  0
LINE
  5
62E8
  8
0
 10
1165.99999167025
 20
495.99999785424609
 30
0.0
 11
1164.9999915063379
 21
496.9999979017436
 31
0.0
  0
LINE
  5
62EA
  8
0
 10
1247.999992072582
 20
495.99999785424609
 30
0.0
 11
1267.9999879002571
 21
495.99999785424609
 31
0.0
  0
LINE
  5
62EB
  8
0
 10
1268.9999899268139
 20
496.9999979017436
 30
0.0
 11
1267.9999879002571
 21
495.99999785424609
 31
0.0
  0
LINE
  5
62EC
  8
0
 10
1186.9999913871279
 20
489.49999735505719
 30
0.0
 11
1186.9999913871279
 21
500.99999774248738
 31
0.0
  0
LINE
  5
62EE
  8
0
 10
1192.4999909736209
 20
501.49999782444382
 30
0.0
 11
1192.4999909736209
 21
500.99999774248738
 31
0.0
  0
LINE
  5
62EF
  8
0
 10
1192.4999909736209
 20
501.49999782444382
 30
0.0
 11
1199.499991025775
 21
501.49999782444382
 31
0.0
  0
LINE
  5
62F0
  8
0
 10
1199.499991025775
 20
500.99999774248738
 30
0.0
 11
1199.499991025775
 21
501.49999782444382
 31
0.0
  0
LINE
  5
62F2
  8
0
 10
1204.999990612268
 20
500.99999774248738
 30
0.0
 11
1204.999990612268
 21
489.4999973550573
 31
0.0
  0
ARC
  5
62F3
  8
0
 10
1195.999990999698
 20
568.99999825508053
 30
0.0
 40
12.249999999999959
 50
86.108905677624634
 51
93.891094322375366
  0
ARC
  5
62F4
  8
0
 10
1195.999990999698
 20
568.99999825508053
 30
0.0
 40
12.24999999999998
 50
146.10890567761601
 51
153.89109432238851
  0
ARC
  5
62F5
  8
0
 10
1195.999990999698
 20
568.99999825508053
 30
0.0
 40
12.25000000000006
 50
206.10890567761149
 51
213.89109432238351
  0
ARC
  5
62F6
  8
0
 10
1195.999990999698
 20
568.99999825508053
 30
0.0
 40
12.250000000000099
 50
266.10890567762459
 51
273.8910943223745
  0
ARC
  5
62F7
  8
0
 10
1195.999990999698
 20
568.99999825508053
 30
0.0
 40
12.25000000000006
 50
326.10890567761612
 51
333.89109432235972
  0
ARC
  5
62F8
  8
0
 10
1195.999990999698
 20
568.99999825508053
 30
0.0
 40
12.24999999999998
 50
26.108905677611499
 51
33.89109432238395
  0
LINE
  5
62F9
  8
0
 10
1195.1687033489441
 20
581.22176002831543
 30
0.0
 11
1185.8312786504521
 21
575.83079536510354
 31
0.0
  0
LINE
  5
62FA
  8
0
 10
1184.999990999698
 20
574.39096291829333
 30
0.0
 11
1184.999990999698
 21
563.60903359186864
 31
0.0
  0
LINE
  5
62FB
  8
0
 10
1185.8312786504521
 20
562.16920114505785
 30
0.0
 11
1195.1687033489441
 21
556.77823648184562
 31
0.0
  0
LINE
  5
62FC
  8
0
 10
1196.8312786504509
 20
556.77823648184562
 30
0.0
 11
1206.1687033489441
 21
562.16920114505785
 31
0.0
  0
LINE
  5
62FD
  8
0
 10
1206.999990999697
 20
563.60903359186773
 30
0.0
 11
1206.9999909996991
 21
574.39096291829151
 31
0.0
  0
LINE
  5
62FE
  8
0
 10
1206.1687033489441
 20
575.83079536510354
 30
0.0
 11
1196.8312786504521
 21
581.22176002831543
 31
0.0
  0
CIRCLE
  5
62FF
  8
0
 10
1195.9999909068711
 20
568.99999675950471
 30
0.0
 40
10.0
  0
CIRCLE
  5
6300
  8
3
 10
1229.499990999698
 20
571.99999785424609
 30
0.0
 40
4.0
  0
CIRCLE
  5
6301
  8
0
 10
1229.499990999698
 20
571.99999785424609
 30
0.0
 40
3.3235000000000001
  0
LINE
  5
6302
  8
1
 10
1195.999990999698
 20
613.99999529124636
 30
0.0
 11
1195.999990999698
 21
468.99999774248738
 31
0.0
  0
LINE
  5
6303
  8
1
 10
1229.499990999698
 20
580.9999978542462
 30
0.0
 11
1229.499990999698
 21
562.99999785424609
 31
0.0
  0
LINE
  5
6304
  8
1
 10
1238.499990999698
 20
571.99999785424609
 30
0.0
 11
1220.499990999698
 21
571.99999785424609
 31
0.0
  0
CIRCLE
  5
6305
  8
3
 10
1162.499990999698
 20
571.99999785424711
 30
0.0
 40
4.0
  0
CIRCLE
  5
6306
  8
0
 10
1162.499990999698
 20
571.99999785424711
 30
0.0
 40
3.3235000000000001
  0
LINE
  5
6307
  8
1
 10
1162.499990999698
 20
580.99999785424711
 30
0.0
 11
1162.499990999698
 21
562.999997854247
 31
0.0
  0
LINE
  5
6308
  8
1
 10
1171.499990999698
 20
571.99999785424711
 30
0.0
 11
1153.499990999698
 21
571.99999785424711
 31
0.0
  0
LINE
  5
6309
  8
0
 10
1168.9999902993429
 20
559.83239263297457
 30
0.0
 11
1123.0999937653539
 21
559.83239263297457
 31
0.0
  0
LINE
  5
630A
  8
0
 10
1123.0999937653539
 20
590.99999666215331
 30
0.0
 11
1124.099988341331
 21
591.99999868871123
 31
0.0
  0
LINE
  5
630B
  8
0
 10
1123.0999937653539
 20
593.99999529124636
 30
0.0
 11
1123.0999937653539
 21
544.99999657274634
 31
0.0
  0
LINE
  5
630C
  8
0
 10
1124.099988341331
 20
543.99999827147872
 30
0.0
 11
1123.0999937653539
 21
544.99999657274634
 31
0.0
  0
LINE
  5
630D
  8
0
 10
1122.999992072582
 20
529.49999868871123
 30
0.0
 11
1122.999992072582
 21
542.99999624492068
 31
0.0
  0
LINE
  5
630E
  8
0
 10
1123.9999940991399
 20
543.99999827147872
 30
0.0
 11
1122.999992072582
 21
542.99999624492068
 31
0.0
  0
LINE
  5
630F
  8
0
 10
1123.9999940991399
 20
543.99999827147872
 30
0.0
 11
1170.0999921560281
 21
543.99999827147872
 31
0.0
  0
LINE
  5
6310
  8
0
 10
1227.9999925196171
 20
520.99999822677523
 30
0.0
 11
1228.749990314245
 21
520.99999822677523
 31
0.0
  0
LINE
  5
6311
  8
0
 10
1228.749990314245
 20
520.99999822677523
 30
0.0
 11
1229.249991327524
 21
521.49999737740904
 31
0.0
  0
LINE
  5
6312
  8
0
 10
1227.9999925196171
 20
520.49999721349616
 30
0.0
 11
1227.9999925196171
 21
521.19999788702864
 31
0.0
  0
LINE
  5
6313
  8
0
 10
1228.525101989507
 20
529.68529462815673
 30
0.0
 11
1221.899991706013
 21
529.68529462815673
 31
0.0
  0
POLYLINE
  5
6314
  8
0
 10
1228.525103579793
 20
529.68529467639564
 30
0.0
 66
     1
 70
     8
  0
VERTEX
  8
0
  5
12B9B
 10
1228.53
 20
529.685
 30
0.000000
  70
    32
  0
VERTEX
  8
0
  5
12B9C
 10
1228.53
 20
529.683
 30
0.000000
  70
    32
  0
VERTEX
  8
0
  5
12B9D
 10
1228.53
 20
529.682
 30
0.000000
  70
    32
  0
VERTEX
  8
0
  5
12B9E
 10
1228.53
 20
529.680
 30
0.000000
  70
    32
  0
VERTEX
  8
0
  5
12B9F
 10
1228.53
 20
529.678
 30
0.000000
  70
    32
  0
VERTEX
  8
0
  5
12BA0
 10
1228.53
 20
529.676
 30
0.000000
  70
    32
  0
VERTEX
  8
0
  5
12BA1
 10
1228.54
 20
529.674
 30
0.000000
  70
    32
  0
VERTEX
  8
0
  5
12BA2
 10
1228.54
 20
529.672
 30
0.000000
  70
    32
  0
VERTEX
  8
0
  5
12BA3
 10
1228.54
 20
529.670
 30
0.000000
  70
    32
  0
VERTEX
  8
0
  5
12BA4
 10
1228.54
 20
529.669
 30
0.000000
  70
    32
  0
VERTEX
  8
0
  5
12BA5
 10
1228.54
 20
529.667
 30
0.000000
  70
    32
  0
VERTEX
  8
0
  5
12BA6
 10
1228.54
 20
529.665
 30
0.000000
  70
    32
  0
VERTEX
  8
0
  5
12BA7
 10
1228.55
 20
529.663
 30
0.000000
  70
    32
  0
VERTEX
  8
0
  5
12BA8
 10
1228.55
 20
529.661
 30
0.000000
  70
    32
  0
VERTEX
  8
0
  5
12BA9
 10
1228.55
 20
529.659
 30
0.000000
  70
    32
  0
VERTEX
  8
0
  5
12BAA
 10
1228.55
 20
529.658
 30
0.000000
  70
    32
  0
VERTEX
  8
0
  5
12BAB
 10
1228.55
 20
529.656
 30
0.000000
  70
    32
  0
VERTEX
  8
0
  5
12BAC
 10
1228.55
 20
529.654
 30
0.000000
  70
    32
  0
VERTEX
  8
0
  5
12BAD
 10
1228.56
 20
529.652
 30
0.000000
  70
    32
  0
VERTEX
  8
0
  5
12BAE
 10
1228.56
 20
529.650
 30
0.000000
  70
    32
  0
VERTEX
  8
0
  5
12BAF
 10
1228.56
 20
529.648
 30
0.000000
  70
    32
  0
VERTEX
  8
0
  5
12BB0
 10
1228.56
 20
529.646
 30
0.000000
  70
    32
  0
VERTEX
  8
0
  5
12BB1
 10
1228.56
 20
529.645
 30
0.000000
  70
    32
  0
VERTEX
  8
0
  5
12BB2
 10
1228.57
 20
529.643
 30
0.000000
  70
    32
  0
VERTEX
  8
0
  5
12BB3
 10
1228.57
 20
529.641
 30
0.000000
  70
    32
  0
VERTEX
  8
0
  5
12BB4
 10
1228.57
 20
529.639
 30
0.000000
  70
    32
  0
VERTEX
  8
0
  5
12BB5
 10
1228.57
 20
529.637
 30
0.000000
  70
    32
  0
VERTEX
  8
0
  5
12BB6
 10
1228.57
 20
529.635
 30
0.000000
  70
    32
  0
VERTEX
  8
0
  5
12BB7
 10
1228.57
 20
529.633
 30
0.000000
  70
    32
  0
VERTEX
  8
0
  5
12BB8
 10
1228.58
 20
529.632
 30
0.000000
  70
    32
  0
VERTEX
  8
0
  5
12BB9
 10
1228.58
 20
529.630
 30
0.000000
  70
    32
  0
VERTEX
  8
0
  5
12BBA
 10
1228.58
 20
529.628
 30
0.000000
  70
    32
  0
VERTEX
  8
0
  5
12BBB
 10
1228.58
 20
529.626
 30
0.000000
  70
    32
  0
VERTEX
  8
0
  5
12BBC
 10
1228.58
 20
529.624
 30
0.000000
  70
    32
  0
VERTEX
  8
0
  5
12BBD
 10
1228.58
 20
529.622
 30
0.000000
  70
    32
  0
VERTEX
  8
0
  5
12BBE
 10
1228.59
 20
529.620
 30
0.000000
  70
    32
  0
VERTEX
  8
0
  5
12BBF
 10
1228.59
 20
529.619
 30
0.000000
  70
    32
  0
VERTEX
  8
0
  5
12BC0
 10
1228.59
 20
529.617
 30
0.000000
  70
    32
  0
VERTEX
  8
0
  5
12BC1
 10
1228.59
 20
529.615
 30
0.000000
  70
    32
  0
VERTEX
  8
0
  5
12BC2
 10
1228.59
 20
529.613
 30
0.000000
  70
    32
  0
VERTEX
  8
0
  5
12BC3
 10
1228.60
 20
529.611
 30
0.000000
  70
    32
  0
VERTEX
  8
0
  5
12BC4
 10
1228.60
 20
529.609
 30
0.000000
  70
    32
  0
VERTEX
  8
0
  5
12BC5
 10
1228.60
 20
529.607
 30
0.000000
  70
    32
  0
VERTEX
  8
0
  5
12BC6
 10
1228.60
 20
529.606
 30
0.000000
  70
    32
  0
VERTEX
  8
0
  5
12BC7
 10
1228.60
 20
529.604
 30
0.000000
  70
    32
  0
VERTEX
  8
0
  5
12BC8
 10
1228.60
 20
529.602
 30
0.000000
  70
    32
  0
VERTEX
  8
0
  5
12BC9
 10
1228.61
 20
529.600
 30
0.000000
  70
    32
  0
VERTEX
  8
0
  5
12BCA
 10
1228.61
 20
529.598
 30
0.000000
  70
    32
  0
VERTEX
  8
0
  5
12BCB
 10
1228.61
 20
529.596
 30
0.000000
  70
    32
  0
VERTEX
  8
0
  5
12BCC
 10
1228.61
 20
529.594
 30
0.000000
  70
    32
  0
VERTEX
  8
0
  5
12BCD
 10
1228.61
 20
529.593
 30
0.000000
  70
    32
  0
VERTEX
  8
0
  5
12BCE
 10
1228.61
 20
529.591
 30
0.000000
  70
    32
  0
VERTEX
  8
0
  5
12BCF
 10
1228.62
 20
529.589
 30
0.000000
  70
    32
  0
VERTEX
  8
0
  5
12BD0
 10
1228.62
 20
529.587
 30
0.000000
  70
    32
  0
VERTEX
  8
0
  5
12BD1
 10
1228.62
 20
529.585
 30
0.000000
  70
    32
  0
VERTEX
  8
0
  5
12BD2
 10
1228.62
 20
529.583
 30
0.000000
  70
    32
  0
VERTEX
  8
0
  5
12BD3
 10
1228.62
 20
529.582
 30
0.000000
  70
    32
  0
VERTEX
  8
0
  5
12BD4
 10
1228.62
 20
529.580
 30
0.000000
  70
    32
  0
VERTEX
  8
0
  5
12BD5
 10
1228.63
 20
529.578
 30
0.000000
  70
    32
  0
VERTEX
  8
0
  5
12BD6
 10
1228.63
 20
529.576
 30
0.000000
  70
    32
  0
VERTEX
  8
0
  5
12BD7
 10
1228.63
 20
529.574
 30
0.000000
  70
    32
  0
VERTEX
  8
0
  5
12BD8
 10
1228.63
 20
529.572
 30
0.000000
  70
    32
  0
VERTEX
  8
0
  5
12BD9
 10
1228.63
 20
529.570
 30
0.000000
  70
    32
  0
VERTEX
  8
0
  5
12BDA
 10
1228.64
 20
529.569
 30
0.000000
  70
    32
  0
VERTEX
  8
0
  5
12BDB
 10
1228.64
 20
529.567
 30
0.000000
  70
    32
  0
VERTEX
  8
0
  5
12BDC
 10
1228.64
 20
529.565
 30
0.000000
  70
    32
  0
VERTEX
  8
0
  5
12BDD
 10
1228.64
 20
529.563
 30
0.000000
  70
    32
  0
VERTEX
  8
0
  5
12BDE
 10
1228.64
 20
529.561
 30
0.000000
  70
    32
  0
VERTEX
  8
0
  5
12BDF
 10
1228.64
 20
529.559
 30
0.000000
  70
    32
  0
VERTEX
  8
0
  5
12BE0
 10
1228.65
 20
529.557
 30
0.000000
  70
    32
  0
VERTEX
  8
0
  5
12BE1
 10
1228.65
 20
529.556
 30
0.000000
  70
    32
  0
VERTEX
  8
0
  5
12BE2
 10
1228.65
 20
529.554
 30
0.000000
  70
    32
  0
VERTEX
  8
0
  5
12BE3
 10
1228.65
 20
529.552
 30
0.000000
  70
    32
  0
VERTEX
  8
0
  5
12BE4
 10
1228.65
 20
529.550
 30
0.000000
  70
    32
  0
VERTEX
  8
0
  5
12BE5
 10
1228.65
 20
529.548
 30
0.000000
  70
    32
  0
VERTEX
  8
0
  5
12BE6
 10
1228.66
 20
529.546
 30
0.000000
  70
    32
  0
VERTEX
  8
0
  5
12BE7
 10
1228.66
 20
529.544
 30
0.000000
  70
    32
  0
VERTEX
  8
0
  5
12BE8
 10
1228.66
 20
529.543
 30
0.000000
  70
    32
  0
VERTEX
  8
0
  5
12BE9
 10
1228.66
 20
529.541
 30
0.000000
  70
    32
  0
VERTEX
  8
0
  5
12BEA
 10
1228.66
 20
529.539
 30
0.000000
  70
    32
  0
VERTEX
  8
0
  5
12BEB
 10
1228.67
 20
529.537
 30
0.000000
  70
    32
  0
VERTEX
  8
0
  5
12BEC
 10
1228.67
 20
529.535
 30
0.000000
  70
    32
  0
VERTEX
  8
0
  5
12BED
 10
1228.67
 20
529.533
 30
0.000000
  70
    32
  0
VERTEX
  8
0
  5
12BEE
 10
1228.67
 20
529.531
 30
0.000000
  70
    32
  0
VERTEX
  8
0
  5
12BEF
 10
1228.67
 20
529.530
 30
0.000000
  70
    32
  0
VERTEX
  8
0
  5
12BF0
 10
1228.67
 20
529.528
 30
0.000000
  70
    32
  0
VERTEX
  8
0
  5
12BF1
 10
1228.68
 20
529.526
 30
0.000000
  70
    32
  0
VERTEX
  8
0
  5
12BF2
 10
1228.68
 20
529.524
 30
0.000000
  70
    32
  0
VERTEX
  8
0
  5
12BF3
 10
1228.68
 20
529.522
 30
0.000000
  70
    32
  0
VERTEX
  8
0
  5
12BF4
 10
1228.68
 20
529.520
 30
0.000000
  70
    32
  0
VERTEX
  8
0
  5
12BF5
 10
1228.68
 20
529.518
 30
0.000000
  70
    32
  0
VERTEX
  8
0
  5
12BF6
 10
1228.68
 20
529.517
 30
0.000000
  70
    32
  0
VERTEX
  8
0
  5
12BF7
 10
1228.69
 20
529.515
 30
0.000000
  70
    32
  0
VERTEX
  8
0
  5
12BF8
 10
1228.69
 20
529.513
 30
0.000000
  70
    32
  0
VERTEX
  8
0
  5
12BF9
 10
1228.69
 20
529.511
 30
0.000000
  70
    32
  0
VERTEX
  8
0
  5
12BFA
 10
1228.69
 20
529.509
 30
0.000000
  70
    32
  0
VERTEX
  8
0
  5
12BFB
 10
1228.69
 20
529.507
 30
0.000000
  70
    32
  0
VERTEX
  8
0
  5
12BFC
 10
1228.70
 20
529.505
 30
0.000000
  70
    32
  0
VERTEX
  8
0
  5
12BFD
 10
1228.70
 20
529.504
 30
0.000000
  70
    32
  0
VERTEX
  8
0
  5
12BFE
 10
1228.70
 20
529.502
 30
0.000000
  70
    32
  0
VERTEX
  8
0
  5
12BFF
 10
1228.70
 20
529.500
 30
0.000000
  70
    32
  0
VERTEX
  8
0
  5
12C00
 10
1228.70
 20
529.498
 30
0.000000
  70
    32
  0
VERTEX
  8
0
  5
12C01
 10
1228.70
 20
529.496
 30
0.000000
  70
    32
  0
VERTEX
  8
0
  5
12C02
 10
1228.71
 20
529.494
 30
0.000000
  70
    32
  0
VERTEX
  8
0
  5
12C03
 10
1228.71
 20
529.492
 30
0.000000
  70
    32
  0
VERTEX
  8
0
  5
12C04
 10
1228.71
 20
529.491
 30
0.000000
  70
    32
  0
VERTEX
  8
0
  5
12C05
 10
1228.71
 20
529.489
 30
0.000000
  70
    32
  0
VERTEX
  8
0
  5
12C06
 10
1228.71
 20
529.487
 30
0.000000
  70
    32
  0
VERTEX
  8
0
  5
12C07
 10
1228.71
 20
529.485
 30
0.000000
  70
    32
  0
VERTEX
  8
0
  5
12C08
 10
1228.72
 20
529.483
 30
0.000000
  70
    32
  0
VERTEX
  8
0
  5
12C09
 10
1228.72
 20
529.481
 30
0.000000
  70
    32
  0
VERTEX
  8
0
  5
12C0A
 10
1228.72
 20
529.480
 30
0.000000
  70
    32
  0
VERTEX
  8
0
  5
12C0B
 10
1228.72
 20
529.478
 30
0.000000
  70
    32
  0
VERTEX
  8
0
  5
12C0C
 10
1228.72
 20
529.476
 30
0.000000
  70
    32
  0
VERTEX
  8
0
  5
12C0D
 10
1228.73
 20
529.474
 30
0.000000
  70
    32
  0
VERTEX
  8
0
  5
12C0E
 10
1228.73
 20
529.472
 30
0.000000
  70
    32
  0
VERTEX
  8
0
  5
12C0F
 10
1228.73
 20
529.470
 30
0.000000
  70
    32
  0
VERTEX
  8
0
  5
12C10
 10
1228.73
 20
529.468
 30
0.000000
  70
    32
  0
VERTEX
  8
0
  5
12C11
 10
1228.73
 20
529.467
 30
0.000000
  70
    32
  0
VERTEX
  8
0
  5
12C12
 10
1228.73
 20
529.465
 30
0.000000
  70
    32
  0
VERTEX
  8
0
  5
12C13
 10
1228.74
 20
529.463
 30
0.000000
  70
    32
  0
VERTEX
  8
0
  5
12C14
 10
1228.74
 20
529.461
 30
0.000000
  70
    32
  0
VERTEX
  8
0
  5
12C15
 10
1228.74
 20
529.459
 30
0.000000
  70
    32
  0
VERTEX
  8
0
  5
12C16
 10
1228.74
 20
529.457
 30
0.000000
  70
    32
  0
VERTEX
  8
0
  5
12C17
 10
1228.74
 20
529.455
 30
0.000000
  70
    32
  0
VERTEX
  8
0
  5
12C18
 10
1228.74
 20
529.454
 30
0.000000
  70
    32
  0
VERTEX
  8
0
  5
12C19
 10
1228.75
 20
529.452
 30
0.000000
  70
    32
  0
VERTEX
  8
0
  5
12C1A
 10
1228.75
 20
529.450
 30
0.000000
  70
    32
  0
VERTEX
  8
0
  5
12C1B
 10
1228.75
 20
529.448
 30
0.000000
  70
    32
  0
SEQEND
  8
0
  5
12C1C
  0
LINE
  5
6315
  8
0
 10
1229.249991327524
 20
521.49999737740904
 30
0.0
 11
1229.249991327524
 21
531.99999630452578
 31
0.0
  0
LINE
  5
6316
  8
0
 10
1229.249991327524
 20
529.06099930406947
 30
0.0
 11
1228.749990314245
 21
529.44795638324172
 31
0.0
  0
LINE
  5
6317
  8
0
 10
1227.9999925196171
 20
521.19999788702864
 30
0.0
 11
1221.899991706013
 21
521.19999788702864
 31
0.0
  0
LINE
  5
6318
  8
0
 10
1221.399992555379
 20
515.99999740721125
 30
0.0
 11
1221.899991706013
 21
516.49999842049033
 31
0.0
  0
LINE
  5
6319
  8
0
 10
1222.1999911963931
 20
515.99999740721125
 30
0.0
 11
1222.1999911963931
 21
520.49999721349616
 31
0.0
  0
LINE
  5
631A
  8
0
 10
1222.1999911963931
 20
520.49999721349616
 30
0.0
 11
1229.499991834163
 21
520.49999721349616
 31
0.0
  0
LINE
  5
631B
  8
0
 10
1229.499991834163
 20
520.49999721349616
 30
0.0
 11
1229.499991834163
 21
531.99999630452544
 31
0.0
  0
LINE
  5
631C
  8
0
 10
1229.499991834163
 20
531.99999630452544
 30
0.0
 11
1221.899991706013
 21
531.99999630452544
 31
0.0
  0
LINE
  5
631D
  8
0
 10
1222.899991869926
 20
543.99999827147872
 30
0.0
 11
1221.899991706013
 21
542.99999624492068
 31
0.0
  0
ARC
  5
631E
  8
0
 10
1169.4370626327379
 20
548.56842696475417
 30
0.0
 40
0.8000000000000449
 50
123.1162508084615
 51
224.7214258868147
  0
LINE
  5
631F
  8
0
 10
1170.0999902933829
 20
546.7621083725187
 30
0.0
 11
1168.8686328381291
 21
548.00549745561034
 31
0.0
  0
LINE
  5
6320
  8
0
 10
1170.0054908543821
 20
549.13135468961138
 30
0.0
 11
1170.0999902933829
 21
549.0359324923445
 31
0.0
  0
ARC
  5
6321
  8
0
 10
1169.4370626327379
 20
548.56842696475417
 30
0.0
 40
0.7999999999999945
 50
44.721425886834311
 51
123.1162508084615
  0
LINE
  5
6323
  8
1
 10
1174.49999269407
 20
568.99999675950471
 30
0.0
 11
1217.4999926940709
 21
568.99999675950471
 31
0.0
  0
LINE
  5
6427
  8
0
 10
200.10000169277171
 20
586.99999785424734
 30
0.0
 11
345.89999616146059
 21
586.99999785424734
 31
0.0
  0
LINE
  5
6428
  8
0
 10
200.10000169277171
 20
581.99999785424734
 30
0.0
 11
345.89999616146059
 21
581.99999785424734
 31
0.0
  0
LINE
  5
6429
  8
0
 10
200.10000169277171
 20
576.99999785424734
 30
0.0
 11
345.89999616146059
 21
576.99999785424734
 31
0.0
  0
LINE
  5
642A
  8
0
 10
200.10000169277171
 20
571.99999785424734
 30
0.0
 11
234.9999989270768
 21
571.99999785424734
 31
0.0
  0
LINE
  5
642B
  8
0
 10
200.10000169277171
 20
566.99999785424734
 30
0.0
 11
345.89999616146059
 21
566.99999785424734
 31
0.0
  0
LINE
  5
642C
  8
0
 10
200.10000169277171
 20
561.99999785424734
 30
0.0
 11
345.89999616146059
 21
561.99999785424734
 31
0.0
  0
LINE
  5
642D
  8
0
 10
200.10000169277171
 20
556.99999785424734
 30
0.0
 11
345.89999616146059
 21
556.99999785424734
 31
0.0
  0
CIRCLE
  5
6430
  8
0
 10
239.49999892711639
 20
571.99999785424734
 30
0.0
 40
4.500000000039563
  0
LINE
  5
6431
  8
0
 10
243.99999892715601
 20
571.99999785424734
 30
0.0
 11
301.99999892710548
 21
571.99999785424734
 31
0.0
  0
CIRCLE
  5
6432
  8
0
 10
306.49999892711639
 20
571.99999785424734
 30
0.0
 40
4.5000000000109344
  0
LINE
  5
6433
  8
0
 10
310.99999892712731
 20
571.99999785424734
 30
0.0
 11
345.89999616146059
 21
571.99999785424734
 31
0.0
  0
LINE
  5
6434
  8
1
 10
272.99999892711622
 20
468.99999774248857
 30
0.0
 11
272.99999892711622
 21
613.99999529124761
 31
0.0
  0
LINE
  5
6479
  8
1
 10
230.4999989271177
 20
571.99999785424734
 30
0.0
 11
248.49999892711779
 21
571.99999785424734
 31
0.0
  0
LINE
  5
647A
  8
1
 10
239.49999892711779
 20
580.99999785424734
 30
0.0
 11
239.49999892711779
 21
562.99999785424734
 31
0.0
  0
LINE
  5
647C
  8
1
 10
297.49999892711747
 20
571.99999785424734
 30
0.0
 11
315.49999892711747
 21
571.99999785424734
 31
0.0
  0
LINE
  5
647D
  8
1
 10
306.4999989271189
 20
580.99999785424734
 30
0.0
 11
306.4999989271189
 21
562.99999785424734
 31
0.0
  0
LINE
  5
6528
  8
1
 10
992.9999988675097
 20
272.99999892711628
 30
0.0
 11
475.99999785423302
 21
272.99999892711628
 31
0.0
  0
LINE
  5
6529
  8
0
 10
951.50000019371305
 20
289.49999947024293
 30
0.0
 11
952.99999950825952
 21
287.99999889829081
 31
0.0
  0
LINE
  5
652A
  8
0
 10
952.99999950825986
 20
257.99999908905909
 30
0.0
 11
951.50000019371328
 21
256.4999976328271
 31
0.0
  0
LINE
  5
652B
  8
0
 10
951.50000019371328
 20
256.4999976328271
 30
0.0
 11
948.99999885260854
 21
256.4999976328271
 31
0.0
  0
LINE
  5
652C
  8
0
 10
948.99999885260854
 20
289.49999947024293
 30
0.0
 11
951.50000019371305
 21
289.49999947024293
 31
0.0
  0
ARC
  5
652D
  8
0
 10
948.59999867379474
 20
287.39999892711592
 30
0.0
 40
0.3999999999999204
 50
270.0
 51
0.0
  0
ARC
  5
652E
  8
0
 10
948.59999867379474
 20
258.59999892711579
 30
0.0
 40
0.4000000000000626
 50
0.0000000000260551
 51
90.0
  0
LINE
  5
652F
  8
0
 10
948.59999953210183
 20
258.99999917559933
 30
0.0
 11
910.49999787797935
 21
258.99999917559933
 31
0.0
  0
LINE
  5
6530
  8
0
 10
910.49999787797935
 20
286.99999792746968
 30
0.0
 11
948.59999953210138
 21
286.99999792746968
 31
0.0
  0
ARC
  5
6531
  8
0
 10
970.29829275162274
 20
262.99999892711628
 30
0.0
 40
2.7017059221718389
 50
338.26051268787819
 51
0.0
  0
ARC
  5
6532
  8
0
 10
970.29829275162274
 20
282.99999892711628
 30
0.0
 40
2.7017059221718389
 50
0.0
 51
21.72402599247263
  0
LINE
  5
6533
  8
3
 10
910.49999787797935
 20
284.25000009113899
 30
0.0
 11
935.58485828712355
 21
284.25000009113847
 31
0.0
  0
LINE
  5
6534
  8
3
 10
935.58485828712367
 20
261.75000023421478
 30
0.0
 11
910.49999787797935
 21
261.75000023421433
 31
0.0
  0
LINE
  5
6535
  8
0
 10
952.99999950825952
 20
287.99999889829081
 30
0.0
 11
952.99999950825986
 21
257.99999908905909
 31
0.0
  0
LINE
  5
6536
  8
0
 10
951.50000019371305
 20
289.49999947024293
 30
0.0
 11
951.50000019371328
 21
256.4999976328271
 31
0.0
  0
LINE
  5
6537
  8
0
 10
948.99999885260854
 20
289.49999947024293
 30
0.0
 11
948.99999885260854
 21
256.4999976328271
 31
0.0
  0
LINE
  5
6538
  8
0
 10
972.99999867379449
 20
282.99999892711628
 30
0.0
 11
972.99999867379449
 21
262.99999892711628
 31
0.0
  0
LINE
  5
6539
  8
0
 10
971.79385809600137
 20
273.83128564172682
 30
0.0
 11
971.79385809600137
 21
272.16871231241191
 31
0.0
  0
POLYLINE
  5
653A
  8
0
 66
     1
 10
0.0
 20
0.0
 30
0.0
 70
   128
  0
VERTEX
  5
12A05
  8
0
 10
971.79385809600137
 20
272.16871231241191
 30
0.0
  0
VERTEX
  5
12A06
  8
0
 10
972.35342277586255
 20
271.08651046596691
 30
0.0
  0
VERTEX
  5
12A07
  8
0
 10
972.73114858567499
 20
269.30902311459971
 30
0.0
  0
VERTEX
  5
12A08
  8
0
 10
972.80811680853151
 20
267.49326237785488
 30
0.0
  0
VERTEX
  5
12A09
  8
0
 10
972.70784316956815
 20
265.411938057643
 30
0.0
  0
VERTEX
  5
12A0A
  8
0
 10
972.14669524132989
 20
263.41116643421981
 30
0.0
  0
VERTEX
  5
12A0B
  8
0
 10
971.79385809600137
 20
262.83128572328479
 30
0.0
  0
SEQEND
  5
12A0C
  8
0
  0
LINE
  5
653B
  8
0
 10
971.79385809600137
 20
261.99999909846321
 30
0.0
 11
971.79385809600137
 21
262.83128572328479
 31
0.0
  0
LINE
  5
653C
  8
0
 10
971.79385809600137
 20
283.16871176548273
 30
0.0
 11
971.79385809600137
 21
283.99999846997878
 31
0.0
  0
POLYLINE
  5
653D
  8
0
 66
     1
 10
0.0
 20
0.0
 30
0.0
 70
   128
  0
VERTEX
  5
12A0D
  8
0
 10
971.79385809600137
 20
283.16871176548273
 30
0.0
  0
VERTEX
  5
12A0E
  8
0
 10
972.35342277586255
 20
282.08650989166728
 30
0.0
  0
VERTEX
  5
12A0F
  8
0
 10
972.7187657207229
 20
280.3258215554423
 30
0.0
  0
VERTEX
  5
12A10
  8
0
 10
972.80811680853151
 20
278.49326221160919
 30
0.0
  0
VERTEX
  5
12A11
  8
0
 10
972.69276319443975
 20
276.45216294029149
 30
0.0
  0
VERTEX
  5
12A12
  8
0
 10
972.14669524132989
 20
274.41116722847971
 30
0.0
  0
VERTEX
  5
12A13
  8
0
 10
971.79385809600137
 20
273.83128564172682
 30
0.0
  0
SEQEND
  5
12A14
  8
0
  0
LINE
  5
653E
  8
0
 10
952.99999950825952
 20
283.16871176548273
 30
0.0
 11
971.79385809600137
 21
283.16871176548273
 31
0.0
  0
LINE
  5
653F
  8
0
 10
971.79385809600137
 20
273.83128564172682
 30
0.0
 11
952.99999950825952
 21
273.83128564172682
 31
0.0
  0
LINE
  5
6540
  8
0
 10
952.99999950825952
 20
272.16871231241191
 30
0.0
 11
971.79385809600137
 21
272.16871231241191
 31
0.0
  0
LINE
  5
6541
  8
0
 10
971.79385809600137
 20
262.83128572328479
 30
0.0
 11
952.99999950825952
 21
262.83128572328479
 31
0.0
  0
LINE
  5
6542
  8
0
 10
972.80811661081543
 20
283.99999846997878
 30
0.0
 11
952.99999950825952
 21
283.99999846997878
 31
0.0
  0
LINE
  5
6543
  8
0
 10
952.99999950825952
 20
261.99999909846321
 30
0.0
 11
972.80811649694658
 21
261.99999909846372
 31
0.0
  0
LINE
  5
6544
  8
0
 10
935.58485828712355
 20
286.99999792747019
 30
0.0
 11
935.58485828712355
 21
258.99999917559933
 31
0.0
  0
LINE
  5
6545
  8
3
 10
935.58485828712367
 20
261.75000023421478
 30
0.0
 11
940.347999841513
 21
258.99999917559933
 31
0.0
  0
LINE
  5
6546
  8
3
 10
935.58485828712367
 20
284.25000009113847
 30
0.0
 11
940.34799426035386
 21
286.99999792746968
 31
0.0
  0
LINE
  5
6547
  8
0
 10
910.49999787797969
 20
298.39999768883001
 30
0.0
 11
910.49999787797969
 21
247.60000016540249
 31
0.0
  0
LINE
  5
6548
  8
0
 10
910.49999787797969
 20
298.39999768883001
 30
0.0
 11
909.99999785423097
 21
298.89999870210897
 31
0.0
  0
LINE
  5
6549
  8
0
 10
910.49999787797969
 20
247.60000016540249
 30
0.0
 11
909.99999785423097
 21
247.09999915212359
 31
0.0
  0
ARC
  5
654A
  8
0
 10
912.99999785423097
 20
272.99999892711639
 30
0.0
 40
10.0
 50
107.4576031237236
 51
120.67111828890781
  0
ARC
  5
654B
  8
0
 10
867.99999785423097
 20
272.99999892711639
 30
0.0
 40
10.0
 50
59.328873399206891
 51
300.67112660079141
  0
LINE
  5
6550
  8
1
 10
867.99999785423097
 20
287.99999892711639
 30
0.0
 11
867.99999785423097
 21
257.99999892711639
 31
0.0
  0
LINE
  5
6552
  8
0
 10
534.64108556508995
 20
281.99999853968552
 30
0.0
 11
498.35888391826279
 21
281.99999853968529
 31
0.0
  0
LINE
  5
6553
  8
0
 10
498.35888391826279
 20
263.99999931454568
 30
0.0
 11
534.64108556508995
 21
263.9999993145459
 31
0.0
  0
ARC
  5
6556
  8
0
 10
493.99998497962929
 20
272.99999892711548
 30
0.0
 40
10.0
 50
287.4576031237321
 51
300.67111828891069
  0
ARC
  5
6557
  8
0
 10
538.99998497962929
 20
272.99999892711571
 30
0.0
 40
10.0
 50
239.32887339920569
 51
120.6711266007902
  0
LINE
  5
655B
  8
1
 10
538.99998497962929
 20
287.99999892711571
 30
0.0
 11
538.99998497962929
 21
257.99999892711571
 31
0.0
  0
CIRCLE
  5
655C
  8
0
 10
610.99998450279224
 20
303.99999892711639
 30
0.0
 40
10.0
  0
ARC
  5
655D
  8
0
 10
610.99998450279224
 20
348.99999892711639
 30
0.0
 40
10.0
 50
197.4576095677088
 51
342.5423904322912
  0
CIRCLE
  5
655F
  8
0
 10
610.99998450279224
 20
326.4982467671162
 30
0.0
 40
2.0669999999999988
  0
CIRCLE
  5
6560
  8
3
 10
610.99998450279224
 20
326.4982467671162
 30
0.0
 40
2.5
  0
LINE
  5
6561
  8
1
 10
603.49998450279236
 20
326.4982467671162
 30
0.0
 11
618.49998450279224
 21
326.4982467671162
 31
0.0
  0
LINE
  5
6562
  8
1
 10
610.99998450279247
 20
355.99999785423279
 30
0.0
 11
610.99998450279179
 21
189.99999999999969
 31
0.0
  0
LINE
  5
6563
  8
1
 10
595.99998450279224
 20
303.99999892711639
 30
0.0
 11
625.99998450279224
 21
303.99999892711639
 31
0.0
  0
LINE
  5
6567
  8
0
 10
601.999974250793
 20
237.64108227532299
 30
0.0
 11
601.99997425079289
 21
201.35885761786679
 31
0.0
  0
LINE
  5
6569
  8
0
 10
619.99998092651288
 20
201.35885761786651
 30
0.0
 11
619.99998092651322
 21
237.6410537234465
 31
0.0
  0
LINE
  5
656B
  8
0
 10
607.49999284744194
 20
206.3674582700846
 30
0.0
 11
607.49999284744217
 21
232.63246478248811
 31
0.0
  0
LINE
  5
656C
  8
0
 10
614.49999213218643
 20
232.63246478248789
 30
0.0
 11
614.49999213218609
 21
206.3674582700844
 31
0.0
  0
CIRCLE
  5
656D
  8
0
 10
610.99998450279213
 20
241.99996005107141
 30
0.0
 40
10.0
  0
ARC
  5
656E
  8
0
 10
610.99998450279168
 20
196.99996005107141
 30
0.0
 40
10.0
 50
17.457609567702121
 51
162.54239043229779
  0
CIRCLE
  5
656F
  8
0
 10
610.99998450279179
 20
219.50171221107169
 30
0.0
 40
2.0669999999999988
  0
CIRCLE
  5
6570
  8
3
 10
610.99998450279179
 20
219.50171221107169
 30
0.0
 40
2.5
  0
LINE
  5
6571
  8
1
 10
603.49998450279179
 20
219.50171221107169
 30
0.0
 11
618.4999845027919
 21
219.50171221107141
 31
0.0
  0
LINE
  5
6572
  8
1
 10
595.99998450279213
 20
241.99996005107141
 30
0.0
 11
625.99998450279213
 21
241.99996005107121
 31
0.0
  0
CIRCLE
  5
6EC2
  8
0
 10
526.99998450279224
 20
567.99999785424825
 30
0.0
 40
5.0
  0
CIRCLE
  5
6EC3
  8
3
 10
526.99998450279224
 20
567.99999785424825
 30
0.0
 40
6.0
  0
CIRCLE
  5
717D
  8
3
 10
239.49999892711779
 20
571.99999785424734
 30
0.0
 40
4.0
  0
CIRCLE
  5
717E
  8
0
 10
239.49999892711779
 20
571.99999785424734
 30
0.0
 40
3.399999999999999
  0
CIRCLE
  5
717F
  8
3
 10
306.49999892711747
 20
571.99999785424734
 30
0.0
 40
4.0
  0
CIRCLE
  5
7180
  8
0
 10
306.49999892711747
 20
571.99999785424734
 30
0.0
 40
3.399999999999999
  0
CIRCLE
  5
7181
  8
0
 10
1162.499990999698
 20
571.99999785424711
 30
0.0
 40
4.5
  0
CIRCLE
  5
7182
  8
0
 10
1229.499990999698
 20
571.99999785424711
 30
0.0
 40
4.5
  0
CIRCLE
  5
7183
  8
0
 10
849.99999105930317
 20
521.99999785424734
 30
0.0
 40
3.375
  0
CIRCLE
  5
7184
  8
3
 10
849.99999105930317
 20
521.99999785424734
 30
0.0
 40
4.0
  0
CIRCLE
  5
7185
  8
0
 10
556.99998450279224
 20
521.99999785424734
 30
0.0
 40
3.375
  0
CIRCLE
  5
7186
  8
3
 10
556.99998450279224
 20
521.99999785424734
 30
0.0
 40
4.0
  0
CIRCLE
  5
D543
  8
3
 10
696.9999725818634
 20
816.99999421836401
 30
0.0
 40
7.0
  0
CIRCLE
  5
D544
  8
0
 10
696.9999725818634
 20
816.99999421836401
 30
0.0
 40
5.9175000000000004
  0
CIRCLE
  5
11FEB
  8
0
 10
810.99999785423222
 20
272.99999892711639
 30
0.0
 40
6.25
  0
LINE
  5
11FEC
  8
1
 10
810.99999785423222
 20
284.24999892711639
 30
0.0
 11
810.99999785423222
 21
261.74999892711639
 31
0.0
  0
LINE
  5
11FED
  8
1
 10
696.99998450279224
 20
284.99999892711043
 30
0.0
 11
696.99998450279224
 21
260.99999892712219
 31
0.0
  0
CIRCLE
  5
11FEE
  8
3
 10
696.9999725818634
 20
272.99999892711628
 30
0.0
 40
7.0
  0
CIRCLE
  5
11FEF
  8
0
 10
696.9999725818634
 20
272.99999892711628
 30
0.0
 40
5.9175000000000004
  0
LINE
  5
12130
  8
1
 10
992.9999918788684
 20
816.99999421836401
 30
0.0
 11
475.99999785423302
 21
816.99999421836401
 31
0.0
  0
LINE
  5
125E5
  8
5
 10
601.99998450279224
 20
309.4982467671162
 30
0.0
 11
601.99998450279224
 21
343.49824676711609
 31
0.0
  0
LINE
  5
125E6
  8
5
 10
602.49998450279224
 20
343.99824676711609
 30
0.0
 11
619.49998450279224
 21
343.99824676711609
 31
0.0
  0
LINE
  5
125E7
  8
5
 10
619.99998450279236
 20
343.49824676711609
 30
0.0
 11
619.99998450279236
 21
309.4982467671162
 31
0.0
  0
LINE
  5
125E8
  8
5
 10
619.49998450279224
 20
308.99824676711609
 30
0.0
 11
602.49998450279224
 21
308.99824676711609
 31
0.0
  0
LINE
  5
125EB
  8
5
 10
619.99998450279236
 20
343.49824676711609
 30
0.0
 11
619.49998450279224
 21
343.99824676711609
 31
0.0
  0
LINE
  5
125EC
  8
5
 10
619.99998450279236
 20
309.4982467671162
 30
0.0
 11
619.49998450279224
 21
308.99824676711609
 31
0.0
  0
LINE
  5
125ED
  8
5
 10
602.49998450279224
 20
308.99824676711609
 30
0.0
 11
601.99998450279224
 21
309.4982467671162
 31
0.0
  0
LINE
  5
125EE
  8
5
 10
601.99998450279224
 20
343.49824676711609
 30
0.0
 11
602.49998450279224
 21
343.99824676711609
 31
0.0
  0
CIRCLE
  5
125EF
  8
5
 10
610.99998450279224
 20
326.4982467671162
 30
0.0
 40
4.75
  0
LINE
  5
125F0
  8
5
 10
602.49998450279224
 20
500.99999774248869
 30
0.0
 11
619.49998450279224
 21
500.99999774248869
 31
0.0
  0
LINE
  5
125F2
  8
5
 10
601.99998450279224
 20
500.49999774248857
 30
0.0
 11
602.49998450279224
 21
500.99999774248869
 31
0.0
  0
LINE
  5
125F3
  8
5
 10
601.99998450279224
 20
489.49999774248869
 30
0.0
 11
601.99998450279224
 21
500.49999774248857
 31
0.0
  0
LINE
  5
125F4
  8
5
 10
619.99998450279236
 20
489.49999774248869
 30
0.0
 11
619.99998450279236
 21
500.49999774248857
 31
0.0
  0
LINE
  5
125F5
  8
5
 10
619.99998450279236
 20
500.49999774248857
 30
0.0
 11
619.49998450279224
 21
500.99999774248869
 31
0.0
  0
LINE
  5
125FB
  8
5
 10
602.49998450279224
 20
488.99999774248869
 30
0.0
 11
619.49998450279224
 21
488.99999774248869
 31
0.0
  0
LINE
  5
125FC
  8
5
 10
601.99998450279224
 20
489.49999774248869
 30
0.0
 11
602.49998450279224
 21
488.99999774248869
 31
0.0
  0
LINE
  5
125FD
  8
5
 10
619.99998450279236
 20
489.49999774248869
 30
0.0
 11
619.49998450279224
 21
488.99999774248869
 31
0.0
  0
LINE
  5
125FF
  8
1
 10
1142.501743159698
 20
483.99999774248869
 30
0.0
 11
1142.501743159698
 21
511.19999774248868
 31
0.0
  0
LINE
  5
12601
  8
5
 10
1160.001743159698
 20
489.49999774248869
 30
0.0
 11
1160.001743159698
 21
496.99999790174371
 31
0.0
  0
LINE
  5
12602
  8
5
 10
1125.001743159698
 20
489.49999774248869
 30
0.0
 11
1125.001743159698
 21
495.99999785424609
 31
0.0
  0
LINE
  5
12609
  8
5
 10
1159.501743159698
 20
488.99999774248869
 30
0.0
 11
1125.501743159698
 21
488.99999774248869
 31
0.0
  0
LINE
  5
1260A
  8
5
 10
1160.001743159698
 20
489.49999774248869
 30
0.0
 11
1159.501743159698
 21
488.99999774248869
 31
0.0
  0
LINE
  5
1260B
  8
5
 10
1125.001743159698
 20
489.49999774248869
 30
0.0
 11
1125.501743159698
 21
488.99999774248869
 31
0.0
  0
LINE
  5
1260C
  8
5
 10
601.9999845027919
 20
236.50171221107161
 30
0.0
 11
601.9999845027919
 21
202.50171221107149
 31
0.0
  0
LINE
  5
1260D
  8
5
 10
602.49998450279179
 20
202.00171221107149
 30
0.0
 11
619.49998450279179
 21
202.00171221107149
 31
0.0
  0
LINE
  5
1260E
  8
5
 10
619.99998450279179
 20
202.50171221107149
 30
0.0
 11
619.99998450279179
 21
236.50171221107161
 31
0.0
  0
LINE
  5
1260F
  8
5
 10
619.49998450279179
 20
237.00171221107161
 30
0.0
 11
602.49998450279179
 21
237.00171221107161
 31
0.0
  0
LINE
  5
12612
  8
5
 10
619.99998450279179
 20
202.50171221107149
 30
0.0
 11
619.49998450279179
 21
202.00171221107149
 31
0.0
  0
LINE
  5
12613
  8
5
 10
619.99998450279179
 20
236.50171221107161
 30
0.0
 11
619.49998450279179
 21
237.00171221107161
 31
0.0
  0
LINE
  5
12614
  8
5
 10
602.49998450279179
 20
237.00171221107161
 30
0.0
 11
601.9999845027919
 21
236.50171221107161
 31
0.0
  0
LINE
  5
12615
  8
5
 10
601.9999845027919
 20
202.50171221107149
 30
0.0
 11
602.49998450279179
 21
202.00171221107149
 31
0.0
  0
CIRCLE
  5
12616
  8
5
 10
610.99998450279179
 20
219.50171221107161
 30
0.0
 40
4.75
  0
LINE
  5
12626
  8
1
 10
1249.498277715742
 20
483.99999774248869
 30
0.0
 11
1249.498277715742
 21
511.19999774248868
 31
0.0
  0
LINE
  5
12628
  8
5
 10
1231.998277715742
 20
489.49999774248869
 30
0.0
 11
1231.998277715742
 21
496.99999790174371
 31
0.0
  0
LINE
  5
12629
  8
5
 10
1266.998277715742
 20
489.49999774248869
 30
0.0
 11
1266.998277715742
 21
495.99999785424609
 31
0.0
  0
LINE
  5
12630
  8
5
 10
1232.498277715742
 20
488.99999774248869
 30
0.0
 11
1266.498277715742
 21
488.99999774248869
 31
0.0
  0
LINE
  5
12631
  8
5
 10
1231.998277715742
 20
489.49999774248869
 30
0.0
 11
1232.498277715742
 21
488.99999774248869
 31
0.0
  0
LINE
  5
12632
  8
5
 10
1266.998277715742
 20
489.49999774248869
 30
0.0
 11
1266.498277715742
 21
488.99999774248869
 31
0.0
  0
LINE
  5
12659
  8
5
 10
613.49998450279224
 20
500.99999774248869
 30
0.0
 11
613.49998450279224
 21
501.49999782444502
 31
0.0
  0
LINE
  5
1265A
  8
5
 10
613.06698450279259
 20
500.99999774248869
 30
0.0
 11
613.06698450279259
 21
501.4999978244449
 31
0.0
  0
LINE
  5
1265B
  8
5
 10
608.93298450279212
 20
500.99999774248869
 30
0.0
 11
608.93298450279212
 21
501.4999978244449
 31
0.0
  0
LINE
  5
1265C
  8
5
 10
608.49998450279224
 20
500.99999774248869
 30
0.0
 11
608.49998450279224
 21
501.49999782444502
 31
0.0
  0
LINE
  5
12687
  8
5
 10
609.84528396441317
 20
324.49824676711643
 30
0.0
 11
608.69058342603387
 21
326.49824676711643
 31
0.0
  0
LINE
  5
12688
  8
5
 10
608.69058342603387
 20
326.49824676711643
 30
0.0
 11
609.84528396441317
 21
328.4982467671162
 31
0.0
  0
LINE
  5
12689
  8
5
 10
609.84528396441317
 20
328.4982467671162
 30
0.0
 11
612.154685041172
 21
328.4982467671162
 31
0.0
  0
LINE
  5
1268A
  8
5
 10
612.154685041172
 20
328.4982467671162
 30
0.0
 11
613.30938557955085
 21
326.4982467671162
 31
0.0
  0
LINE
  5
1268B
  8
5
 10
613.30938557955085
 20
326.4982467671162
 30
0.0
 11
612.15468504117143
 21
324.49824676711592
 31
0.0
  0
LINE
  5
1268C
  8
5
 10
612.15468504117143
 20
324.49824676711592
 30
0.0
 11
609.84528396441317
 21
324.49824676711643
 31
0.0
  0
CIRCLE
  5
1268D
  8
5
 10
610.99998450279224
 20
326.4982467671162
 30
0.0
 40
4.25
  0
LINE
  5
1268E
  8
5
 10
609.84528396441283
 20
217.5017122110718
 30
0.0
 11
608.69058342603353
 21
219.5017122110718
 31
0.0
  0
LINE
  5
1268F
  8
5
 10
608.69058342603353
 20
219.5017122110718
 30
0.0
 11
609.84528396441283
 21
221.50171221107149
 31
0.0
  0
LINE
  5
12690
  8
5
 10
609.84528396441283
 20
221.50171221107149
 30
0.0
 11
612.15468504117155
 21
221.50171221107149
 31
0.0
  0
LINE
  5
12691
  8
5
 10
612.15468504117155
 20
221.50171221107149
 30
0.0
 11
613.30938557955051
 21
219.50171221107161
 31
0.0
  0
LINE
  5
12692
  8
5
 10
613.30938557955051
 20
219.50171221107161
 30
0.0
 11
612.15468504117098
 21
217.50171221107129
 31
0.0
  0
LINE
  5
12693
  8
5
 10
612.15468504117098
 20
217.50171221107129
 30
0.0
 11
609.84528396441283
 21
217.5017122110718
 31
0.0
  0
CIRCLE
  5
12694
  8
5
 10
610.99998450279179
 20
219.50171221107161
 30
0.0
 40
4.25
  0
LINE
  5
1269F
  8
0
 10
533.99998398574246
 20
281.49999892711628
 30
0.0
 11
533.99998398574246
 21
264.49999892711628
 31
0.0
  0
LINE
  5
126A1
  8
0
 10
498.99998398574252
 20
264.49999892711628
 30
0.0
 11
498.99998398574252
 21
281.49999892711628
 31
0.0
  0
LINE
  5
126A3
  8
1
 10
516.49998398574257
 20
286.99999892711628
 30
0.0
 11
516.49998398574257
 21
258.99999892711628
 31
0.0
  0
LINE
  5
126A4
  8
0
 10
533.49998398574257
 20
263.99999892711628
 30
0.0
 11
533.99998398574246
 21
264.49999892711628
 31
0.0
  0
LINE
  5
126A5
  8
0
 10
499.49998398574257
 20
263.99999892711628
 30
0.0
 11
498.99998398574252
 21
264.49999892711628
 31
0.0
  0
LINE
  5
126A6
  8
0
 10
498.99998398574252
 20
281.49999892711628
 30
0.0
 11
499.49998398574257
 21
281.99999892711628
 31
0.0
  0
LINE
  5
126A7
  8
0
 10
533.49998398574257
 20
281.99999892711628
 30
0.0
 11
533.99998398574246
 21
281.49999892711628
 31
0.0
  0
CIRCLE
  5
126A8
  8
0
 10
516.49998398574257
 20
272.99999892711628
 30
0.0
 40
4.75
  0
LINE
  5
126A9
  8
0
 10
263.99999931454641
 20
500.99999774248852
 30
0.0
 11
281.99999853968598
 21
500.99999774248852
 31
0.0
  0
LINE
  5
126AB
  8
0
 10
263.99999892711622
 20
500.49999774248852
 30
0.0
 11
264.49999892711622
 21
500.99999774248852
 31
0.0
  0
LINE
  5
126AE
  8
0
 10
281.99999892711622
 20
500.49999774248852
 30
0.0
 11
281.49999892711622
 21
500.99999774248852
 31
0.0
  0
LINE
  5
126B4
  8
0
 10
264.49999892711622
 20
488.99999774248852
 30
0.0
 11
281.49999892711622
 21
488.99999774248852
 31
0.0
  0
LINE
  5
126B5
  8
0
 10
263.99999892711622
 20
489.49999774248857
 30
0.0
 11
264.49999892711622
 21
488.99999774248852
 31
0.0
  0
LINE
  5
126B6
  8
0
 10
281.99999892711622
 20
489.49999774248857
 30
0.0
 11
281.49999892711622
 21
488.99999774248852
 31
0.0
  0
LINE
  5
126B8
  8
1
 10
516.49998398574257
 20
483.99999774248738
 30
0.0
 11
516.49998398574257
 21
511.1999977424876
 31
0.0
  0
LINE
  5
126BA
  8
0
 10
533.99998398574246
 20
489.49999774248738
 30
0.0
 11
533.99998398574246
 21
495.99999785421238
 31
0.0
  0
LINE
  5
126BB
  8
0
 10
498.99998398574252
 20
489.49999774248738
 30
0.0
 11
498.99998398574252
 21
495.99999785420908
 31
0.0
  0
LINE
  5
126C2
  8
0
 10
533.49998398574257
 20
488.99999774248738
 30
0.0
 11
499.49998398574257
 21
488.99999774248738
 31
0.0
  0
LINE
  5
126C3
  8
0
 10
533.99998398574246
 20
489.49999774248738
 30
0.0
 11
533.49998398574257
 21
488.99999774248738
 31
0.0
  0
LINE
  5
126C4
  8
0
 10
498.99998398574252
 20
489.49999774248738
 30
0.0
 11
499.49998398574257
 21
488.99999774248738
 31
0.0
  0
LINE
  5
126C6
  8
0
 10
872.99999884811768
 20
281.49999892711628
 30
0.0
 11
872.99999884811768
 21
264.49999892711628
 31
0.0
  0
LINE
  5
126C8
  8
0
 10
907.99999884811757
 20
264.49999892711628
 30
0.0
 11
907.99999884811757
 21
281.49999892711628
 31
0.0
  0
LINE
  5
126CA
  8
1
 10
890.49999884811768
 20
286.99999892711628
 30
0.0
 11
890.49999884811768
 21
258.99999892711628
 31
0.0
  0
LINE
  5
126CB
  8
0
 10
873.49999884811757
 20
263.99999892711628
 30
0.0
 11
872.99999884811768
 21
264.49999892711628
 31
0.0
  0
LINE
  5
126CC
  8
0
 10
907.49999884811768
 20
263.99999892711628
 30
0.0
 11
907.99999884811757
 21
264.49999892711628
 31
0.0
  0
LINE
  5
126CD
  8
0
 10
907.99999884811757
 20
281.49999892711628
 30
0.0
 11
907.49999884811768
 21
281.99999892711628
 31
0.0
  0
LINE
  5
126CE
  8
0
 10
873.49999884811757
 20
281.99999892711628
 30
0.0
 11
872.99999884811768
 21
281.49999892711628
 31
0.0
  0
CIRCLE
  5
126CF
  8
0
 10
890.49999884811768
 20
272.99999892711628
 30
0.0
 40
4.75
  0
LINE
  5
126D0
  8
0
 10
1204.999990612268
 20
500.99999774248738
 30
0.0
 11
1186.9999913871279
 21
500.99999774248738
 31
0.0
  0
LINE
  5
126D2
  8
0
 10
1204.999990999698
 20
500.49999774248749
 30
0.0
 11
1204.499990999698
 21
500.99999774248738
 31
0.0
  0
LINE
  5
126D5
  8
0
 10
1186.999990999698
 20
500.49999774248749
 30
0.0
 11
1187.499990999698
 21
500.99999774248738
 31
0.0
  0
LINE
  5
126DB
  8
0
 10
1204.499990999698
 20
488.99999774248738
 30
0.0
 11
1187.499990999698
 21
488.99999774248738
 31
0.0
  0
LINE
  5
126DC
  8
0
 10
1204.999990999698
 20
489.49999774248738
 30
0.0
 11
1204.499990999698
 21
488.99999774248738
 31
0.0
  0
LINE
  5
126DD
  8
0
 10
1186.999990999698
 20
489.49999774248738
 30
0.0
 11
1187.499990999698
 21
488.99999774248738
 31
0.0
  0
LINE
  5
126DF
  8
1
 10
890.49999884811768
 20
483.99999774248738
 30
0.0
 11
890.49999884811768
 21
511.1999977424876
 31
0.0
  0
LINE
  5
126E1
  8
0
 10
872.99999884811768
 20
489.49999774248738
 30
0.0
 11
872.99999884811768
 21
495.99999785424387
 31
0.0
  0
LINE
  5
126E2
  8
0
 10
907.99999884811757
 20
489.49999774248738
 30
0.0
 11
907.99999884811757
 21
495.99999785424723
 31
0.0
  0
LINE
  5
126E9
  8
0
 10
873.49999884811757
 20
488.99999774248738
 30
0.0
 11
907.49999884811768
 21
488.99999774248738
 31
0.0
  0
LINE
  5
126EA
  8
0
 10
872.99999884811768
 20
489.49999774248738
 30
0.0
 11
873.49999884811757
 21
488.99999774248738
 31
0.0
  0
LINE
  5
126EB
  8
0
 10
907.99999884811757
 20
489.49999774248738
 30
0.0
 11
907.49999884811768
 21
488.99999774248738
 31
0.0
  0
LINE
  5
12712
  8
0
 10
275.49999892711622
 20
500.99999774248852
 30
0.0
 11
275.49999892711622
 21
501.49999782444502
 31
0.0
  0
LINE
  5
12713
  8
3
 10
275.0669989271164
 20
500.99999774248852
 30
0.0
 11
275.0669989271164
 21
501.49999782444502
 31
0.0
  0
LINE
  5
12714
  8
3
 10
270.93299892711588
 20
500.99999774248852
 30
0.0
 11
270.93299892711588
 21
501.49999782444507
 31
0.0
  0
LINE
  5
12715
  8
0
 10
270.49999892711622
 20
500.99999774248852
 30
0.0
 11
270.49999892711622
 21
501.49999782444502
 31
0.0
  0
LINE
  5
1273C
  8
0
 10
1198.499990999698
 20
500.99999774248738
 30
0.0
 11
1198.499990999698
 21
501.49999782444382
 31
0.0
  0
LINE
  5
1273D
  8
3
 10
1198.066990999698
 20
500.99999774248738
 30
0.0
 11
1198.0669909996991
 21
501.49999782444382
 31
0.0
  0
LINE
  5
1273E
  8
3
 10
1193.9329909996979
 20
500.99999774248738
 30
0.0
 11
1193.9329909996979
 21
501.49999782444388
 31
0.0
  0
LINE
  5
1273F
  8
0
 10
1193.499990999698
 20
500.99999774248738
 30
0.0
 11
1193.499990999698
 21
501.49999782444382
 31
0.0
  0
LINE
  5
12740
  8
0
 10
514.4999839857428
 20
274.1546994654953
 30
0.0
 11
516.49998398574269
 21
275.30940000387471
 31
0.0
  0
LINE
  5
12741
  8
0
 10
516.49998398574269
 20
275.30940000387471
 30
0.0
 11
518.49998398574246
 21
274.1546994654953
 31
0.0
  0
LINE
  5
12742
  8
0
 10
518.49998398574246
 20
274.1546994654953
 30
0.0
 11
518.49998398574246
 21
271.84529838873652
 31
0.0
  0
LINE
  5
12743
  8
0
 10
518.49998398574246
 20
271.84529838873652
 30
0.0
 11
516.49998398574257
 21
270.69059785035768
 31
0.0
  0
LINE
  5
12744
  8
0
 10
516.49998398574257
 20
270.69059785035768
 30
0.0
 11
514.49998398574235
 21
271.84529838873721
 31
0.0
  0
LINE
  5
12745
  8
0
 10
514.49998398574235
 20
271.84529838873721
 30
0.0
 11
514.4999839857428
 21
274.1546994654953
 31
0.0
  0
CIRCLE
  5
12746
  8
0
 10
516.49998398574257
 20
272.99999892711628
 30
0.0
 40
4.25
  0
LINE
  5
12747
  8
0
 10
888.49999884811803
 20
274.1546994654953
 30
0.0
 11
890.49999884811791
 21
275.30940000387471
 31
0.0
  0
LINE
  5
12748
  8
0
 10
890.49999884811791
 20
275.30940000387471
 30
0.0
 11
892.49999884811768
 21
274.1546994654953
 31
0.0
  0
LINE
  5
12749
  8
0
 10
892.49999884811768
 20
274.1546994654953
 30
0.0
 11
892.49999884811768
 21
271.84529838873652
 31
0.0
  0
LINE
  5
1274A
  8
0
 10
892.49999884811768
 20
271.84529838873652
 30
0.0
 11
890.49999884811768
 21
270.69059785035768
 31
0.0
  0
LINE
  5
1274B
  8
0
 10
890.49999884811768
 20
270.69059785035768
 30
0.0
 11
888.49999884811734
 21
271.84529838873721
 31
0.0
  0
LINE
  5
1274C
  8
0
 10
888.49999884811734
 20
271.84529838873721
 30
0.0
 11
888.49999884811803
 21
274.1546994654953
 31
0.0
  0
CIRCLE
  5
1274D
  8
0
 10
890.49999884811768
 20
272.99999892711628
 30
0.0
 40
4.25
  0
ARC
  5
1274E
  8
0
 10
493.99998497962929
 20
272.99999892711548
 30
0.0
 40
10.0
 50
59.328881711096741
 51
72.54239687626783
  0
ARC
  5
1274F
  8
0
 10
912.99999785423097
 20
272.99999892711639
 30
0.0
 40
10.0
 50
239.32888171109391
 51
252.5423968762764
  0
LINE
  5
12752
  8
0
 10
1204.999990612268
 20
495.9999978542462
 30
0.0
 11
1225.9999903291459
 21
495.99999785424609
 31
0.0
  0
LINE
  5
12753
  8
0
 10
263.99999892711622
 20
495.99999785435648
 30
0.0
 11
242.99999959750039
 21
495.99999785441531
 31
0.0
  0
LINE
  5
12806
  8
1
 10
219.50175108711571
 20
483.99999774248852
 30
0.0
 11
219.50175108711571
 21
511.19999774248851
 31
0.0
  0
LINE
  5
12807
  8
5
 10
237.00175108711571
 20
489.49999774248857
 30
0.0
 11
237.00175108711571
 21
496.99999790174348
 31
0.0
  0
LINE
  5
12808
  8
5
 10
202.00175108711571
 20
489.49999774248857
 30
0.0
 11
202.00175108711571
 21
495.99999785424598
 31
0.0
  0
LINE
  5
12809
  8
5
 10
236.50175108711571
 20
488.99999774248852
 30
0.0
 11
202.50175108711571
 21
488.99999774248852
 31
0.0
  0
LINE
  5
1280A
  8
5
 10
237.00175108711571
 20
489.49999774248857
 30
0.0
 11
236.50175108711571
 21
488.99999774248852
 31
0.0
  0
LINE
  5
1280B
  8
5
 10
202.00175108711571
 20
489.49999774248857
 30
0.0
 11
202.50175108711571
 21
488.99999774248852
 31
0.0
  0
LINE
  5
1280C
  8
1
 10
326.49828564316022
 20
483.99999774248852
 30
0.0
 11
326.49828564316022
 21
511.19999774248851
 31
0.0
  0
LINE
  5
1280D
  8
5
 10
308.99828564316022
 20
489.49999774248857
 30
0.0
 11
308.99828564316022
 21
496.99999790174348
 31
0.0
  0
LINE
  5
1280E
  8
5
 10
343.99828564316022
 20
489.49999774248857
 30
0.0
 11
343.99828564316022
 21
495.99999785424598
 31
0.0
  0
LINE
  5
1280F
  8
5
 10
309.49828564316022
 20
488.99999774248852
 30
0.0
 11
343.49828564316022
 21
488.99999774248852
 31
0.0
  0
LINE
  5
12810
  8
5
 10
308.99828564316022
 20
489.49999774248857
 30
0.0
 11
309.49828564316022
 21
488.99999774248852
 31
0.0
  0
LINE
  5
12811
  8
5
 10
343.99828564316022
 20
489.49999774248857
 30
0.0
 11
343.49828564316022
 21
488.99999774248852
 31
0.0
  0
ENDSEC
  0
EOF
