  0
SECTION
  2
HEADER
  9
$ACADVER
  1
AC1009
  9
$INSBASE
 10
0.0
 20
0.0
 30
0.0
  9
$EXTMIN
 10
0.0
 20
-14.80218281036835
 30
0.0
  9
$EXTMAX
 10
1318.999983370303
 20
889.9999931454804
 30
0.0
  9
$LIMMIN
 10
0.0
 20
0.0
  9
$LIMMAX
 10
4205.0
 20
2970.0
  9
$ORTHOMODE
 70
     1
  9
$REGENMODE
 70
     1
  9
$FILLMODE
 70
     1
  9
$QTEXTMODE
 70
     0
  9
$MIRRTEXT
 70
     0
  9
$DRAGMODE
 70
     2
  9
$LTSCALE
 40
25.0
  9
$OSMODE
 70
    37
  9
$ATTMODE
 70
     1
  9
$TEXTSIZE
 40
6.0
  9
$TRACEWID
 40
0.05
  9
$TEXTSTYLE
  7
07500
  9
$CLAYER
  8
0
  9
$CELTYPE
  6
BYLAYER
  9
$CECOLOR
 62
   256
  9
$DIMSCALE
 40
5.0
  9
$DIMASZ
 40
1.5
  9
$DIMEXO
 40
1.0
  9
$DIMDLI
 40
10.0
  9
$DIMRND
 40
0.0
  9
$DIMDLE
 40
0.0
  9
$DIMEXE
 40
1.0
  9
$DIMTP
 40
0.0
  9
$DIMTM
 40
0.0
  9
$DIMTXT
 40
1.5
  9
$DIMCEN
 40
0.0
  9
$DIMTSZ
 40
0.0
  9
$DIMTOL
 70
     0
  9
$DIMLIM
 70
     0
  9
$DIMTIH
 70
     0
  9
$DIMTOH
 70
     0
  9
$DIMSE1
 70
     0
  9
$DIMSE2
 70
     0
  9
$DIMTAD
 70
     1
  9
$DIMZIN
 70
     8
  9
$DIMBLK
  1

  9
$DIMASO
 70
     0
  9
$DIMSHO
 70
     0
  9
$DIMPOST
  1

  9
$DIMAPOST
  1

  9
$DIMALT
 70
     0
  9
$DIMALTD
 70
     2
  9
$DIMALTF
 40
25.399999999999999
  9
$DIMLFAC
 40
1.0
  9
$DIMTOFL
 70
     1
  9
$DIMTVP
 40
1.6000000000000001
  9
$DIMTIX
 70
     1
  9
$DIMSOXD
 70
     0
  9
$DIMSAH
 70
     0
  9
$DIMBLK1
  1

  9
$DIMBLK2
  1

  9
$DIMSTYLE
  2
STANDARD
  9
$DIMCLRD
 70
     0
  9
$DIMCLRE
 70
     0
  9
$DIMCLRT
 70
     0
  9
$DIMTFAC
 40
1.0
  9
$DIMGAP
 40
1.0
  9
$LUNITS
 70
     2
  9
$LUPREC
 70
     1
  9
$SKETCHINC
 40
0.1
  9
$FILLETRAD
 40
0.0
  9
$AUNITS
 70
     0
  9
$AUPREC
 70
     1
  9
$MENU
  1
ME
  9
$ELEVATION
 40
0.0
  9
$PELEVATION
 40
0.0
  9
$THICKNESS
 40
0.0
  9
$LIMCHECK
 70
     0
  9
$BLIPMODE
 70
     0
  9
$CHAMFERA
 40
3.0
  9
$CHAMFERB
 40
3.0
  9
$SKPOLY
 70
     0
  9
$TDCREATE
 40
2451920.3634869209
  9
$TDUPDATE
 40
2458348.4410263542
  9
$TDINDWG
 40
0.8676557176
  9
$TDUSRTIMER
 40
0.8676536343
  9
$USRTIMER
 70
     1
  9
$ANGBASE
 50
0.0
  9
$ANGDIR
 70
     0
  9
$PDMODE
 70
     0
  9
$PDSIZE
 40
0.0
  9
$PLINEWID
 40
0.0
  9
$COORDS
 70
     1
  9
$SPLFRAME
 70
     0
  9
$SPLINETYPE
 70
     6
  9
$SPLINESEGS
 70
     8
  9
$ATTDIA
 70
     0
  9
$ATTREQ
 70
     1
  9
$HANDLING
 70
     1
  9
$HANDSEED
  5
8E57
  9
$SURFTAB1
 70
     6
  9
$SURFTAB2
 70
     6
  9
$SURFTYPE
 70
     6
  9
$SURFU
 70
     6
  9
$SURFV
 70
     6
  9
$UCSNAME
  2

  9
$UCSORG
 10
0.0
 20
0.0
 30
0.0
  9
$UCSXDIR
 10
1.0
 20
0.0
 30
0.0
  9
$UCSYDIR
 10
0.0
 20
1.0
 30
0.0
  9
$PUCSNAME
  2

  9
$PUCSORG
 10
0.0
 20
0.0
 30
0.0
  9
$PUCSXDIR
 10
1.0
 20
0.0
 30
0.0
  9
$PUCSYDIR
 10
0.0
 20
1.0
 30
0.0
  9
$USERI1
 70
     1
  9
$USERI2
 70
     1
  9
$USERI3
 70
     5
  9
$USERI4
 70
     1
  9
$USERI5
 70
     0
  9
$USERR1
 40
5.0
  9
$USERR2
 40
3.0
  9
$USERR3
 40
1.5
  9
$USERR4
 40
1.5
  9
$USERR5
 40
10.0
  9
$WORLDVIEW
 70
     1
  9
$SHADEDGE
 70
     3
  9
$SHADEDIF
 70
    70
  9
$TILEMODE
 70
     1
  9
$MAXACTVP
 70
    16
  9
$PLIMCHECK
 70
     0
  9
$PEXTMIN
 10
1.0000000000000000E+020
 20
1.0000000000000000E+020
 30
1.0000000000000000E+020
  9
$PEXTMAX
 10
-1.0000000000000000E+020
 20
-1.0000000000000000E+020
 30
-1.0000000000000000E+020
  9
$PLIMMIN
 10
0.0
 20
0.0
  9
$PLIMMAX
 10
12.0
 20
9.0
  9
$UNITMODE
 70
     0
  9
$VISRETAIN
 70
     0
  9
$PLINEGEN
 70
     0
  9
$PSLTSCALE
 70
     0
  0
ENDSEC
  0
SECTION
  2
TABLES
  0
TABLE
  2
VPORT
 70
     1
  0
VPORT
  2
*ACTIVE
 70
     0
 10
0.0
 20
0.0
 11
1.0
 21
1.0
 12
908.11965811965797
 22
500.0
 13
0.0
 23
0.0
 14
5.0
 24
5.0
 15
10.0
 25
10.0
 16
0.0
 26
0.0
 36
1.0
 17
0.0
 27
0.0
 37
0.0
 40
1000.0
 41
1.816239316239316
 42
50.0
 43
0.0
 44
0.0
 50
0.0
 51
0.0
 71
     0
 72
  1000
 73
     1
 74
     0
 75
     0
 76
     0
 77
     0
 78
     1
  0
ENDTAB
  0
TABLE
  2
LTYPE
 70
     4
  0
LTYPE
  2
CONTINUOUS
 70
     0
  3
Solid Line
 72
    65
 73
     0
 40
0.0
  0
LTYPE
  2
CENTER
 70
     0
  3
____ _ ____ _ ____ _ ____ _ ____ _ ____ _ ____
 72
    65
 73
     4
 40
2.0
 49
1.25
 49
-0.25
 49
0.25
 49
-0.25
  0
LTYPE
  2
HIDDEN
 70
     0
  3
_ _ _ _ _ _ _ _ _ _ _ _ _ _ _ _ _ _ _ _ _ _ _
 72
    65
 73
     2
 40
0.375
 49
0.25
 49
-0.125
  0
LTYPE
  2
PHANTOM2
 70
     0
  3
___ _ _ ___ _ _ ___ _ _ ___ _ _
 72
    65
 73
     6
 40
1.25
 49
0.625
 49
-0.125
 49
0.125
 49
-0.125
 49
0.125
 49
-0.125
  0
ENDTAB
  0
TABLE
  2
LAYER
 70
     6
  0
LAYER
  2
0
 70
     0
 62
     7
  6
CONTINUOUS
  0
LAYER
  2
1
 70
     0
 62
     1
  6
CENTER
  0
LAYER
  2
2
 70
     0
 62
     2
  6
HIDDEN
  0
LAYER
  2
3
 70
     0
 62
     3
  6
CONTINUOUS
  0
LAYER
  2
DEFPOINTS
 70
     0
 62
     7
  6
CONTINUOUS
  0
LAYER
  2
5
 70
     0
 62
     3
  6
PHANTOM2
  0
ENDTAB
  0
TABLE
  2
STYLE
 70
     3
  0
STYLE
  2
STANDARD
 70
     0
 40
0.0
 41
1.0
 50
0.0
 71
     0
 42
3.0
  3
C:/r13/com/fonts/Romans
  4
C:/r13/com/fonts/Extfont
  0
STYLE
  2
07500
 70
     0
 40
0.0
 41
0.75
 50
0.0
 71
     0
 42
6.0
  3
C:/r13/com/fonts/Romans
  4
C:/r13/com/fonts/Extfont
  0
STYLE
  2
STANDARD1
 70
     0
 40
0.0
 41
1.0
 50
0.0
 71
     0
 42
3.0
  3
txt
  4

  0
ENDTAB
  0
TABLE
  2
VIEW
 70
     0
  0
ENDTAB
  0
TABLE
  2
UCS
 70
     0
  0
ENDTAB
  0
TABLE
  2
APPID
 70
    11
  0
APPID
  2
ACAD
 70
     0
  0
APPID
  2
ACAD_MLEADERVER
 70
     0
  0
APPID
  2
ACAD_EXEMPT_FROM_CAD_STANDARDS
 70
     0
  0
APPID
  2
ACAD_NAV_VCDISPLAY
 70
     0
  0
APPID
  2
ACAD_DSTYLE_DIMJAG
 70
     0
  0
APPID
  2
ACAD_DSTYLE_DIMTALN
 70
     0
  0
APPID
  2
ACAD_PSEXT
 70
     0
  0
APPID
  2
ACAD_DSTYLE_DIMBREAK
 70
     0
  0
APPID
  2
ACAECLAYERSTANDARD
 70
     0
  0
APPID
  2
ACCMTRANSPARENCY
 70
     0
  0
APPID
  2
ACAD_DSTYLE_DIM_LINETYPE
 70
     0
  0
ENDTAB
  0
TABLE
  2
DIMSTYLE
 70
     1
  0
DIMSTYLE
  2
STANDARD
 70
     0
  3

  4

  5

  6

  7

 40
1.0
 41
0.18
 42
0.0625
 43
0.38
 44
0.18
 45
0.0
 46
0.0
 47
0.0
 48
0.0
140
0.18
141
0.09
142
0.0
143
25.399999999999999
144
1.0
145
0.0
146
1.0
147
0.09
 71
     0
 72
     0
 73
     1
 74
     1
 75
     0
 76
     0
 77
     0
 78
     0
170
     0
171
     2
172
     0
173
     0
174
     0
175
     0
176
     0
177
     0
178
     0
  0
ENDTAB
  0
ENDSEC
  0
SECTION
  2
BLOCKS
  0
BLOCK
  8
0
  2
$MODEL_SPACE
 70
     0
 10
0.0
 20
0.0
 30
0.0
  3
$MODEL_SPACE
  1

  0
ENDBLK
  5
293
  8
0
  0
BLOCK
 67
     1
  8
0
  2
$PAPER_SPACE
 70
     0
 10
0.0
 20
0.0
 30
0.0
  3
$PAPER_SPACE
  1

  0
ENDBLK
  5
291
 67
     1
  8
0
  0
ENDSEC
  0
SECTION
  2
ENTITIES
  0
TEXT
  5
350
  8
0
 62
     3
 10
0.0
 20
0.0
 30
0.0
 40
50.0
  1
MVMF150X250
  7
STANDARD1
  0
LINE
  5
34C6
  8
0
 10
901.46629363298405
 20
590.99999666215444
 30
0.0
 11
901.99998617172241
 21
590.99999666215444
 31
0.0
  0
LINE
  5
34C9
  8
0
 10
901.99998617172241
 20
590.99999666215444
 30
0.0
 11
902.99998447299004
 21
590.99999666215444
 31
0.0
  0
LINE
  5
34CB
  8
0
 10
906.49998411536205
 20
591.36602133513952
 30
0.0
 11
903.69256809353817
 21
591.36602133513952
 31
0.0
  0
POLYLINE
  5
34CC
  8
0
 66
     1
 10
0.0
 20
0.0
 30
0.0
 70
   128
  0
VERTEX
  5
8C13
  8
0
 10
903.69256809353817
 20
591.36602133513952
 30
0.0
  0
VERTEX
  5
8C14
  8
0
 10
904.49153110384941
 20
591.49998277427221
 30
0.0
  0
VERTEX
  5
8C15
  8
0
 10
904.49998378753662
 20
591.49999767543341
 30
0.0
  0
SEQEND
  5
8C16
  8
0
  0
LINE
  5
34CD
  8
0
 10
958.49998448975339
 20
591.49999767543341
 30
0.0
 11
901.23313843971175
 21
591.49999767543341
 31
0.0
  0
ARC
  5
34D1
  8
0
 10
952.49998450279179
 20
556.99999785424734
 30
0.0
 40
6.0000000000000853
 50
270.0
 51
0.0
  0
LINE
  5
34D2
  8
0
 10
952.49998467043042
 20
550.99999755622412
 30
0.0
 11
915.99998474121094
 21
550.99999755622412
 31
0.0
  0
LINE
  5
34D3
  8
0
 10
958.49998448975339
 20
556.99999853970075
 30
0.0
 11
958.49998448975339
 21
591.49999767543363
 31
0.0
  0
LINE
  5
34D4
  8
0
 10
906.49998411536205
 20
580.20520806314005
 30
0.0
 11
906.49998411536205
 21
591.36602133513952
 31
0.0
  0
ARC
  5
34D5
  8
0
 10
904.49998450279179
 20
588.99999785424643
 30
0.0
 40
2.5000000000001679
 50
108.8424632421941
 51
164.61332241236559
  0
ARC
  5
34D6
  8
0
 10
904.49998450279179
 20
588.99999785424643
 30
0.0
 40
2.5000000000000839
 50
245.38667758763461
 51
323.13010235415538
  0
ARC
  5
34D7
  8
0
 10
904.49998450279179
 20
588.99999785424643
 30
0.0
 40
2.0000000000001701
 50
222.80340300542861
 51
0.0
  0
ARC
  5
34D8
  8
0
 10
904.49998450279179
 20
588.99999785424643
 30
0.0
 40
2.0000000000001701
 50
90.0
 51
187.19659699456361
  0
LINE
  5
34D9
  8
0
 10
904.49998378753662
 20
590.99999666215444
 30
0.0
 11
906.49998411536205
 21
590.99999666215444
 31
0.0
  0
ARC
  5
34DA
  8
0
 10
904.49998450279179
 20
588.99999785424643
 30
0.0
 40
2.5000000000001701
 50
36.86989764584461
 51
45.000000000009742
  0
ARC
  5
34DB
  8
0
 10
904.49998450279179
 20
588.99999785424643
 30
0.0
 40
2.0000000000001701
 50
0.0
 51
44.999999999992468
  0
LINE
  5
34DC
  8
0
 10
906.26775324344635
 20
590.76776206494833
 30
0.0
 11
905.91419711709023
 21
590.4142096638825
 31
0.0
  0
LINE
  5
3515
  8
0
 10
903.99998277425755
 20
585.56647449733282
 30
0.0
 11
903.99998277425755
 21
586.55050992967153
 31
0.0
  0
LINE
  5
351B
  8
0
 10
959.99998450279202
 20
515.9999974072125
 30
0.0
 11
960.49998452654074
 21
516.49999842049135
 31
0.0
  0
LINE
  5
351C
  8
0
 10
903.49998548626888
 20
586.63873225451971
 30
0.0
 11
903.49998548626888
 21
586.70870810748602
 31
0.0
  0
LINE
  5
3521
  8
0
 10
958.49998448975339
 20
590.99999666215444
 30
0.0
 11
959.99998450279202
 21
590.99999666215444
 31
0.0
  0
LINE
  5
3523
  8
0
 10
960.49998452654074
 20
590.49999564887537
 30
0.0
 11
960.49998452654074
 21
516.49999842049135
 31
0.0
  0
LINE
  5
3525
  8
0
 10
960.49998452654074
 20
590.49999564887537
 30
0.0
 11
959.99998450279202
 21
590.99999666215444
 31
0.0
  0
LINE
  5
352A
  8
0
 10
856.99998438358296
 20
551.99999958278204
 30
0.0
 11
856.99998438358296
 21
562.49999850989843
 31
0.0
  0
LINE
  5
352B
  8
0
 10
856.99998438358296
 20
562.49999850989843
 30
0.0
 11
851.73710286617268
 21
562.49999850989843
 31
0.0
  0
LINE
  5
352C
  8
0
 10
840.27204791649001
 20
593.99999529124761
 30
0.0
 11
851.73710286617268
 21
562.49999850989843
 31
0.0
  0
LINE
  5
352E
  8
0
 10
900.99998414516438
 20
591.99999868871225
 30
0.0
 11
915.99998474121094
 21
559.83239263297583
 31
0.0
  0
LINE
  5
352F
  8
0
 10
840.99998176097859
 20
591.99999868871225
 30
0.0
 11
900.99998414516438
 21
591.99999868871225
 31
0.0
  0
LINE
  5
3532
  8
0
 10
915.99998474121094
 20
544.99999657274736
 30
0.0
 11
915.99998474121094
 21
559.83239263297583
 31
0.0
  0
LINE
  5
3537
  8
0
 10
840.99998176097859
 20
544.99999657274736
 30
0.0
 11
841.99998378753662
 21
543.99999827147985
 31
0.0
  0
LINE
  5
3538
  8
0
 10
840.99998176097859
 20
550.99999755622412
 30
0.0
 11
840.99998176097859
 21
544.99999657274736
 31
0.0
  0
LINE
  5
3539
  8
0
 10
841.99998378753662
 20
551.99999958278204
 30
0.0
 11
840.99998176097859
 21
550.99999755622412
 31
0.0
  0
LINE
  5
353B
  8
0
 10
914.99998271465302
 20
543.99999827147985
 30
0.0
 11
915.99998474121094
 21
544.99999657274736
 31
0.0
  0
ARC
  5
353C
  8
0
 10
851.39998450279188
 20
562.0999978542477
 30
0.0
 40
0.3999999999999204
 50
180.0
 51
0.0
  0
LINE
  5
353D
  8
0
 10
851.79998576641083
 20
562.39999681712652
 30
0.0
 11
851.79998576641083
 21
562.09999918939127
 31
0.0
  0
LINE
  5
353E
  8
0
 10
855.49998134374607
 20
562.39999681712652
 30
0.0
 11
851.79998576641083
 21
562.39999681712652
 31
0.0
  0
LINE
  5
353F
  8
0
 10
855.49998134374607
 20
551.99999958278204
 30
0.0
 11
855.49998134374607
 21
562.39999681712652
 31
0.0
  0
LINE
  5
3540
  8
0
 10
830.99999129772175
 20
551.99999958278204
 30
0.0
 11
856.99998438358296
 21
551.99999958278204
 31
0.0
  0
LINE
  5
3541
  8
0
 10
830.99999129772175
 20
593.99999529124761
 30
0.0
 11
830.99999129772175
 21
551.99999958278204
 31
0.0
  0
LINE
  5
3542
  8
0
 10
840.26998132467259
 20
593.99999529124761
 30
0.0
 11
830.99999129772175
 21
593.99999529124761
 31
0.0
  0
LINE
  5
3544
  8
0
 10
850.99998712539673
 20
562.09999918939127
 30
0.0
 11
850.99998712539673
 21
564.47146683932795
 31
0.0
  0
LINE
  5
3545
  8
0
 10
580.99997639656056
 20
593.99999529124761
 30
0.0
 11
571.72999382019043
 21
593.99999529124761
 31
0.0
  0
LINE
  5
3546
  8
0
 10
580.99997639656056
 20
551.99999958278204
 30
0.0
 11
580.99997639656056
 21
593.99999529124761
 31
0.0
  0
LINE
  5
3547
  8
0
 10
580.99997639656056
 20
551.99999958278204
 30
0.0
 11
554.99998331069935
 21
551.99999958278204
 31
0.0
  0
LINE
  5
3548
  8
0
 10
556.49999380111694
 20
551.99999958278204
 30
0.0
 11
556.49999380111694
 21
562.39999681712652
 31
0.0
  0
LINE
  5
3549
  8
0
 10
556.49999380111694
 20
562.39999681712652
 30
0.0
 11
560.1999819278717
 21
562.39999681712652
 31
0.0
  0
LINE
  5
354A
  8
0
 10
560.1999819278717
 20
562.09999918939127
 30
0.0
 11
560.1999819278717
 21
562.39999681712652
 31
0.0
  0
ARC
  5
354B
  8
0
 10
560.59998450279272
 20
562.0999978542477
 30
0.0
 40
0.3999999999999204
 50
179.99999999998701
 51
0.0
  0
LINE
  5
354C
  8
0
 10
560.99999547004688
 20
562.09999918939127
 30
0.0
 11
560.99999547004688
 21
564.47146683932795
 31
0.0
  0
LINE
  5
354E
  8
0
 10
521.49999737739563
 20
538.99999931456114
 30
0.0
 11
532.49997496604908
 21
538.99999931456114
 31
0.0
  0
LINE
  5
3553
  8
0
 10
520.99997401237476
 20
539.4999966025498
 30
0.0
 11
521.49999737739563
 21
538.99999931456114
 31
0.0
  0
LINE
  5
355A
  8
0
 10
532.49997496604908
 20
538.99999931456114
 30
0.0
 11
532.99999833106995
 21
539.4999966025498
 31
0.0
  0
LINE
  5
355E
  8
0
 10
521.49999737739563
 20
548.99999722839846
 30
0.0
 11
520.99997401237476
 21
548.49999621511961
 31
0.0
  0
LINE
  5
3560
  8
0
 10
532.99999833106995
 20
548.49999621511961
 30
0.0
 11
532.49997496604908
 21
548.99999722839846
 31
0.0
  0
LINE
  5
3571
  8
0
 10
520.99997401237465
 20
538.19999694825674
 30
0.0
 11
520.99997401237476
 21
548.99999722839846
 31
0.0
  0
LINE
  5
3576
  8
0
 10
532.99999833106995
 20
548.99999722839846
 30
0.0
 11
532.99999833106995
 21
538.19999694825674
 31
0.0
  0
LINE
  5
3579
  8
0
 10
495.99999785423267
 20
544.99999657274736
 30
0.0
 11
496.99998497962952
 21
543.99999827147985
 31
0.0
  0
LINE
  5
357C
  8
0
 10
496.99998497962952
 20
591.99999868871225
 30
0.0
 11
495.99999785423267
 21
590.99999666215444
 31
0.0
  0
LINE
  5
357E
  8
0
 10
496.99998497962952
 20
591.99999868871225
 30
0.0
 11
570.69999575614918
 21
591.99999868871225
 31
0.0
  0
LINE
  5
357F
  8
0
 10
570.69999575614918
 20
591.99999868871225
 30
0.0
 11
570.91993689537037
 21
591.78005009891046
 31
0.0
  0
LINE
  5
3582
  8
0
 10
495.99999785423267
 20
544.99999657274736
 30
0.0
 11
495.99999785423267
 21
555.99999651314283
 31
0.0
  0
LINE
  5
3583
  8
0
 10
496.57571911811817
 20
556.57573267818952
 30
0.0
 11
495.99999785423267
 21
555.99999651314283
 31
0.0
  0
ARC
  5
3584
  8
0
 10
496.15145636536818
 20
556.99999785424734
 30
0.0
 40
0.6000000000001095
 50
315.0000000000075
 51
44.999999999992468
  0
LINE
  5
3585
  8
0
 10
495.99999785423267
 20
557.99999684096827
 30
0.0
 11
496.57571911811817
 21
557.42426067592169
 31
0.0
  0
LINE
  5
3586
  8
0
 10
495.99999785423267
 20
557.99999684096827
 30
0.0
 11
495.99999785423267
 21
560.99999547006155
 31
0.0
  0
LINE
  5
3587
  8
0
 10
496.57571911811817
 20
561.57573163510824
 30
0.0
 11
495.99999785423267
 21
560.99999547006155
 31
0.0
  0
ARC
  5
3588
  8
0
 10
496.15145636536818
 20
561.99999785424734
 30
0.0
 40
0.6000000000001095
 50
315.0000000000075
 51
44.999999999992468
  0
LINE
  5
3589
  8
0
 10
495.99999785423267
 20
562.99999952317739
 30
0.0
 11
496.57571911811817
 21
562.4242633581307
 31
0.0
  0
LINE
  5
358A
  8
0
 10
495.99999785423267
 20
562.99999952317739
 30
0.0
 11
495.99999785423267
 21
565.99999815227045
 31
0.0
  0
LINE
  5
358B
  8
0
 10
496.57571911811817
 20
566.57573431731726
 30
0.0
 11
495.99999785423267
 21
565.99999815227045
 31
0.0
  0
ARC
  5
358C
  8
0
 10
496.15145636536818
 20
566.99999785424734
 30
0.0
 40
0.6000000000001095
 50
315.0000000000075
 51
44.999999999992468
  0
LINE
  5
358D
  8
0
 10
495.99999785423267
 20
567.99999475480581
 30
0.0
 11
496.57571911811817
 21
567.42425858975912
 31
0.0
  0
LINE
  5
358E
  8
0
 10
495.99999785423267
 20
567.99999475480581
 30
0.0
 11
495.99999785423267
 21
571.00000083447947
 31
0.0
  0
LINE
  5
358F
  8
0
 10
496.57571911811817
 20
571.57573699952616
 30
0.0
 11
495.99999785423267
 21
571.00000083447947
 31
0.0
  0
ARC
  5
3590
  8
0
 10
496.15145636536818
 20
571.99999785424734
 30
0.0
 40
0.6000000000001095
 50
315.0000000000075
 51
44.999999999992468
  0
LINE
  5
3591
  8
0
 10
495.99999785423267
 20
572.99999743701483
 30
0.0
 11
496.57571911811817
 21
572.42426127196813
 31
0.0
  0
LINE
  5
3592
  8
0
 10
495.99999785423267
 20
572.99999743701483
 30
0.0
 11
495.99999785423267
 21
575.999996066108
 31
0.0
  0
LINE
  5
3593
  8
0
 10
496.57571911811817
 20
576.57573223115469
 30
0.0
 11
495.99999785423267
 21
575.999996066108
 31
0.0
  0
ARC
  5
3594
  8
0
 10
496.15145636536818
 20
576.99999785424734
 30
0.0
 40
0.6000000000001095
 50
315.0000000000075
 51
44.999999999992468
  0
LINE
  5
3595
  8
0
 10
495.99999785423267
 20
578.00000011922384
 30
0.0
 11
496.57571911811817
 21
577.42426395417715
 31
0.0
  0
LINE
  5
3596
  8
0
 10
495.99999785423267
 20
578.00000011922384
 30
0.0
 11
495.99999785423267
 21
580.99999874831701
 31
0.0
  0
LINE
  5
3597
  8
0
 10
496.57571911811817
 20
581.5757349133637
 30
0.0
 11
495.99999785423267
 21
580.99999874831701
 31
0.0
  0
ARC
  5
3598
  8
0
 10
496.15145636536818
 20
581.99999785424734
 30
0.0
 40
0.6000000000000089
 50
315.0000000000075
 51
44.999999999991317
  0
LINE
  5
3599
  8
0
 10
495.99999785423267
 20
582.99999535085215
 30
0.0
 11
496.57571911811817
 21
582.42425918580545
 31
0.0
  0
LINE
  5
359A
  8
0
 10
495.99999785423267
 20
582.99999535085215
 30
0.0
 11
495.99999785423267
 21
586.00000143052603
 31
0.0
  0
LINE
  5
359B
  8
0
 10
496.57571911811817
 20
586.57573014499212
 30
0.0
 11
495.99999785423267
 21
586.00000143052603
 31
0.0
  0
ARC
  5
359C
  8
0
 10
496.15145636536818
 20
586.99999785424734
 30
0.0
 40
0.6000000000000089
 50
315.0000000000075
 51
44.999999999992468
  0
LINE
  5
359D
  8
0
 10
496.57571911811817
 20
587.42426186801447
 30
0.0
 11
495.99999785423267
 21
587.99999803306116
 31
0.0
  0
LINE
  5
359E
  8
0
 10
495.99999785423267
 20
587.99999803306116
 30
0.0
 11
495.99999785423267
 21
590.99999666215444
 31
0.0
  0
LINE
  5
35A3
  8
0
 10
554.99998331069935
 20
551.99999958278204
 30
0.0
 11
554.99998331069935
 21
562.49999850989843
 31
0.0
  0
LINE
  5
35A4
  8
0
 10
569.9999988079071
 20
551.99999958278204
 30
0.0
 11
570.99998593330383
 21
550.99999755622412
 31
0.0
  0
LINE
  5
35A7
  8
0
 10
560.26286482810974
 20
562.49999850989843
 30
0.0
 11
571.72999382019043
 21
593.99999529124761
 31
0.0
  0
LINE
  5
35A8
  8
0
 10
554.99998331069935
 20
562.49999850989843
 30
0.0
 11
560.26286482810974
 21
562.49999850989843
 31
0.0
  0
LINE
  5
35A9
  8
0
 10
570.99998593330383
 20
550.99999755622412
 30
0.0
 11
570.99998593330383
 21
544.99999657274736
 31
0.0
  0
LINE
  5
35AB
  8
0
 10
569.9999988079071
 20
543.99999827147985
 30
0.0
 11
570.99998593330383
 21
544.99999657274736
 31
0.0
  0
LINE
  5
35B0
  8
0
 10
959.99998450279202
 20
495.99999785424728
 30
0.0
 11
496.99998497962952
 21
495.9999978542088
 31
0.0
  0
LINE
  5
35BB
  8
0
 10
496.99998497962952
 20
543.99999827147985
 30
0.0
 11
520.99997401237476
 21
543.99999827147985
 31
0.0
  0
LINE
  5
35BE
  8
0
 10
496.99998497962952
 20
495.99999785424728
 30
0.0
 11
496.99998497962952
 21
543.99999827147985
 31
0.0
  0
LINE
  5
35C2
  8
0
 10
532.99999833106995
 20
538.19999694825674
 30
0.0
 11
520.99997401237476
 21
538.19999694825674
 31
0.0
  0
LINE
  5
35C6
  8
0
 10
959.99998450279202
 20
528.49999666215444
 30
0.0
 11
496.99998497962952
 21
528.49999666215444
 31
0.0
  0
LINE
  5
35C9
  8
0
 10
496.99998497962952
 20
515.49999825657869
 30
0.0
 11
959.99998450279202
 21
515.49999825657869
 31
0.0
  0
LINE
  5
35CD
  8
0
 10
532.99999833106995
 20
543.99999827147985
 30
0.0
 11
959.99998450279202
 21
543.99999827147985
 31
0.0
  0
LINE
  5
35CE
  8
0
 10
959.99998450279202
 20
543.99999827147985
 30
0.0
 11
959.99998450279202
 21
495.99999785424728
 31
0.0
  0
LINE
  5
35D0
  8
0
 10
619.99998092651356
 20
500.99999774248857
 30
0.0
 11
619.99998092651356
 21
495.99999785421909
 31
0.0
  0
LINE
  5
35D1
  8
0
 10
614.49999213218678
 20
500.99999774248857
 30
0.0
 11
619.99998092651356
 21
500.99999774248857
 31
0.0
  0
LINE
  5
35D2
  8
0
 10
614.49999213218678
 20
500.99999774248857
 30
0.0
 11
614.49999213218678
 21
501.49999782444502
 31
0.0
  0
LINE
  5
35D3
  8
0
 10
607.49999284744263
 20
501.49999782444502
 30
0.0
 11
614.49999213218678
 21
501.49999782444502
 31
0.0
  0
LINE
  5
35D4
  8
0
 10
607.49999284744263
 20
501.49999782444502
 30
0.0
 11
607.49999284744263
 21
500.99999774248857
 31
0.0
  0
LINE
  5
35D5
  8
0
 10
601.99997425079334
 20
500.99999774248857
 30
0.0
 11
607.49999284744263
 21
500.99999774248857
 31
0.0
  0
LINE
  5
35D6
  8
0
 10
601.99997425079334
 20
495.99999785424728
 30
0.0
 11
601.99997425079334
 21
500.99999774248857
 31
0.0
  0
LINE
  5
3AF7
  8
2
 10
617.24997162818897
 20
508.7499976158287
 30
0.0
 11
604.74998354911804
 21
508.7499976158287
 31
0.0
  0
LINE
  5
3AF8
  8
2
 10
717.2499805688858
 20
508.7499976158287
 30
0.0
 11
704.74997758865345
 21
508.7499976158287
 31
0.0
  0
LINE
  5
3AF9
  8
2
 10
867.24998652935017
 20
508.7499976158287
 30
0.0
 11
854.74998354911804
 21
508.7499976158287
 31
0.0
  0
LINE
  5
3CB2
  8
2
 10
597.4999725818634
 20
515.9999974072125
 30
0.0
 11
604.74998354911804
 21
508.7499976158287
 31
0.0
  0
LINE
  5
3CB3
  8
2
 10
617.24997162818897
 20
508.7499976158287
 30
0.0
 11
624.49998259544373
 21
515.9999974072125
 31
0.0
  0
LINE
  5
3CB4
  8
2
 10
697.49999642372131
 20
515.9999974072125
 30
0.0
 11
704.74997758865345
 21
508.7499976158287
 31
0.0
  0
LINE
  5
3CB5
  8
2
 10
717.2499805688858
 20
508.7499976158287
 30
0.0
 11
724.49999153614044
 21
515.9999974072125
 31
0.0
  0
LINE
  5
3CB6
  8
2
 10
847.49998748302448
 20
515.9999974072125
 30
0.0
 11
854.74998354911804
 21
508.7499976158287
 31
0.0
  0
LINE
  5
3CB7
  8
2
 10
867.24998652935017
 20
508.7499976158287
 30
0.0
 11
874.49998259544373
 21
515.9999974072125
 31
0.0
  0
LINE
  5
3CBE
  8
2
 10
704.74997758865345
 20
508.7499976158287
 30
0.0
 11
704.74997758865345
 21
495.99999785424728
 31
0.0
  0
LINE
  5
3CBF
  8
2
 10
717.2499805688858
 20
495.99999785424728
 30
0.0
 11
717.2499805688858
 21
508.7499976158287
 31
0.0
  0
LINE
  5
3CC0
  8
2
 10
854.74998354911804
 20
508.7499976158287
 30
0.0
 11
854.74998354911804
 21
495.99999785424728
 31
0.0
  0
LINE
  5
3CC1
  8
2
 10
867.24998652935017
 20
495.99999785424728
 30
0.0
 11
867.24998652935017
 21
508.7499976158287
 31
0.0
  0
LINE
  5
3CC2
  8
2
 10
604.74998354911804
 20
508.7499976158287
 30
0.0
 11
604.74998354911804
 21
495.99999785421778
 31
0.0
  0
LINE
  5
3CC3
  8
2
 10
617.24997162818886
 20
495.99999785421892
 30
0.0
 11
617.24997162818897
 21
508.7499976158287
 31
0.0
  0
LINE
  5
3CD7
  8
0
 10
901.99998617172241
 20
843.49999390543962
 30
0.0
 11
901.99998617172241
 21
827.24999450148596
 31
0.0
  0
LINE
  5
3D3A
  8
0
 10
536.07178330421436
 20
766.99999347330595
 30
0.0
 11
539.53588604927063
 21
760.99999248982931
 31
0.0
  0
LINE
  5
3D3B
  8
0
 10
539.53588604927063
 20
760.99999248982931
 30
0.0
 11
546.46409153938293
 21
760.99999248982931
 31
0.0
  0
LINE
  5
3D3C
  8
0
 10
546.46409153938293
 20
760.99999248982931
 30
0.0
 11
549.92819428443897
 21
766.99999347330595
 31
0.0
  0
LINE
  5
3D3D
  8
0
 10
549.92819428443897
 20
766.99999347330595
 30
0.0
 11
546.46409153938293
 21
772.99999445678259
 31
0.0
  0
LINE
  5
3D3E
  8
0
 10
546.46409153938293
 20
772.99999445678259
 30
0.0
 11
539.53588604927063
 21
772.99999445678259
 31
0.0
  0
LINE
  5
3D3F
  8
0
 10
539.53588604927063
 20
772.99999445678259
 30
0.0
 11
536.07178330421436
 21
766.99999347330595
 31
0.0
  0
CIRCLE
  5
3D40
  8
0
 10
542.9999845027919
 20
766.9999942183631
 30
0.0
 40
10.49999999999997
  0
LINE
  5
3D5E
  8
0
 10
901.99998617172241
 20
790.49999453128839
 30
0.0
 11
901.99998617172218
 21
806.74999393524195
 31
0.0
  0
LINE
  5
3D6B
  8
0
 10
907.99998342990875
 20
827.24999450148596
 30
0.0
 11
907.99998342990875
 21
806.74999393524195
 31
0.0
  0
LINE
  5
3D6F
  8
0
 10
958.49998448975339
 20
789.99999351800943
 30
0.0
 11
958.49998448975339
 21
843.99999491871802
 31
0.0
  0
LINE
  5
3D73
  8
0
 10
901.99998617172241
 20
827.24999450148596
 30
0.0
 11
907.99998342990875
 21
827.24999450148596
 31
0.0
  0
LINE
  5
3D76
  8
0
 10
906.49998411536205
 20
843.49999390543962
 30
0.0
 11
901.99998617172241
 21
843.49999390544008
 31
0.0
  0
LINE
  5
3D77
  8
0
 10
906.49998411536205
 20
843.99999491871847
 30
0.0
 11
906.49998411536205
 21
843.49999390543962
 31
0.0
  0
LINE
  5
3D7A
  8
0
 10
907.99998342990875
 20
806.74999393524195
 30
0.0
 11
901.99998617172241
 21
806.74999393524195
 31
0.0
  0
LINE
  5
441D
  8
0
 10
958.49998448975339
 20
842.89999492467905
 30
0.0
 11
959.99998450279202
 21
842.89999492467905
 31
0.0
  0
LINE
  5
4424
  8
0
 10
960.49998452654074
 20
842.39999391140009
 30
0.0
 11
960.49998452654074
 21
791.59999638797262
 31
0.0
  0
LINE
  5
4425
  8
0
 10
960.49998452654074
 20
842.39999391140009
 30
0.0
 11
959.99998450279202
 21
842.89999492467905
 31
0.0
  0
LINE
  5
4433
  8
0
 10
840.99998176097859
 20
888.89999687673105
 30
0.0
 11
840.99998176097859
 21
745.09999155999685
 31
0.0
  0
LINE
  5
4435
  8
0
 10
900.99998414516438
 20
745.09999155999685
 30
0.0
 11
900.99998414516438
 21
888.89999687673105
 31
0.0
  0
LINE
  5
443E
  8
0
 10
915.99998474121094
 20
888.89999687673105
 30
0.0
 11
915.99998474121094
 21
843.99999491871847
 31
0.0
  0
LINE
  5
443F
  8
0
 10
959.99998450279202
 20
843.99999491871847
 30
0.0
 11
900.99998414516438
 21
843.99999491871847
 31
0.0
  0
POLYLINE
  5
4440
  8
0
 10
910.32613766589202
 20
854.99999421836424
 30
0.0
 66
     1
 70
     8
  0
VERTEX
  8
0
  5
8C4F
 10
910.326
 20
855.000
 30
0.000000
  70
    32
  0
VERTEX
  8
0
  5
8C50
 10
910.223
 20
854.995
 30
0.000000
  70
    32
  0
VERTEX
  8
0
  5
8C51
 10
910.120
 20
854.978
 30
0.000000
  70
    32
  0
VERTEX
  8
0
  5
8C52
 10
910.018
 20
854.951
 30
0.000000
  70
    32
  0
VERTEX
  8
0
  5
8C53
 10
909.917
 20
854.914
 30
0.000000
  70
    32
  0
VERTEX
  8
0
  5
8C54
 10
909.816
 20
854.865
 30
0.000000
  70
    32
  0
VERTEX
  8
0
  5
8C55
 10
909.717
 20
854.806
 30
0.000000
  70
    32
  0
VERTEX
  8
0
  5
8C56
 10
909.619
 20
854.737
 30
0.000000
  70
    32
  0
VERTEX
  8
0
  5
8C57
 10
909.523
 20
854.657
 30
0.000000
  70
    32
  0
VERTEX
  8
0
  5
8C58
 10
909.429
 20
854.568
 30
0.000000
  70
    32
  0
VERTEX
  8
0
  5
8C59
 10
909.337
 20
854.469
 30
0.000000
  70
    32
  0
VERTEX
  8
0
  5
8C5A
 10
909.247
 20
854.360
 30
0.000000
  70
    32
  0
VERTEX
  8
0
  5
8C5B
 10
909.160
 20
854.242
 30
0.000000
  70
    32
  0
VERTEX
  8
0
  5
8C5C
 10
909.076
 20
854.114
 30
0.000000
  70
    32
  0
VERTEX
  8
0
  5
8C5D
 10
908.995
 20
853.979
 30
0.000000
  70
    32
  0
VERTEX
  8
0
  5
8C5E
 10
908.917
 20
853.834
 30
0.000000
  70
    32
  0
VERTEX
  8
0
  5
8C5F
 10
908.842
 20
853.682
 30
0.000000
  70
    32
  0
VERTEX
  8
0
  5
8C60
 10
908.771
 20
853.522
 30
0.000000
  70
    32
  0
VERTEX
  8
0
  5
8C61
 10
908.704
 20
853.355
 30
0.000000
  70
    32
  0
VERTEX
  8
0
  5
8C62
 10
908.641
 20
853.181
 30
0.000000
  70
    32
  0
VERTEX
  8
0
  5
8C63
 10
908.581
 20
853.000
 30
0.000000
  70
    32
  0
VERTEX
  8
0
  5
8C64
 10
908.526
 20
852.813
 30
0.000000
  70
    32
  0
VERTEX
  8
0
  5
8C65
 10
908.476
 20
852.621
 30
0.000000
  70
    32
  0
VERTEX
  8
0
  5
8C66
 10
908.429
 20
852.424
 30
0.000000
  70
    32
  0
VERTEX
  8
0
  5
8C67
 10
908.387
 20
852.222
 30
0.000000
  70
    32
  0
VERTEX
  8
0
  5
8C68
 10
908.350
 20
852.016
 30
0.000000
  70
    32
  0
VERTEX
  8
0
  5
8C69
 10
908.318
 20
851.806
 30
0.000000
  70
    32
  0
VERTEX
  8
0
  5
8C6A
 10
908.291
 20
851.593
 30
0.000000
  70
    32
  0
VERTEX
  8
0
  5
8C6B
 10
908.268
 20
851.378
 30
0.000000
  70
    32
  0
VERTEX
  8
0
  5
8C6C
 10
908.250
 20
851.160
 30
0.000000
  70
    32
  0
VERTEX
  8
0
  5
8C6D
 10
908.238
 20
850.941
 30
0.000000
  70
    32
  0
VERTEX
  8
0
  5
8C6E
 10
908.230
 20
850.721
 30
0.000000
  70
    32
  0
VERTEX
  8
0
  5
8C6F
 10
908.228
 20
850.500
 30
0.000000
  70
    32
  0
VERTEX
  8
0
  5
8C70
 10
908.230
 20
850.279
 30
0.000000
  70
    32
  0
VERTEX
  8
0
  5
8C71
 10
908.238
 20
850.059
 30
0.000000
  70
    32
  0
VERTEX
  8
0
  5
8C72
 10
908.250
 20
849.840
 30
0.000000
  70
    32
  0
VERTEX
  8
0
  5
8C73
 10
908.268
 20
849.622
 30
0.000000
  70
    32
  0
VERTEX
  8
0
  5
8C74
 10
908.291
 20
849.407
 30
0.000000
  70
    32
  0
VERTEX
  8
0
  5
8C75
 10
908.318
 20
849.194
 30
0.000000
  70
    32
  0
VERTEX
  8
0
  5
8C76
 10
908.350
 20
848.984
 30
0.000000
  70
    32
  0
VERTEX
  8
0
  5
8C77
 10
908.387
 20
848.778
 30
0.000000
  70
    32
  0
VERTEX
  8
0
  5
8C78
 10
908.429
 20
848.576
 30
0.000000
  70
    32
  0
VERTEX
  8
0
  5
8C79
 10
908.476
 20
848.379
 30
0.000000
  70
    32
  0
VERTEX
  8
0
  5
8C7A
 10
908.526
 20
848.187
 30
0.000000
  70
    32
  0
VERTEX
  8
0
  5
8C7B
 10
908.581
 20
848.000
 30
0.000000
  70
    32
  0
VERTEX
  8
0
  5
8C7C
 10
908.641
 20
847.819
 30
0.000000
  70
    32
  0
VERTEX
  8
0
  5
8C7D
 10
908.704
 20
847.645
 30
0.000000
  70
    32
  0
VERTEX
  8
0
  5
8C7E
 10
908.771
 20
847.478
 30
0.000000
  70
    32
  0
VERTEX
  8
0
  5
8C7F
 10
908.842
 20
847.318
 30
0.000000
  70
    32
  0
VERTEX
  8
0
  5
8C80
 10
908.917
 20
847.166
 30
0.000000
  70
    32
  0
VERTEX
  8
0
  5
8C81
 10
908.995
 20
847.021
 30
0.000000
  70
    32
  0
VERTEX
  8
0
  5
8C82
 10
909.076
 20
846.886
 30
0.000000
  70
    32
  0
VERTEX
  8
0
  5
8C83
 10
909.160
 20
846.758
 30
0.000000
  70
    32
  0
VERTEX
  8
0
  5
8C84
 10
909.247
 20
846.640
 30
0.000000
  70
    32
  0
VERTEX
  8
0
  5
8C85
 10
909.337
 20
846.531
 30
0.000000
  70
    32
  0
VERTEX
  8
0
  5
8C86
 10
909.429
 20
846.432
 30
0.000000
  70
    32
  0
VERTEX
  8
0
  5
8C87
 10
909.523
 20
846.343
 30
0.000000
  70
    32
  0
VERTEX
  8
0
  5
8C88
 10
909.619
 20
846.263
 30
0.000000
  70
    32
  0
VERTEX
  8
0
  5
8C89
 10
909.717
 20
846.194
 30
0.000000
  70
    32
  0
VERTEX
  8
0
  5
8C8A
 10
909.816
 20
846.135
 30
0.000000
  70
    32
  0
VERTEX
  8
0
  5
8C8B
 10
909.917
 20
846.086
 30
0.000000
  70
    32
  0
VERTEX
  8
0
  5
8C8C
 10
910.018
 20
846.049
 30
0.000000
  70
    32
  0
VERTEX
  8
0
  5
8C8D
 10
910.120
 20
846.022
 30
0.000000
  70
    32
  0
VERTEX
  8
0
  5
8C8E
 10
910.223
 20
846.005
 30
0.000000
  70
    32
  0
VERTEX
  8
0
  5
8C8F
 10
910.326
 20
846.000
 30
0.000000
  70
    32
  0
VERTEX
  8
0
  5
8C90
 10
910.429
 20
846.005
 30
0.000000
  70
    32
  0
VERTEX
  8
0
  5
8C91
 10
910.532
 20
846.022
 30
0.000000
  70
    32
  0
VERTEX
  8
0
  5
8C92
 10
910.634
 20
846.049
 30
0.000000
  70
    32
  0
VERTEX
  8
0
  5
8C93
 10
910.736
 20
846.086
 30
0.000000
  70
    32
  0
VERTEX
  8
0
  5
8C94
 10
910.836
 20
846.135
 30
0.000000
  70
    32
  0
VERTEX
  8
0
  5
8C95
 10
910.935
 20
846.194
 30
0.000000
  70
    32
  0
VERTEX
  8
0
  5
8C96
 10
911.033
 20
846.263
 30
0.000000
  70
    32
  0
VERTEX
  8
0
  5
8C97
 10
911.129
 20
846.343
 30
0.000000
  70
    32
  0
VERTEX
  8
0
  5
8C98
 10
911.223
 20
846.432
 30
0.000000
  70
    32
  0
VERTEX
  8
0
  5
8C99
 10
911.315
 20
846.531
 30
0.000000
  70
    32
  0
VERTEX
  8
0
  5
8C9A
 10
911.405
 20
846.640
 30
0.000000
  70
    32
  0
VERTEX
  8
0
  5
8C9B
 10
911.492
 20
846.758
 30
0.000000
  70
    32
  0
VERTEX
  8
0
  5
8C9C
 10
911.576
 20
846.886
 30
0.000000
  70
    32
  0
VERTEX
  8
0
  5
8C9D
 10
911.657
 20
847.021
 30
0.000000
  70
    32
  0
VERTEX
  8
0
  5
8C9E
 10
911.735
 20
847.166
 30
0.000000
  70
    32
  0
VERTEX
  8
0
  5
8C9F
 10
911.810
 20
847.318
 30
0.000000
  70
    32
  0
VERTEX
  8
0
  5
8CA0
 10
911.881
 20
847.478
 30
0.000000
  70
    32
  0
VERTEX
  8
0
  5
8CA1
 10
911.948
 20
847.645
 30
0.000000
  70
    32
  0
VERTEX
  8
0
  5
8CA2
 10
912.012
 20
847.819
 30
0.000000
  70
    32
  0
VERTEX
  8
0
  5
8CA3
 10
912.071
 20
848.000
 30
0.000000
  70
    32
  0
VERTEX
  8
0
  5
8CA4
 10
912.126
 20
848.187
 30
0.000000
  70
    32
  0
VERTEX
  8
0
  5
8CA5
 10
912.177
 20
848.379
 30
0.000000
  70
    32
  0
VERTEX
  8
0
  5
8CA6
 10
912.223
 20
848.576
 30
0.000000
  70
    32
  0
VERTEX
  8
0
  5
8CA7
 10
912.265
 20
848.778
 30
0.000000
  70
    32
  0
VERTEX
  8
0
  5
8CA8
 10
912.302
 20
848.984
 30
0.000000
  70
    32
  0
VERTEX
  8
0
  5
8CA9
 10
912.334
 20
849.194
 30
0.000000
  70
    32
  0
VERTEX
  8
0
  5
8CAA
 10
912.362
 20
849.407
 30
0.000000
  70
    32
  0
VERTEX
  8
0
  5
8CAB
 10
912.384
 20
849.622
 30
0.000000
  70
    32
  0
VERTEX
  8
0
  5
8CAC
 10
912.402
 20
849.840
 30
0.000000
  70
    32
  0
VERTEX
  8
0
  5
8CAD
 10
912.414
 20
850.059
 30
0.000000
  70
    32
  0
VERTEX
  8
0
  5
8CAE
 10
912.422
 20
850.279
 30
0.000000
  70
    32
  0
VERTEX
  8
0
  5
8CAF
 10
912.425
 20
850.500
 30
0.000000
  70
    32
  0
VERTEX
  8
0
  5
8CB0
 10
912.422
 20
850.721
 30
0.000000
  70
    32
  0
VERTEX
  8
0
  5
8CB1
 10
912.414
 20
850.941
 30
0.000000
  70
    32
  0
VERTEX
  8
0
  5
8CB2
 10
912.402
 20
851.160
 30
0.000000
  70
    32
  0
VERTEX
  8
0
  5
8CB3
 10
912.384
 20
851.378
 30
0.000000
  70
    32
  0
VERTEX
  8
0
  5
8CB4
 10
912.362
 20
851.593
 30
0.000000
  70
    32
  0
VERTEX
  8
0
  5
8CB5
 10
912.334
 20
851.806
 30
0.000000
  70
    32
  0
VERTEX
  8
0
  5
8CB6
 10
912.302
 20
852.016
 30
0.000000
  70
    32
  0
VERTEX
  8
0
  5
8CB7
 10
912.265
 20
852.222
 30
0.000000
  70
    32
  0
VERTEX
  8
0
  5
8CB8
 10
912.223
 20
852.424
 30
0.000000
  70
    32
  0
VERTEX
  8
0
  5
8CB9
 10
912.177
 20
852.621
 30
0.000000
  70
    32
  0
VERTEX
  8
0
  5
8CBA
 10
912.126
 20
852.813
 30
0.000000
  70
    32
  0
VERTEX
  8
0
  5
8CBB
 10
912.071
 20
853.000
 30
0.000000
  70
    32
  0
VERTEX
  8
0
  5
8CBC
 10
912.012
 20
853.181
 30
0.000000
  70
    32
  0
VERTEX
  8
0
  5
8CBD
 10
911.948
 20
853.355
 30
0.000000
  70
    32
  0
VERTEX
  8
0
  5
8CBE
 10
911.881
 20
853.522
 30
0.000000
  70
    32
  0
VERTEX
  8
0
  5
8CBF
 10
911.810
 20
853.682
 30
0.000000
  70
    32
  0
VERTEX
  8
0
  5
8CC0
 10
911.735
 20
853.834
 30
0.000000
  70
    32
  0
VERTEX
  8
0
  5
8CC1
 10
911.657
 20
853.979
 30
0.000000
  70
    32
  0
VERTEX
  8
0
  5
8CC2
 10
911.576
 20
854.114
 30
0.000000
  70
    32
  0
VERTEX
  8
0
  5
8CC3
 10
911.492
 20
854.242
 30
0.000000
  70
    32
  0
VERTEX
  8
0
  5
8CC4
 10
911.405
 20
854.360
 30
0.000000
  70
    32
  0
VERTEX
  8
0
  5
8CC5
 10
911.315
 20
854.469
 30
0.000000
  70
    32
  0
VERTEX
  8
0
  5
8CC6
 10
911.223
 20
854.568
 30
0.000000
  70
    32
  0
VERTEX
  8
0
  5
8CC7
 10
911.129
 20
854.657
 30
0.000000
  70
    32
  0
VERTEX
  8
0
  5
8CC8
 10
911.033
 20
854.737
 30
0.000000
  70
    32
  0
VERTEX
  8
0
  5
8CC9
 10
910.935
 20
854.806
 30
0.000000
  70
    32
  0
VERTEX
  8
0
  5
8CCA
 10
910.836
 20
854.865
 30
0.000000
  70
    32
  0
VERTEX
  8
0
  5
8CCB
 10
910.736
 20
854.914
 30
0.000000
  70
    32
  0
VERTEX
  8
0
  5
8CCC
 10
910.634
 20
854.951
 30
0.000000
  70
    32
  0
VERTEX
  8
0
  5
8CCD
 10
910.532
 20
854.978
 30
0.000000
  70
    32
  0
VERTEX
  8
0
  5
8CCE
 10
910.429
 20
854.995
 30
0.000000
  70
    32
  0
VERTEX
  8
0
  5
8CCF
 10
910.326
 20
855.000
 30
0.000000
  70
    32
  0
SEQEND
  8
0
  5
8CD0
  0
POLYLINE
  5
4441
  8
0
 10
910.32613766589202
 20
787.9999942183639
 30
0.0
 66
     1
 70
     8
  0
VERTEX
  8
0
  5
8CD1
 10
910.326
 20
788.000
 30
0.000000
  70
    32
  0
VERTEX
  8
0
  5
8CD2
 10
910.223
 20
787.995
 30
0.000000
  70
    32
  0
VERTEX
  8
0
  5
8CD3
 10
910.120
 20
787.978
 30
0.000000
  70
    32
  0
VERTEX
  8
0
  5
8CD4
 10
910.018
 20
787.951
 30
0.000000
  70
    32
  0
VERTEX
  8
0
  5
8CD5
 10
909.917
 20
787.914
 30
0.000000
  70
    32
  0
VERTEX
  8
0
  5
8CD6
 10
909.816
 20
787.865
 30
0.000000
  70
    32
  0
VERTEX
  8
0
  5
8CD7
 10
909.717
 20
787.806
 30
0.000000
  70
    32
  0
VERTEX
  8
0
  5
8CD8
 10
909.619
 20
787.737
 30
0.000000
  70
    32
  0
VERTEX
  8
0
  5
8CD9
 10
909.523
 20
787.657
 30
0.000000
  70
    32
  0
VERTEX
  8
0
  5
8CDA
 10
909.429
 20
787.568
 30
0.000000
  70
    32
  0
VERTEX
  8
0
  5
8CDB
 10
909.337
 20
787.469
 30
0.000000
  70
    32
  0
VERTEX
  8
0
  5
8CDC
 10
909.247
 20
787.360
 30
0.000000
  70
    32
  0
VERTEX
  8
0
  5
8CDD
 10
909.160
 20
787.242
 30
0.000000
  70
    32
  0
VERTEX
  8
0
  5
8CDE
 10
909.076
 20
787.114
 30
0.000000
  70
    32
  0
VERTEX
  8
0
  5
8CDF
 10
908.995
 20
786.979
 30
0.000000
  70
    32
  0
VERTEX
  8
0
  5
8CE0
 10
908.917
 20
786.834
 30
0.000000
  70
    32
  0
VERTEX
  8
0
  5
8CE1
 10
908.842
 20
786.682
 30
0.000000
  70
    32
  0
VERTEX
  8
0
  5
8CE2
 10
908.771
 20
786.522
 30
0.000000
  70
    32
  0
VERTEX
  8
0
  5
8CE3
 10
908.704
 20
786.355
 30
0.000000
  70
    32
  0
VERTEX
  8
0
  5
8CE4
 10
908.641
 20
786.181
 30
0.000000
  70
    32
  0
VERTEX
  8
0
  5
8CE5
 10
908.581
 20
786.000
 30
0.000000
  70
    32
  0
VERTEX
  8
0
  5
8CE6
 10
908.526
 20
785.813
 30
0.000000
  70
    32
  0
VERTEX
  8
0
  5
8CE7
 10
908.476
 20
785.621
 30
0.000000
  70
    32
  0
VERTEX
  8
0
  5
8CE8
 10
908.429
 20
785.424
 30
0.000000
  70
    32
  0
VERTEX
  8
0
  5
8CE9
 10
908.387
 20
785.222
 30
0.000000
  70
    32
  0
VERTEX
  8
0
  5
8CEA
 10
908.350
 20
785.016
 30
0.000000
  70
    32
  0
VERTEX
  8
0
  5
8CEB
 10
908.318
 20
784.806
 30
0.000000
  70
    32
  0
VERTEX
  8
0
  5
8CEC
 10
908.291
 20
784.593
 30
0.000000
  70
    32
  0
VERTEX
  8
0
  5
8CED
 10
908.268
 20
784.378
 30
0.000000
  70
    32
  0
VERTEX
  8
0
  5
8CEE
 10
908.250
 20
784.160
 30
0.000000
  70
    32
  0
VERTEX
  8
0
  5
8CEF
 10
908.238
 20
783.941
 30
0.000000
  70
    32
  0
VERTEX
  8
0
  5
8CF0
 10
908.230
 20
783.721
 30
0.000000
  70
    32
  0
VERTEX
  8
0
  5
8CF1
 10
908.228
 20
783.500
 30
0.000000
  70
    32
  0
VERTEX
  8
0
  5
8CF2
 10
908.230
 20
783.279
 30
0.000000
  70
    32
  0
VERTEX
  8
0
  5
8CF3
 10
908.238
 20
783.059
 30
0.000000
  70
    32
  0
VERTEX
  8
0
  5
8CF4
 10
908.250
 20
782.840
 30
0.000000
  70
    32
  0
VERTEX
  8
0
  5
8CF5
 10
908.268
 20
782.622
 30
0.000000
  70
    32
  0
VERTEX
  8
0
  5
8CF6
 10
908.291
 20
782.407
 30
0.000000
  70
    32
  0
VERTEX
  8
0
  5
8CF7
 10
908.318
 20
782.194
 30
0.000000
  70
    32
  0
VERTEX
  8
0
  5
8CF8
 10
908.350
 20
781.984
 30
0.000000
  70
    32
  0
VERTEX
  8
0
  5
8CF9
 10
908.387
 20
781.778
 30
0.000000
  70
    32
  0
VERTEX
  8
0
  5
8CFA
 10
908.429
 20
781.576
 30
0.000000
  70
    32
  0
VERTEX
  8
0
  5
8CFB
 10
908.476
 20
781.379
 30
0.000000
  70
    32
  0
VERTEX
  8
0
  5
8CFC
 10
908.526
 20
781.187
 30
0.000000
  70
    32
  0
VERTEX
  8
0
  5
8CFD
 10
908.581
 20
781.000
 30
0.000000
  70
    32
  0
VERTEX
  8
0
  5
8CFE
 10
908.641
 20
780.819
 30
0.000000
  70
    32
  0
VERTEX
  8
0
  5
8CFF
 10
908.704
 20
780.645
 30
0.000000
  70
    32
  0
VERTEX
  8
0
  5
8D00
 10
908.771
 20
780.478
 30
0.000000
  70
    32
  0
VERTEX
  8
0
  5
8D01
 10
908.842
 20
780.318
 30
0.000000
  70
    32
  0
VERTEX
  8
0
  5
8D02
 10
908.917
 20
780.166
 30
0.000000
  70
    32
  0
VERTEX
  8
0
  5
8D03
 10
908.995
 20
780.021
 30
0.000000
  70
    32
  0
VERTEX
  8
0
  5
8D04
 10
909.076
 20
779.886
 30
0.000000
  70
    32
  0
VERTEX
  8
0
  5
8D05
 10
909.160
 20
779.758
 30
0.000000
  70
    32
  0
VERTEX
  8
0
  5
8D06
 10
909.247
 20
779.640
 30
0.000000
  70
    32
  0
VERTEX
  8
0
  5
8D07
 10
909.337
 20
779.531
 30
0.000000
  70
    32
  0
VERTEX
  8
0
  5
8D08
 10
909.429
 20
779.432
 30
0.000000
  70
    32
  0
VERTEX
  8
0
  5
8D09
 10
909.523
 20
779.343
 30
0.000000
  70
    32
  0
VERTEX
  8
0
  5
8D0A
 10
909.619
 20
779.263
 30
0.000000
  70
    32
  0
VERTEX
  8
0
  5
8D0B
 10
909.717
 20
779.194
 30
0.000000
  70
    32
  0
VERTEX
  8
0
  5
8D0C
 10
909.816
 20
779.135
 30
0.000000
  70
    32
  0
VERTEX
  8
0
  5
8D0D
 10
909.917
 20
779.086
 30
0.000000
  70
    32
  0
VERTEX
  8
0
  5
8D0E
 10
910.018
 20
779.049
 30
0.000000
  70
    32
  0
VERTEX
  8
0
  5
8D0F
 10
910.120
 20
779.022
 30
0.000000
  70
    32
  0
VERTEX
  8
0
  5
8D10
 10
910.223
 20
779.005
 30
0.000000
  70
    32
  0
VERTEX
  8
0
  5
8D11
 10
910.326
 20
779.000
 30
0.000000
  70
    32
  0
VERTEX
  8
0
  5
8D12
 10
910.429
 20
779.005
 30
0.000000
  70
    32
  0
VERTEX
  8
0
  5
8D13
 10
910.532
 20
779.022
 30
0.000000
  70
    32
  0
VERTEX
  8
0
  5
8D14
 10
910.634
 20
779.049
 30
0.000000
  70
    32
  0
VERTEX
  8
0
  5
8D15
 10
910.736
 20
779.086
 30
0.000000
  70
    32
  0
VERTEX
  8
0
  5
8D16
 10
910.836
 20
779.135
 30
0.000000
  70
    32
  0
VERTEX
  8
0
  5
8D17
 10
910.935
 20
779.194
 30
0.000000
  70
    32
  0
VERTEX
  8
0
  5
8D18
 10
911.033
 20
779.263
 30
0.000000
  70
    32
  0
VERTEX
  8
0
  5
8D19
 10
911.129
 20
779.343
 30
0.000000
  70
    32
  0
VERTEX
  8
0
  5
8D1A
 10
911.223
 20
779.432
 30
0.000000
  70
    32
  0
VERTEX
  8
0
  5
8D1B
 10
911.315
 20
779.531
 30
0.000000
  70
    32
  0
VERTEX
  8
0
  5
8D1C
 10
911.405
 20
779.640
 30
0.000000
  70
    32
  0
VERTEX
  8
0
  5
8D1D
 10
911.492
 20
779.758
 30
0.000000
  70
    32
  0
VERTEX
  8
0
  5
8D1E
 10
911.576
 20
779.886
 30
0.000000
  70
    32
  0
VERTEX
  8
0
  5
8D1F
 10
911.657
 20
780.021
 30
0.000000
  70
    32
  0
VERTEX
  8
0
  5
8D20
 10
911.735
 20
780.166
 30
0.000000
  70
    32
  0
VERTEX
  8
0
  5
8D21
 10
911.810
 20
780.318
 30
0.000000
  70
    32
  0
VERTEX
  8
0
  5
8D22
 10
911.881
 20
780.478
 30
0.000000
  70
    32
  0
VERTEX
  8
0
  5
8D23
 10
911.948
 20
780.645
 30
0.000000
  70
    32
  0
VERTEX
  8
0
  5
8D24
 10
912.012
 20
780.819
 30
0.000000
  70
    32
  0
VERTEX
  8
0
  5
8D25
 10
912.071
 20
781.000
 30
0.000000
  70
    32
  0
VERTEX
  8
0
  5
8D26
 10
912.126
 20
781.187
 30
0.000000
  70
    32
  0
VERTEX
  8
0
  5
8D27
 10
912.177
 20
781.379
 30
0.000000
  70
    32
  0
VERTEX
  8
0
  5
8D28
 10
912.223
 20
781.576
 30
0.000000
  70
    32
  0
VERTEX
  8
0
  5
8D29
 10
912.265
 20
781.778
 30
0.000000
  70
    32
  0
VERTEX
  8
0
  5
8D2A
 10
912.302
 20
781.984
 30
0.000000
  70
    32
  0
VERTEX
  8
0
  5
8D2B
 10
912.334
 20
782.194
 30
0.000000
  70
    32
  0
VERTEX
  8
0
  5
8D2C
 10
912.362
 20
782.407
 30
0.000000
  70
    32
  0
VERTEX
  8
0
  5
8D2D
 10
912.384
 20
782.622
 30
0.000000
  70
    32
  0
VERTEX
  8
0
  5
8D2E
 10
912.402
 20
782.840
 30
0.000000
  70
    32
  0
VERTEX
  8
0
  5
8D2F
 10
912.414
 20
783.059
 30
0.000000
  70
    32
  0
VERTEX
  8
0
  5
8D30
 10
912.422
 20
783.279
 30
0.000000
  70
    32
  0
VERTEX
  8
0
  5
8D31
 10
912.425
 20
783.500
 30
0.000000
  70
    32
  0
VERTEX
  8
0
  5
8D32
 10
912.422
 20
783.721
 30
0.000000
  70
    32
  0
VERTEX
  8
0
  5
8D33
 10
912.414
 20
783.941
 30
0.000000
  70
    32
  0
VERTEX
  8
0
  5
8D34
 10
912.402
 20
784.160
 30
0.000000
  70
    32
  0
VERTEX
  8
0
  5
8D35
 10
912.384
 20
784.378
 30
0.000000
  70
    32
  0
VERTEX
  8
0
  5
8D36
 10
912.362
 20
784.593
 30
0.000000
  70
    32
  0
VERTEX
  8
0
  5
8D37
 10
912.334
 20
784.806
 30
0.000000
  70
    32
  0
VERTEX
  8
0
  5
8D38
 10
912.302
 20
785.016
 30
0.000000
  70
    32
  0
VERTEX
  8
0
  5
8D39
 10
912.265
 20
785.222
 30
0.000000
  70
    32
  0
VERTEX
  8
0
  5
8D3A
 10
912.223
 20
785.424
 30
0.000000
  70
    32
  0
VERTEX
  8
0
  5
8D3B
 10
912.177
 20
785.621
 30
0.000000
  70
    32
  0
VERTEX
  8
0
  5
8D3C
 10
912.126
 20
785.813
 30
0.000000
  70
    32
  0
VERTEX
  8
0
  5
8D3D
 10
912.071
 20
786.000
 30
0.000000
  70
    32
  0
VERTEX
  8
0
  5
8D3E
 10
912.012
 20
786.181
 30
0.000000
  70
    32
  0
VERTEX
  8
0
  5
8D3F
 10
911.948
 20
786.355
 30
0.000000
  70
    32
  0
VERTEX
  8
0
  5
8D40
 10
911.881
 20
786.522
 30
0.000000
  70
    32
  0
VERTEX
  8
0
  5
8D41
 10
911.810
 20
786.682
 30
0.000000
  70
    32
  0
VERTEX
  8
0
  5
8D42
 10
911.735
 20
786.834
 30
0.000000
  70
    32
  0
VERTEX
  8
0
  5
8D43
 10
911.657
 20
786.979
 30
0.000000
  70
    32
  0
VERTEX
  8
0
  5
8D44
 10
911.576
 20
787.114
 30
0.000000
  70
    32
  0
VERTEX
  8
0
  5
8D45
 10
911.492
 20
787.242
 30
0.000000
  70
    32
  0
VERTEX
  8
0
  5
8D46
 10
911.405
 20
787.360
 30
0.000000
  70
    32
  0
VERTEX
  8
0
  5
8D47
 10
911.315
 20
787.469
 30
0.000000
  70
    32
  0
VERTEX
  8
0
  5
8D48
 10
911.223
 20
787.568
 30
0.000000
  70
    32
  0
VERTEX
  8
0
  5
8D49
 10
911.129
 20
787.657
 30
0.000000
  70
    32
  0
VERTEX
  8
0
  5
8D4A
 10
911.033
 20
787.737
 30
0.000000
  70
    32
  0
VERTEX
  8
0
  5
8D4B
 10
910.935
 20
787.806
 30
0.000000
  70
    32
  0
VERTEX
  8
0
  5
8D4C
 10
910.836
 20
787.865
 30
0.000000
  70
    32
  0
VERTEX
  8
0
  5
8D4D
 10
910.736
 20
787.914
 30
0.000000
  70
    32
  0
VERTEX
  8
0
  5
8D4E
 10
910.634
 20
787.951
 30
0.000000
  70
    32
  0
VERTEX
  8
0
  5
8D4F
 10
910.532
 20
787.978
 30
0.000000
  70
    32
  0
VERTEX
  8
0
  5
8D50
 10
910.429
 20
787.995
 30
0.000000
  70
    32
  0
VERTEX
  8
0
  5
8D51
 10
910.326
 20
788.000
 30
0.000000
  70
    32
  0
SEQEND
  8
0
  5
8D52
  0
LINE
  5
4442
  8
0
 10
915.99998474121094
 20
789.99999351800943
 30
0.0
 11
915.99998474121094
 21
745.09999155999685
 31
0.0
  0
LINE
  5
4443
  8
0
 10
915.99998474121094
 20
745.09999155999685
 30
0.0
 11
914.99998271465302
 21
744.09999698401953
 31
0.0
  0
LINE
  5
4445
  8
0
 10
901.46629363298405
 20
744.09999698401953
 30
0.0
 11
900.99998414516438
 21
745.09999155999685
 31
0.0
  0
LINE
  5
4448
  8
0
 10
840.99998176097859
 20
745.09999155999685
 30
0.0
 11
841.36395752429962
 21
744.09999698401953
 31
0.0
  0
LINE
  5
4450
  8
0
 10
840.26998132467259
 20
889.89999145270849
 30
0.0
 11
840.26998132467259
 21
744.09999698401953
 31
0.0
  0
LINE
  5
4452
  8
0
 10
830.99999129772175
 20
889.89999145270849
 30
0.0
 11
830.99999129772175
 21
744.09999698401953
 31
0.0
  0
LINE
  5
4455
  8
0
 10
571.72999382019043
 20
744.09999698401953
 30
0.0
 11
571.72999382019043
 21
889.89999145270849
 31
0.0
  0
LINE
  5
4458
  8
0
 10
580.99997639656056
 20
744.09999698401953
 30
0.0
 11
580.99997639656056
 21
889.89999145270849
 31
0.0
  0
LINE
  5
4459
  8
0
 10
580.99997639656056
 20
744.09999698401953
 30
0.0
 11
496.99998497962952
 21
744.09999698401953
 31
0.0
  0
LINE
  5
4465
  8
0
 10
495.99999785423267
 20
888.89999687673105
 30
0.0
 11
496.99998497962952
 21
889.89999145270849
 31
0.0
  0
LINE
  5
446C
  8
0
 10
570.91993689537037
 20
744.88005042077555
 30
0.0
 11
570.91993689537037
 21
889.11993801595224
 31
0.0
  0
LINE
  5
446F
  8
0
 10
495.99999785423267
 20
745.09999155999685
 30
0.0
 11
495.99999785423267
 21
888.89999687673105
 31
0.0
  0
LINE
  5
4478
  8
0
 10
570.91993689537037
 20
744.88005042077555
 30
0.0
 11
570.74520587921143
 21
744.39999461175455
 31
0.0
  0
LINE
  5
4479
  8
0
 10
570.74520587921143
 20
744.39999461175455
 30
0.0
 11
570.31676769256592
 21
744.09999698401953
 31
0.0
  0
LINE
  5
447A
  8
0
 10
495.99999785423267
 20
745.09999155999685
 30
0.0
 11
496.99998497962952
 21
744.09999698401953
 31
0.0
  0
LINE
  5
4487
  8
0
 10
830.99999129772175
 20
842.99999475480581
 30
0.0
 11
580.99997639656056
 21
842.99999475480581
 31
0.0
  0
LINE
  5
4488
  8
0
 10
959.99998450278429
 20
889.9999931454804
 30
0.0
 11
959.99998450279213
 21
842.89999492467905
 31
0.0
  0
LINE
  5
4489
  8
0
 10
580.99997639656056
 20
790.99999368192221
 30
0.0
 11
830.99999129772175
 21
790.99999368192221
 31
0.0
  0
LINE
  5
4493
  8
0
 10
959.99998450279202
 20
743.99999529124761
 30
0.0
 11
496.99998497962952
 21
743.99999529124761
 31
0.0
  0
LINE
  5
4495
  8
0
 10
496.99998497962952
 20
743.99999529124761
 30
0.0
 11
496.99998497962952
 21
744.09999698401953
 31
0.0
  0
CIRCLE
  5
4498
  8
0
 10
710.99998450279224
 20
816.99999421836401
 30
0.0
 40
13.49999999999994
  0
CIRCLE
  5
4499
  8
0
 10
610.99998450279224
 20
816.99999421836401
 30
0.0
 40
13.49999999999994
  0
CIRCLE
  5
449B
  8
0
 10
610.99998450279224
 20
816.99999421836401
 30
0.0
 40
6.2500000000002842
  0
CIRCLE
  5
449C
  8
0
 10
710.99998450279224
 20
816.99999421836401
 30
0.0
 40
6.25
  0
LINE
  5
4515
  8
0
 10
496.99998497962952
 20
200.10000169277191
 30
0.0
 11
495.99999785423267
 21
201.09999626874921
 31
0.0
  0
LINE
  5
4517
  8
0
 10
495.99999785423267
 20
201.09999626874921
 30
0.0
 11
495.99999785423267
 21
344.90000158548349
 31
0.0
  0
LINE
  5
4519
  8
0
 10
496.99998497962952
 20
345.89999616146088
 30
0.0
 11
495.99999785423267
 21
344.90000158548349
 31
0.0
  0
LINE
  5
451C
  8
0
 10
959.99998450279213
 20
345.99999785423279
 30
0.0
 11
959.99998450279224
 21
200.0
 31
0.0
  0
LINE
  5
451D
  8
0
 10
959.99998450279202
 20
200.0
 30
0.0
 11
496.99998497962952
 21
199.99999999999969
 31
0.0
  0
LINE
  5
4524
  8
0
 10
601.99997425079334
 20
308.35887670286479
 30
0.0
 11
601.99997425079334
 21
344.64110136032099
 31
0.0
  0
LINE
  5
4529
  8
0
 10
496.99998497962952
 20
199.99999999999969
 30
0.0
 11
496.99998497962952
 21
345.99999785423279
 31
0.0
  0
LINE
  5
4533
  8
0
 10
922.35888391733158
 20
281.9999985396862
 30
0.0
 11
958.64108556415874
 21
281.9999985396862
 31
0.0
  0
LINE
  5
4535
  8
0
 10
958.64108556415874
 20
263.99999931454659
 30
0.0
 11
922.35888391733158
 21
263.99999931454659
 31
0.0
  0
CIRCLE
  5
453A
  8
0
 10
860.99998450279224
 20
272.99999892711639
 30
0.0
 40
6.2499999999997149
  0
CIRCLE
  5
453B
  8
0
 10
710.99998450279224
 20
272.99999892711639
 30
0.0
 40
6.25
  0
CIRCLE
  5
453C
  8
0
 10
610.99998450279224
 20
272.99999892711639
 30
0.0
 40
6.2500000000002842
  0
LINE
  5
4542
  8
0
 10
959.99998450279202
 20
241.99999943375579
 30
0.0
 11
620.99999785423267
 21
241.99999943375579
 31
0.0
  0
LINE
  5
4545
  8
0
 10
496.99998497962952
 20
303.99999842047691
 30
0.0
 11
600.99998712539673
 21
303.99999842047691
 31
0.0
  0
LINE
  5
4549
  8
0
 10
959.99998450279202
 20
323.99999797344208
 30
0.0
 11
619.99998092651356
 21
323.99999797344208
 31
0.0
  0
LINE
  5
454B
  8
0
 10
619.99998092651356
 20
344.64110136032099
 30
0.0
 11
619.99998092651344
 21
308.3589052547411
 31
0.0
  0
LINE
  5
4554
  8
0
 10
496.99998497962952
 20
221.99999988079071
 30
0.0
 11
601.99997425079334
 21
221.99999988079071
 31
0.0
  0
LINE
  5
455A
  8
0
 10
619.99998092651356
 20
221.99999988079071
 30
0.0
 11
959.99998450279202
 21
221.99999988079071
 31
0.0
  0
LINE
  5
455E
  8
0
 10
600.99998712539673
 20
241.99999943375579
 30
0.0
 11
496.99998497962952
 21
241.99999943375579
 31
0.0
  0
LINE
  5
4561
  8
0
 10
620.99999785423267
 20
303.99999842047691
 30
0.0
 11
959.99998450279202
 21
303.99999842047691
 31
0.0
  0
LINE
  5
4563
  8
0
 10
601.99997425079334
 20
323.99999797344208
 30
0.0
 11
496.99998497962952
 21
323.99999797344208
 31
0.0
  0
LINE
  5
4567
  8
0
 10
496.99998497962952
 20
345.99999785423279
 30
0.0
 11
959.99998450279202
 21
345.99999785423279
 31
0.0
  0
LINE
  5
4587
  8
0
 10
607.49999284744263
 20
339.63250070810318
 30
0.0
 11
607.49999284744263
 21
313.36749419569969
 31
0.0
  0
LINE
  5
458A
  8
0
 10
614.49999213218678
 20
313.36749419569969
 30
0.0
 11
614.49999213218678
 21
339.63250070810318
 31
0.0
  0
LINE
  5
45A0
  8
0
 10
239.9999991059301
 20
521.49999737741007
 30
0.0
 11
240.50000011920909
 21
520.99999822677626
 31
0.0
  0
LINE
  5
45A1
  8
0
 10
240.50000011920909
 20
520.99999822677626
 30
0.0
 11
247.0999982208011
 21
520.99999822677626
 31
0.0
  0
LINE
  5
45A2
  8
0
 10
298.89999777078611
 20
520.99999822677626
 30
0.0
 11
305.49999773502333
 21
520.99999822677626
 31
0.0
  0
LINE
  5
45A3
  8
0
 10
305.49999773502333
 20
520.99999822677626
 30
0.0
 11
305.99999874830218
 21
521.49999737741007
 31
0.0
  0
LINE
  5
45B5
  8
0
 10
240.50000011920929
 20
530.99999800325895
 30
0.0
 11
240.50000011920929
 21
522.99999855460192
 31
0.0
  0
LINE
  5
45CB
  8
0
 10
248.4999995678661
 20
543.9499974250939
 30
0.0
 11
297.49999828636618
 21
543.9499974250939
 31
0.0
  0
LINE
  5
45CD
  8
0
 10
248.4999995678661
 20
543.9499974250939
 30
0.0
 11
247.4999994039533
 21
542.94999912382616
 31
0.0
  0
LINE
  5
45CF
  8
0
 10
247.4999994039533
 20
532.9999983310845
 30
0.0
 11
247.4999994039533
 21
542.94999912382616
 31
0.0
  0
LINE
  5
45D1
  8
0
 10
240.50000011920929
 20
522.99999855460192
 30
0.0
 11
241.49999842047691
 21
521.99999839068914
 31
0.0
  0
LINE
  5
45D2
  8
0
 10
240.50000011920929
 20
530.99999800325895
 30
0.0
 11
241.49999842047691
 21
531.99999630452646
 31
0.0
  0
LINE
  5
45D4
  8
0
 10
241.49999842047691
 20
521.99999839068914
 30
0.0
 11
304.49999943375587
 21
521.99999839068914
 31
0.0
  0
LINE
  5
45D6
  8
0
 10
298.49999845027901
 20
542.94999912382616
 30
0.0
 11
297.49999828636618
 21
543.9499974250939
 31
0.0
  0
LINE
  5
45D8
  8
0
 10
304.49999943375587
 20
531.99999630452646
 30
0.0
 11
305.4999977350235
 21
530.99999800325895
 31
0.0
  0
LINE
  5
45DB
  8
0
 10
298.49999845027901
 20
542.94999912382616
 30
0.0
 11
298.49999845027901
 21
532.9999983310845
 31
0.0
  0
LINE
  5
45DD
  8
0
 10
305.4999977350235
 20
530.99999800325895
 30
0.0
 11
305.4999977350235
 21
522.99999855460192
 31
0.0
  0
LINE
  5
45DF
  8
0
 10
305.4999977350235
 20
522.99999855460192
 30
0.0
 11
304.49999943375587
 21
521.99999839068914
 31
0.0
  0
ARC
  5
45E0
  8
0
 10
298.49999892711941
 20
531.99999785424734
 30
0.0
 40
1.0000000000295011
 50
90.0
 51
0.0000000005211021
  0
ARC
  5
45E1
  8
0
 10
247.49999892711961
 20
531.99999785424734
 30
0.0
 40
1.000000000035612
 50
179.99999999757031
 51
90.0
  0
LINE
  5
45E2
  8
0
 10
239.9999991059301
 20
531.99999630452646
 30
0.0
 11
239.9999991059301
 21
521.49999737741007
 31
0.0
  0
LINE
  5
45E6
  8
0
 10
305.99999874830218
 20
521.49999737741007
 30
0.0
 11
305.99999874830218
 21
531.99999630452646
 31
0.0
  0
LINE
  5
45FB
  8
0
 10
247.0999982208011
 20
516.99999757112516
 30
0.0
 11
247.0999982208011
 21
521.9999983906888
 31
0.0
  0
LINE
  5
45FD
  8
0
 10
247.59999923408009
 20
516.49999842049135
 30
0.0
 11
298.39999862015219
 21
516.49999842049135
 31
0.0
  0
LINE
  5
45FE
  8
0
 10
247.0999982208011
 20
516.99999757112516
 30
0.0
 11
247.59999923408009
 21
516.49999842049135
 31
0.0
  0
LINE
  5
45FF
  8
0
 10
298.89999777078611
 20
521.9999983906888
 30
0.0
 11
298.89999777078611
 21
516.99999757112516
 31
0.0
  0
LINE
  5
4600
  8
0
 10
298.39999862015219
 20
516.49999842049135
 30
0.0
 11
298.89999777078611
 21
516.99999757112516
 31
0.0
  0
LINE
  5
4608
  8
0
 10
345.89999616146059
 20
593.99999529124761
 30
0.0
 11
200.10000169277171
 21
593.99999529124761
 31
0.0
  0
LINE
  5
4609
  8
0
 10
345.89999616146059
 20
544.9999965727477
 30
0.0
 11
345.89999616146059
 21
593.99999529124761
 31
0.0
  0
LINE
  5
460A
  8
0
 10
200.10000169277171
 20
544.9999965727477
 30
0.0
 11
200.10000169277171
 21
593.99999529124761
 31
0.0
  0
LINE
  5
469F
  8
0
 10
201.09999626874921
 20
591.99999868871225
 30
0.0
 11
344.90000158548349
 21
591.99999868871225
 31
0.0
  0
LINE
  5
46A1
  8
0
 10
201.09999626874921
 20
543.99999827147985
 30
0.0
 11
200.10000169277171
 21
544.99999657274736
 31
0.0
  0
LINE
  5
46A4
  8
0
 10
200.10000169277171
 20
590.99999666215444
 30
0.0
 11
201.09999626874921
 21
591.99999868871225
 31
0.0
  0
LINE
  5
46A5
  8
0
 10
344.90000158548349
 20
543.99999827147985
 30
0.0
 11
345.89999616146059
 21
544.99999657274736
 31
0.0
  0
LINE
  5
46A6
  8
0
 10
345.89999616146059
 20
590.99999666215444
 30
0.0
 11
344.90000158548349
 21
591.99999868871225
 31
0.0
  0
LINE
  5
46AD
  8
0
 10
239.4999980926514
 20
531.99999630452646
 30
0.0
 11
246.99999839067459
 21
531.99999630452646
 31
0.0
  0
LINE
  5
46AE
  8
0
 10
239.4999980926514
 20
520.49999721349741
 30
0.0
 11
239.4999980926514
 21
531.99999630452646
 31
0.0
  0
LINE
  5
46AF
  8
0
 10
246.79999873042081
 20
520.49999721349741
 30
0.0
 11
239.4999980926514
 21
520.49999721349741
 31
0.0
  0
LINE
  5
46B0
  8
0
 10
246.79999873042081
 20
515.9999974072125
 30
0.0
 11
246.79999873042081
 21
520.49999721349741
 31
0.0
  0
LINE
  5
46B1
  8
0
 10
299.19999912381149
 20
515.9999974072125
 30
0.0
 11
246.79999873042081
 21
515.9999974072125
 31
0.0
  0
LINE
  5
46B2
  8
0
 10
299.19999912381149
 20
520.49999721349741
 30
0.0
 11
299.19999912381149
 21
515.9999974072125
 31
0.0
  0
LINE
  5
46B3
  8
0
 10
306.49999976158142
 20
520.49999721349741
 30
0.0
 11
299.19999912381149
 21
520.49999721349741
 31
0.0
  0
LINE
  5
46B4
  8
0
 10
306.49999976158142
 20
531.99999630452646
 30
0.0
 11
306.49999976158142
 21
520.49999721349741
 31
0.0
  0
LINE
  5
46B5
  8
0
 10
298.9999994635582
 20
531.99999630452646
 30
0.0
 11
306.49999976158142
 21
531.99999630452646
 31
0.0
  0
LINE
  5
46B6
  8
0
 10
298.9999994635582
 20
543.99999827147985
 30
0.0
 11
298.9999994635582
 21
531.99999630452646
 31
0.0
  0
LINE
  5
46B9
  8
0
 10
345.99999785423279
 20
542.99999624492193
 30
0.0
 11
344.99999582767492
 21
543.99999827147985
 31
0.0
  0
LINE
  5
46BA
  8
0
 10
345.99999785423279
 20
529.49999868871225
 30
0.0
 11
345.99999785423279
 21
542.99999624492193
 31
0.0
  0
LINE
  5
46BB
  8
0
 10
344.99999582767492
 20
528.49999666215444
 30
0.0
 11
345.99999785423279
 21
529.49999868871225
 31
0.0
  0
LINE
  5
46BC
  8
0
 10
338.99999856948853
 20
528.49999666215444
 30
0.0
 11
344.99999582767492
 21
528.49999666215444
 31
0.0
  0
LINE
  5
46BD
  8
0
 10
338.99999856948853
 20
515.49999825657869
 30
0.0
 11
338.99999856948853
 21
528.49999666215444
 31
0.0
  0
LINE
  5
46BE
  8
0
 10
344.99999582767492
 20
515.49999825657869
 30
0.0
 11
338.99999856948853
 21
515.49999825657869
 31
0.0
  0
LINE
  5
46BF
  8
0
 10
345.99999785423279
 20
514.49999809266592
 30
0.0
 11
344.99999582767492
 21
515.49999825657869
 31
0.0
  0
LINE
  5
46C0
  8
0
 10
345.99999785423279
 20
496.99999790174479
 30
0.0
 11
345.99999785423279
 21
514.49999809266592
 31
0.0
  0
LINE
  5
46C1
  8
0
 10
344.99999582767492
 20
495.99999785418998
 30
0.0
 11
345.99999785423279
 21
496.99999790174479
 31
0.0
  0
LINE
  5
46C2
  8
0
 10
324.99999999999977
 20
495.99999785424728
 30
0.0
 11
344.99999582767492
 21
495.99999785424728
 31
0.0
  0
LINE
  5
46C3
  8
0
 10
323.99999797344208
 20
496.99999790174479
 30
0.0
 11
324.99999999999977
 21
495.99999785424728
 31
0.0
  0
LINE
  5
46C4
  8
0
 10
303.99999842047669
 20
496.99999790174479
 30
0.0
 11
323.99999797344208
 21
496.99999790174479
 31
0.0
  0
LINE
  5
46C5
  8
0
 10
302.99999825656391
 20
495.99999785421909
 30
0.0
 11
303.99999842047669
 21
496.99999790174479
 31
0.0
  0
LINE
  5
46C6
  8
0
 10
302.99999825656391
 20
495.99999785424728
 30
0.0
 11
281.99999892711622
 21
495.99999785430612
 31
0.0
  0
LINE
  5
46CB
  8
0
 10
241.99999943375559
 20
496.99999790174479
 30
0.0
 11
242.99999959766839
 21
495.99999785424728
 31
0.0
  0
LINE
  5
46CC
  8
0
 10
221.99999988079071
 20
496.99999790174479
 30
0.0
 11
241.99999943375559
 21
496.99999790174479
 31
0.0
  0
LINE
  5
46CD
  8
0
 10
220.99999785423259
 20
495.99999785424728
 30
0.0
 11
221.99999988079071
 21
496.99999790174479
 31
0.0
  0
LINE
  5
46CE
  8
0
 10
201.00000202655789
 20
495.99999785424728
 30
0.0
 11
220.99999785423259
 21
495.99999785424728
 31
0.0
  0
LINE
  5
46CF
  8
0
 10
200.0
 20
496.99999790174479
 30
0.0
 11
201.00000202655789
 21
495.99999785424728
 31
0.0
  0
LINE
  5
46D0
  8
0
 10
200.0
 20
514.49999809266592
 30
0.0
 11
200.0
 21
496.99999790174479
 31
0.0
  0
LINE
  5
46D1
  8
0
 10
201.00000202655789
 20
515.49999825657869
 30
0.0
 11
200.0
 21
514.49999809266592
 31
0.0
  0
LINE
  5
46D2
  8
0
 10
206.99999928474429
 20
515.49999825657869
 30
0.0
 11
201.00000202655789
 21
515.49999825657869
 31
0.0
  0
LINE
  5
46D3
  8
0
 10
206.99999928474429
 20
528.49999666215444
 30
0.0
 11
206.99999928474429
 21
515.49999825657869
 31
0.0
  0
LINE
  5
46D4
  8
0
 10
201.00000202655789
 20
528.49999666215444
 30
0.0
 11
206.99999928474429
 21
528.49999666215444
 31
0.0
  0
LINE
  5
46D5
  8
0
 10
200.0
 20
529.49999868871225
 30
0.0
 11
201.00000202655789
 21
528.49999666215444
 31
0.0
  0
LINE
  5
46D6
  8
0
 10
200.0
 20
542.99999624492193
 30
0.0
 11
200.0
 21
529.49999868871225
 31
0.0
  0
LINE
  5
46D7
  8
0
 10
201.00000202655789
 20
543.99999827147985
 30
0.0
 11
200.0
 21
542.99999624492193
 31
0.0
  0
LINE
  5
46D8
  8
0
 10
344.99999582767481
 20
543.99999827148008
 30
0.0
 11
201.00000202655789
 21
543.99999827147985
 31
0.0
  0
LINE
  5
46DA
  8
0
 10
246.99999839067459
 20
531.99999630452646
 30
0.0
 11
246.99999839067459
 21
543.99999827147985
 31
0.0
  0
LINE
  5
46DC
  8
0
 10
263.99999931454641
 20
489.49999735505833
 30
0.0
 11
263.99999931454641
 21
500.99999774248857
 31
0.0
  0
LINE
  5
46DD
  8
0
 10
281.99999853968598
 20
500.99999774248857
 30
0.0
 11
281.99999853968598
 21
489.4999973550585
 31
0.0
  0
LINE
  5
46DF
  8
0
 10
276.49999903514959
 20
501.49999782444502
 30
0.0
 11
276.49999903514959
 21
500.99999774248857
 31
0.0
  0
LINE
  5
46E0
  8
0
 10
276.49999903514959
 20
501.49999782444502
 30
0.0
 11
269.49999881908269
 21
501.49999782444502
 31
0.0
  0
LINE
  5
46E1
  8
0
 10
269.49999881908269
 20
500.99999774248857
 30
0.0
 11
269.49999881908269
 21
501.49999782444502
 31
0.0
  0
LINE
  5
5B2F
  8
0
 10
504.07178330421488
 20
766.99999347330595
 30
0.0
 11
507.53588604927108
 21
760.99999248982931
 31
0.0
  0
LINE
  5
5B30
  8
0
 10
507.53588604927108
 20
760.99999248982931
 30
0.0
 11
514.46409153938339
 21
760.99999248982931
 31
0.0
  0
LINE
  5
5B31
  8
0
 10
514.46409153938339
 20
760.99999248982931
 30
0.0
 11
517.92819428443954
 21
766.99999347330595
 31
0.0
  0
LINE
  5
5B32
  8
0
 10
517.92819428443954
 20
766.99999347330595
 30
0.0
 11
514.46409153938339
 21
772.99999445678259
 31
0.0
  0
LINE
  5
5B33
  8
0
 10
514.46409153938339
 20
772.99999445678259
 30
0.0
 11
507.53588604927108
 21
772.99999445678259
 31
0.0
  0
LINE
  5
5B34
  8
0
 10
507.53588604927108
 20
772.99999445678259
 30
0.0
 11
504.07178330421488
 21
766.99999347330595
 31
0.0
  0
CIRCLE
  5
5B35
  8
0
 10
510.9999845027923
 20
766.9999942183631
 30
0.0
 40
10.49999999999997
  0
LINE
  5
5B36
  8
0
 10
504.07178330421488
 20
816.99998847503673
 30
0.0
 11
507.53588604927108
 21
810.99998749156009
 31
0.0
  0
LINE
  5
5B37
  8
0
 10
507.53588604927108
 20
810.99998749156009
 30
0.0
 11
514.46409153938339
 21
810.99998749156009
 31
0.0
  0
LINE
  5
5B38
  8
0
 10
514.46409153938339
 20
810.99998749156009
 30
0.0
 11
517.92819428443954
 21
816.99998847503673
 31
0.0
  0
LINE
  5
5B39
  8
0
 10
517.92819428443954
 20
816.99998847503673
 30
0.0
 11
514.46409153938339
 21
822.99998945851337
 31
0.0
  0
LINE
  5
5B3A
  8
0
 10
514.46409153938339
 20
822.99998945851337
 30
0.0
 11
507.53588604927108
 21
822.99998945851337
 31
0.0
  0
LINE
  5
5B3B
  8
0
 10
507.53588604927108
 20
822.99998945851337
 30
0.0
 11
504.07178330421488
 21
816.99998847503673
 31
0.0
  0
CIRCLE
  5
5B3C
  8
0
 10
510.9999845027923
 20
816.99998922009388
 30
0.0
 40
10.49999999999997
  0
LINE
  5
5B3D
  8
0
 10
536.07178759574936
 20
816.99998847503673
 30
0.0
 11
539.53589034080539
 21
810.99998749156009
 31
0.0
  0
LINE
  5
5B3E
  8
0
 10
539.53589034080539
 20
810.99998749156009
 30
0.0
 11
546.4640958309177
 21
810.99998749156009
 31
0.0
  0
LINE
  5
5B3F
  8
0
 10
546.4640958309177
 20
810.99998749156009
 30
0.0
 11
549.92819857597385
 21
816.99998847503673
 31
0.0
  0
LINE
  5
5B40
  8
0
 10
549.92819857597385
 20
816.99998847503673
 30
0.0
 11
546.4640958309177
 21
822.99998945851337
 31
0.0
  0
LINE
  5
5B41
  8
0
 10
546.4640958309177
 20
822.99998945851337
 30
0.0
 11
539.53589034080539
 21
822.99998945851337
 31
0.0
  0
LINE
  5
5B42
  8
0
 10
539.53589034080539
 20
822.99998945851337
 30
0.0
 11
536.07178759574936
 21
816.99998847503673
 31
0.0
  0
CIRCLE
  5
5B43
  8
0
 10
542.99998879432667
 20
816.99998922009388
 30
0.0
 40
10.49999999999997
  0
LINE
  5
5B44
  8
0
 10
536.07178330421436
 20
866.99999347330595
 30
0.0
 11
539.53588604927063
 21
860.99999248982931
 31
0.0
  0
LINE
  5
5B45
  8
0
 10
539.53588604927063
 20
860.99999248982931
 30
0.0
 11
546.46409153938293
 21
860.99999248982931
 31
0.0
  0
LINE
  5
5B46
  8
0
 10
546.46409153938293
 20
860.99999248982931
 30
0.0
 11
549.92819428443897
 21
866.99999347330595
 31
0.0
  0
LINE
  5
5B47
  8
0
 10
549.92819428443897
 20
866.99999347330595
 30
0.0
 11
546.46409153938293
 21
872.99999445678259
 31
0.0
  0
LINE
  5
5B48
  8
0
 10
546.46409153938293
 20
872.99999445678259
 30
0.0
 11
539.53588604927063
 21
872.99999445678259
 31
0.0
  0
LINE
  5
5B49
  8
0
 10
539.53588604927063
 20
872.99999445678259
 30
0.0
 11
536.07178330421436
 21
866.99999347330595
 31
0.0
  0
CIRCLE
  5
5B4A
  8
0
 10
542.9999845027919
 20
866.9999942183631
 30
0.0
 40
10.49999999999997
  0
LINE
  5
5B4B
  8
0
 10
504.07178330421488
 20
866.99999347330595
 30
0.0
 11
507.53588604927108
 21
860.99999248982931
 31
0.0
  0
LINE
  5
5B4C
  8
0
 10
507.53588604927108
 20
860.99999248982931
 30
0.0
 11
514.46409153938339
 21
860.99999248982931
 31
0.0
  0
LINE
  5
5B4D
  8
0
 10
514.46409153938339
 20
860.99999248982931
 30
0.0
 11
517.92819428443954
 21
866.99999347330595
 31
0.0
  0
LINE
  5
5B4E
  8
0
 10
517.92819428443954
 20
866.99999347330595
 30
0.0
 11
514.46409153938339
 21
872.99999445678259
 31
0.0
  0
LINE
  5
5B4F
  8
0
 10
514.46409153938339
 20
872.99999445678259
 30
0.0
 11
507.53588604927108
 21
872.99999445678259
 31
0.0
  0
LINE
  5
5B50
  8
0
 10
507.53588604927108
 20
872.99999445678259
 30
0.0
 11
504.07178330421488
 21
866.99999347330595
 31
0.0
  0
CIRCLE
  5
5B51
  8
0
 10
510.9999845027923
 20
866.9999942183631
 30
0.0
 40
10.49999999999997
  0
LINE
  5
5B52
  8
0
 10
830.99999129772175
 20
744.09999698401953
 30
0.0
 11
914.99998271465302
 21
744.09999698401953
 31
0.0
  0
LINE
  5
5B5A
  8
0
 10
915.99998474121094
 20
888.89999687673105
 30
0.0
 11
914.99998271465302
 21
889.89999145270849
 31
0.0
  0
LINE
  5
5B5B
  8
0
 10
901.46629363298405
 20
889.89999145270849
 30
0.0
 11
900.99998414516438
 21
888.89999687673105
 31
0.0
  0
LINE
  5
5B5C
  8
0
 10
840.99998176097859
 20
888.89999687673105
 30
0.0
 11
841.36395752429962
 21
889.89999145270849
 31
0.0
  0
LINE
  5
5B5D
  8
0
 10
580.99997639656056
 20
889.89999145270849
 30
0.0
 11
496.99998497962952
 21
889.89999145270849
 31
0.0
  0
LINE
  5
5B5E
  8
0
 10
570.91993689537037
 20
889.11993801595224
 30
0.0
 11
570.74520587921143
 21
889.59999382497335
 31
0.0
  0
LINE
  5
5B5F
  8
0
 10
570.74520587921143
 20
889.59999382497335
 30
0.0
 11
570.31676769256592
 21
889.89999145270849
 31
0.0
  0
LINE
  5
5B60
  8
0
 10
495.99999785423267
 20
888.89999687673105
 30
0.0
 11
496.99998497962952
 21
889.89999145270849
 31
0.0
  0
LINE
  5
5B61
  8
0
 10
959.99998450279202
 20
889.9999931454804
 30
0.0
 11
496.99998497962952
 21
889.9999931454804
 31
0.0
  0
LINE
  5
5B62
  8
0
 10
496.99998497962952
 20
889.9999931454804
 30
0.0
 11
496.99998497962952
 21
889.89999145270849
 31
0.0
  0
LINE
  5
5B63
  8
0
 10
830.99999129772175
 20
889.89999145270849
 30
0.0
 11
914.99998271465302
 21
889.89999145270849
 31
0.0
  0
LINE
  5
5BB1
  8
0
 10
906.49998411536205
 20
790.49999453128839
 30
0.0
 11
901.99998617172241
 21
790.49999453128794
 31
0.0
  0
LINE
  5
5BB2
  8
0
 10
906.49998411536205
 20
789.99999351800943
 30
0.0
 11
906.49998411536205
 21
790.49999453128839
 31
0.0
  0
LINE
  5
5BB3
  8
0
 10
958.49998448975339
 20
791.09999537469355
 30
0.0
 11
959.99998450279202
 21
791.09999537469355
 31
0.0
  0
LINE
  5
5BB4
  8
0
 10
960.49998452654074
 20
791.59999638797262
 30
0.0
 11
959.99998450279202
 21
791.09999537469355
 31
0.0
  0
LINE
  5
5BB6
  8
0
 10
959.99998450279202
 20
789.99999351800943
 30
0.0
 11
900.99998414516438
 21
789.99999351800943
 31
0.0
  0
LINE
  5
5BB8
  8
0
 10
959.99998450278406
 20
743.99999529124761
 30
0.0
 11
959.99998450279213
 21
791.09999537469355
 31
0.0
  0
LINE
  5
5BB9
  8
1
 10
1042.999985322356
 20
816.99999421836401
 30
0.0
 11
475.99999785423267
 21
816.99999421836401
 31
0.0
  0
LINE
  5
5F2D
  8
0
 10
1001.499986842274
 20
833.49999513707201
 30
0.0
 11
1002.999986156821
 21
831.99999456512012
 31
0.0
  0
LINE
  5
5F2E
  8
0
 10
1002.999986156821
 20
801.99999475588834
 30
0.0
 11
1001.499986842274
 21
800.49999329965635
 31
0.0
  0
LINE
  5
5F2F
  8
0
 10
1001.499986842274
 20
800.49999329965635
 30
0.0
 11
998.99998550116959
 21
800.49999329965635
 31
0.0
  0
LINE
  5
5F30
  8
0
 10
998.99998550116959
 20
833.49999513707201
 30
0.0
 11
1001.499986842274
 21
833.49999513707201
 31
0.0
  0
ARC
  5
5F31
  8
0
 10
998.59998532235579
 20
831.39999459394517
 30
0.0
 40
0.3999999999999204
 50
270.0
 51
0.0
  0
ARC
  5
5F32
  8
0
 10
998.59998532235579
 20
802.59999459394487
 30
0.0
 40
0.4000000000000626
 50
0.0000000000260551
 51
90.0
  0
LINE
  5
5F33
  8
0
 10
998.59998618066265
 20
802.99999484242858
 30
0.0
 11
960.49998452654052
 21
802.99999484242858
 31
0.0
  0
LINE
  5
5F34
  8
0
 10
960.49998452654052
 20
830.99999359429899
 30
0.0
 11
998.59998618066254
 21
830.99999359429899
 31
0.0
  0
ARC
  5
5F35
  8
0
 10
1020.298279400184
 20
806.99999459394553
 30
0.0
 40
2.7017059221718389
 50
338.26051268787819
 51
0.0
  0
ARC
  5
5F36
  8
0
 10
1020.298279400184
 20
826.99999459394553
 30
0.0
 40
2.7017059221718389
 50
0.0
 51
21.72402599247263
  0
LINE
  5
5F37
  8
3
 10
960.49998452654052
 20
828.24999575796824
 30
0.0
 11
985.5848449356846
 21
828.24999575796767
 31
0.0
  0
LINE
  5
5F38
  8
3
 10
985.58484493568483
 20
805.74999590104403
 30
0.0
 11
960.49998452654052
 21
805.74999590104346
 31
0.0
  0
LINE
  5
5F39
  8
0
 10
1002.999986156821
 20
831.99999456512012
 30
0.0
 11
1002.999986156821
 21
801.99999475588834
 31
0.0
  0
LINE
  5
5F3A
  8
0
 10
1001.499986842274
 20
833.49999513707201
 30
0.0
 11
1001.499986842274
 21
800.49999329965635
 31
0.0
  0
LINE
  5
5F3B
  8
0
 10
998.99998550116959
 20
833.49999513707201
 30
0.0
 11
998.99998550116959
 21
800.49999329965635
 31
0.0
  0
LINE
  5
5F3C
  8
0
 10
1022.999985322355
 20
826.99999459394553
 30
0.0
 11
1022.999985322355
 21
806.99999459394553
 31
0.0
  0
LINE
  5
5F3D
  8
0
 10
1021.793844744562
 20
817.83128130855607
 30
0.0
 11
1021.793844744562
 21
816.16870797924105
 31
0.0
  0
POLYLINE
  5
5F3E
  8
0
 66
     1
 10
0.0
 20
0.0
 30
0.0
 70
   128
  0
VERTEX
  5
8C17
  8
0
 10
1021.793844744562
 20
816.16870797924105
 30
0.0
  0
VERTEX
  5
8C18
  8
0
 10
1022.353409424423
 20
815.08650613279599
 30
0.0
  0
VERTEX
  5
8C19
  8
0
 10
1022.731135234236
 20
813.3090187814289
 30
0.0
  0
VERTEX
  5
8C1A
  8
0
 10
1022.808103457093
 20
811.49325804468424
 30
0.0
  0
VERTEX
  5
8C1B
  8
0
 10
1022.707829818129
 20
809.41193372447208
 30
0.0
  0
VERTEX
  5
8C1C
  8
0
 10
1022.1466818898911
 20
807.41116210104906
 30
0.0
  0
VERTEX
  5
8C1D
  8
0
 10
1021.793844744562
 20
806.83128139011399
 30
0.0
  0
SEQEND
  5
8C1E
  8
0
  0
LINE
  5
5F3F
  8
0
 10
1021.793844744562
 20
805.9999947652924
 30
0.0
 11
1021.793844744562
 21
806.83128139011399
 31
0.0
  0
LINE
  5
5F40
  8
0
 10
1021.793844744562
 20
827.16870743231198
 30
0.0
 11
1021.793844744562
 21
827.99999413680803
 31
0.0
  0
POLYLINE
  5
5F41
  8
0
 66
     1
 10
0.0
 20
0.0
 30
0.0
 70
   128
  0
VERTEX
  5
8C1F
  8
0
 10
1021.793844744562
 20
827.16870743231198
 30
0.0
  0
VERTEX
  5
8C20
  8
0
 10
1022.353409424423
 20
826.08650555849658
 30
0.0
  0
VERTEX
  5
8C21
  8
0
 10
1022.7187523692839
 20
824.32581722227155
 30
0.0
  0
VERTEX
  5
8C22
  8
0
 10
1022.808103457093
 20
822.49325787843838
 30
0.0
  0
VERTEX
  5
8C23
  8
0
 10
1022.692749843001
 20
820.45215860712074
 30
0.0
  0
VERTEX
  5
8C24
  8
0
 10
1022.1466818898911
 20
818.41116289530896
 30
0.0
  0
VERTEX
  5
8C25
  8
0
 10
1021.793844744562
 20
817.83128130855607
 30
0.0
  0
SEQEND
  5
8C26
  8
0
  0
LINE
  5
5F42
  8
0
 10
1002.999986156821
 20
827.16870743231198
 30
0.0
 11
1021.793844744562
 21
827.16870743231198
 31
0.0
  0
LINE
  5
5F43
  8
0
 10
1021.793844744562
 20
817.83128130855607
 30
0.0
 11
1002.999986156821
 21
817.83128130855607
 31
0.0
  0
LINE
  5
5F44
  8
0
 10
1002.999986156821
 20
816.16870797924105
 30
0.0
 11
1021.793844744562
 21
816.16870797924105
 31
0.0
  0
LINE
  5
5F45
  8
0
 10
1021.793844744562
 20
806.83128139011399
 30
0.0
 11
1002.999986156821
 21
806.83128139011399
 31
0.0
  0
LINE
  5
5F46
  8
0
 10
1022.808103259376
 20
827.99999413680803
 30
0.0
 11
1002.999986156821
 21
827.99999413680803
 31
0.0
  0
LINE
  5
5F47
  8
0
 10
1002.999986156821
 20
805.9999947652924
 30
0.0
 11
1022.808103145508
 21
805.99999476529285
 31
0.0
  0
LINE
  5
5F48
  8
0
 10
985.5848449356846
 20
830.99999359429933
 30
0.0
 11
985.5848449356846
 21
802.99999484242858
 31
0.0
  0
LINE
  5
5F49
  8
3
 10
985.58484493568483
 20
805.74999590104403
 30
0.0
 11
990.34798649007405
 21
802.99999484242858
 31
0.0
  0
LINE
  5
5F4A
  8
3
 10
985.58484493568483
 20
828.24999575796767
 30
0.0
 11
990.34798090891502
 21
830.99999359429899
 31
0.0
  0
LINE
  5
603E
  8
1
 10
710.99998450279224
 20
835.49999421836401
 30
0.0
 11
710.99998450279224
 21
798.49999421836401
 31
0.0
  0
LINE
  5
603F
  8
1
 10
610.99998450279224
 20
835.49999421836401
 30
0.0
 11
610.99998450279224
 21
798.49999421836401
 31
0.0
  0
LINE
  5
608F
  8
1
 10
510.9999845027923
 20
882.49999421836299
 30
0.0
 11
510.9999845027923
 21
851.4999942183631
 31
0.0
  0
LINE
  5
6090
  8
1
 10
542.9999845027919
 20
882.49999421836299
 30
0.0
 11
542.9999845027919
 21
851.4999942183631
 31
0.0
  0
LINE
  5
6091
  8
1
 10
495.49998450279242
 20
866.9999942183631
 30
0.0
 11
526.49998450279224
 21
866.9999942183631
 31
0.0
  0
LINE
  5
6092
  8
1
 10
527.49998450279179
 20
866.9999942183631
 30
0.0
 11
558.4999845027919
 21
866.9999942183631
 31
0.0
  0
LINE
  5
6093
  8
1
 10
510.9999845027923
 20
782.4999942183631
 30
0.0
 11
510.9999845027923
 21
751.4999942183631
 31
0.0
  0
LINE
  5
6094
  8
1
 10
542.9999845027919
 20
782.4999942183631
 30
0.0
 11
542.9999845027919
 21
751.4999942183631
 31
0.0
  0
LINE
  5
6095
  8
1
 10
495.49998450279242
 20
766.9999942183631
 30
0.0
 11
526.49998450279224
 21
766.9999942183631
 31
0.0
  0
LINE
  5
6096
  8
1
 10
527.49998450279179
 20
766.9999942183631
 30
0.0
 11
558.4999845027919
 21
766.9999942183631
 31
0.0
  0
LINE
  5
6097
  8
1
 10
510.99998450279219
 20
832.4999942183639
 30
0.0
 11
510.99998450279219
 21
801.49999421836401
 31
0.0
  0
LINE
  5
6098
  8
1
 10
542.99998450279179
 20
832.4999942183639
 30
0.0
 11
542.99998450279179
 21
801.49999421836401
 31
0.0
  0
LINE
  5
6184
  8
0
 10
520.99997401237476
 20
548.99999722839846
 30
0.0
 11
532.99999833106995
 21
548.99999722839846
 31
0.0
  0
LINE
  5
61D5
  8
2
 10
496.99998497962952
 20
515.99999785420891
 30
0.0
 11
959.99998450279202
 21
515.99999785424734
 31
0.0
  0
LINE
  5
61D9
  8
0
 10
1001.499987035989
 20
552.49999895010774
 30
0.0
 11
998.9999856948848
 21
552.49999895010774
 31
0.0
  0
LINE
  5
61DA
  8
0
 10
998.9999856948848
 20
585.49999461261916
 30
0.0
 11
1001.499987035989
 21
585.49999461261916
 31
0.0
  0
LINE
  5
61DB
  8
0
 10
1001.499987035989
 20
585.49999461261916
 30
0.0
 11
1002.999986350536
 21
583.99999683210467
 31
0.0
  0
LINE
  5
61DC
  8
0
 10
1002.999986350536
 20
553.99999673062234
 30
0.0
 11
1001.499987035989
 21
552.49999895010774
 31
0.0
  0
ARC
  5
61DD
  8
0
 10
1020.298274379072
 20
558.99999900912212
 30
0.0
 40
2.7017111369984179
 50
303.61187715589489
 51
359.9999740863492
  0
ARC
  5
61DE
  8
0
 10
1020.298281298608
 20
578.99999818984645
 30
0.0
 40
2.7017042174619772
 50
359.9999914608826
 51
56.388201508179613
  0
LINE
  5
61DF
  8
0
 10
1021.793844938278
 20
556.74999639351904
 30
0.0
 11
1002.999986350536
 21
556.74999639351904
 31
0.0
  0
LINE
  5
61E0
  8
0
 10
1002.999986350536
 20
581.24999709614644
 30
0.0
 11
1021.793844938278
 21
581.24999709614644
 31
0.0
  0
LINE
  5
61E1
  8
0
 10
998.9999856948848
 20
585.49999461261916
 30
0.0
 11
998.9999856948848
 21
552.49999895010819
 31
0.0
  0
LINE
  5
61E2
  8
0
 10
1001.499987035989
 20
585.49999461261916
 30
0.0
 11
1001.499987035989
 21
552.49999895010819
 31
0.0
  0
LINE
  5
61E3
  8
0
 10
1002.999986350536
 20
583.99999683210467
 30
0.0
 11
1002.999986350536
 21
553.99999673062234
 31
0.0
  0
LINE
  5
61E4
  8
0
 10
1022.999985516071
 20
578.99999785697776
 30
0.0
 11
1022.999985516071
 21
558.99999778719598
 31
0.0
  0
LINE
  5
61E5
  8
0
 10
1021.793844938278
 20
581.24999709614644
 30
0.0
 11
1021.793844938278
 21
581.22176305832295
 31
0.0
  0
POLYLINE
  5
61E6
  8
0
 66
     1
 10
0.0
 20
0.0
 30
0.0
 70
   128
  0
VERTEX
  5
8C27
  8
0
 10
1021.793844938278
 20
581.22176305832295
 30
0.0
  0
VERTEX
  5
8C28
  8
0
 10
1022.353409618139
 20
580.59694955546286
 30
0.0
  0
VERTEX
  5
8C29
  8
0
 10
1022.718752562999
 20
579.58041939758573
 30
0.0
  0
VERTEX
  5
8C2A
  8
0
 10
1022.808103650808
 20
578.52238694392065
 30
0.0
  0
VERTEX
  5
8C2B
  8
0
 10
1022.692750036716
 20
577.34396070834487
 30
0.0
  0
VERTEX
  5
8C2C
  8
0
 10
1022.146682083606
 20
576.16558686362907
 30
0.0
  0
VERTEX
  5
8C2D
  8
0
 10
1021.793844938278
 20
575.83079135331923
 30
0.0
  0
SEQEND
  5
8C2E
  8
0
  0
LINE
  5
61E7
  8
0
 10
1021.793844938278
 20
574.39096334808642
 30
0.0
 11
1021.793844938278
 21
575.83079135331923
 31
0.0
  0
POLYLINE
  5
61E8
  8
0
 66
     1
 10
0.0
 20
0.0
 30
0.0
 70
   128
  0
VERTEX
  5
8C2F
  8
0
 10
1021.793844938278
 20
574.39096334808642
 30
0.0
  0
VERTEX
  5
8C30
  8
0
 10
1022.353409618139
 20
573.14134573077365
 30
0.0
  0
VERTEX
  5
8C31
  8
0
 10
1022.718752562999
 20
571.10827431353414
 30
0.0
  0
VERTEX
  5
8C32
  8
0
 10
1022.808103650808
 20
568.99222088714498
 30
0.0
  0
VERTEX
  5
8C33
  8
0
 10
1022.692750036716
 20
566.63536111030521
 30
0.0
  0
VERTEX
  5
8C34
  8
0
 10
1022.146682083606
 20
564.2786191371008
 30
0.0
  0
VERTEX
  5
8C35
  8
0
 10
1021.793844938278
 20
563.60903154937955
 30
0.0
  0
SEQEND
  5
8C36
  8
0
  0
LINE
  5
61E9
  8
0
 10
1021.793844938278
 20
562.16920414537003
 30
0.0
 11
1021.793844938278
 21
563.60903154937955
 31
0.0
  0
POLYLINE
  5
61EA
  8
0
 66
     1
 10
0.0
 20
0.0
 30
0.0
 70
   128
  0
VERTEX
  5
8C37
  8
0
 10
1021.793844938278
 20
562.16920414537003
 30
0.0
  0
VERTEX
  5
8C38
  8
0
 10
1022.353409618139
 20
561.54439310279952
 30
0.0
  0
VERTEX
  5
8C39
  8
0
 10
1022.718752562999
 20
560.52785877155316
 30
0.0
  0
VERTEX
  5
8C3A
  8
0
 10
1022.808103650808
 20
559.46983101683804
 30
0.0
  0
VERTEX
  5
8C3B
  8
0
 10
1022.692750036716
 20
558.29140073870906
 30
0.0
  0
VERTEX
  5
8C3C
  8
0
 10
1022.146682083606
 20
557.11302898177314
 30
0.0
  0
VERTEX
  5
8C3D
  8
0
 10
1021.793844938278
 20
556.77823690436185
 30
0.0
  0
SEQEND
  5
8C3E
  8
0
  0
LINE
  5
61EB
  8
0
 10
1021.793844938278
 20
556.74999639351904
 30
0.0
 11
1021.793844938278
 21
556.77823690436185
 31
0.0
  0
LINE
  5
61EC
  8
0
 10
1002.999986350536
 20
574.39096334808642
 30
0.0
 11
1021.793844938278
 21
574.39096334808642
 31
0.0
  0
LINE
  5
61ED
  8
0
 10
1021.793844938278
 20
563.60903154937955
 30
0.0
 11
1002.999986350536
 21
563.60903154937955
 31
0.0
  0
LINE
  5
61EE
  8
0
 10
1021.793844938278
 20
575.83079135331923
 30
0.0
 11
1002.999986350536
 21
575.83079135331923
 31
0.0
  0
LINE
  5
61EF
  8
0
 10
1002.999986350536
 20
562.16920414537003
 30
0.0
 11
1021.793844938278
 21
562.16920414537003
 31
0.0
  0
LINE
  5
61F0
  8
0
 10
1021.793844938278
 20
556.77823690436185
 30
0.0
 11
1002.999986350536
 21
556.77823690436185
 31
0.0
  0
LINE
  5
61F1
  8
0
 10
1002.999986350536
 20
581.22176305832295
 30
0.0
 11
1021.793844938278
 21
581.22176305832295
 31
0.0
  0
ARC
  5
61F2
  8
0
 10
998.59998532235568
 20
583.39999717880357
 30
0.0
 40
0.3999999999999204
 50
270.0
 51
0.0
  0
ARC
  5
61F3
  8
0
 10
998.59998532235568
 20
554.59999717880339
 30
0.0
 40
0.4000000000000626
 50
0.0000000000260551
 51
90.0
  0
LINE
  5
61F4
  8
0
 10
998.59998618066265
 20
554.99999740542796
 30
0.0
 11
960.49998452654074
 21
554.99999740542796
 31
0.0
  0
LINE
  5
61F5
  8
0
 10
960.49998452654074
 20
582.99999615729826
 30
0.0
 11
998.59998618066231
 21
582.99999615729837
 31
0.0
  0
LINE
  5
61F6
  8
3
 10
960.49998452654074
 20
580.24999832096785
 30
0.0
 11
985.58484493568449
 21
580.24999832096717
 31
0.0
  0
LINE
  5
61F7
  8
3
 10
985.5848449356846
 20
557.74999846404353
 30
0.0
 11
960.49998452654074
 21
557.74999846404353
 31
0.0
  0
LINE
  5
61F8
  8
0
 10
985.58484493568449
 20
582.99999615729894
 30
0.0
 11
985.5848449356846
 21
554.99999740542796
 31
0.0
  0
LINE
  5
61F9
  8
3
 10
985.5848449356846
 20
557.74999846404353
 30
0.0
 11
990.34798649007405
 21
554.99999740542796
 31
0.0
  0
LINE
  5
61FA
  8
3
 10
985.5848449356846
 20
580.24999832096717
 30
0.0
 11
990.34798090891479
 21
582.99999615729837
 31
0.0
  0
LINE
  5
61FB
  8
1
 10
955.49998452654063
 20
568.99999678136373
 30
0.0
 11
1042.999985322356
 21
568.99999678136373
 31
0.0
  0
LINE
  5
61FD
  8
1
 10
710.99998503923439
 20
520.99999785422665
 30
0.0
 11
710.99998503923405
 21
490.99999785422642
 31
0.0
  0
LINE
  5
61FE
  8
1
 10
610.99998503923416
 20
520.99999785421835
 30
0.0
 11
610.99998503923416
 21
483.99999774248857
 31
0.0
  0
LINE
  5
61FF
  8
1
 10
860.99998503923405
 20
520.99999785423893
 30
0.0
 11
860.99998503923405
 21
490.99999785423893
 31
0.0
  0
LINE
  5
6245
  8
1
 10
556.99998450279224
 20
512.99999785424734
 30
0.0
 11
556.99998450279224
 21
530.99999785424734
 31
0.0
  0
LINE
  5
6246
  8
1
 10
547.99998450279224
 20
521.99999785424734
 30
0.0
 11
565.99998450279236
 21
521.99999785424734
 31
0.0
  0
LINE
  5
6247
  8
1
 10
899.99998450279224
 20
512.99999785424734
 30
0.0
 11
899.99998450279224
 21
530.99999785424734
 31
0.0
  0
LINE
  5
6248
  8
1
 10
890.99998450279236
 20
521.99999785424734
 30
0.0
 11
908.99998450279224
 21
521.99999785424734
 31
0.0
  0
LINE
  5
624B
  8
1
 10
526.99998450279224
 20
556.99999785424825
 30
0.0
 11
526.99998450279224
 21
578.99999785424825
 31
0.0
  0
LINE
  5
624C
  8
1
 10
515.99998450279236
 20
567.99999785424825
 30
0.0
 11
537.99998450279224
 21
567.99999785424825
 31
0.0
  0
LINE
  5
624E
  8
1
 10
526.99998617172241
 20
533.99999931456114
 30
0.0
 11
526.99998617172241
 21
553.99999722839846
 31
0.0
  0
LINE
  5
62AD
  8
0
 10
1213.9999829232679
 20
520.99999822677523
 30
0.0
 11
1213.24998512864
 21
520.99999822677523
 31
0.0
  0
LINE
  5
62AE
  8
0
 10
1213.24998512864
 20
520.99999822677523
 30
0.0
 11
1212.749984115361
 21
521.49999737740904
 31
0.0
  0
LINE
  5
62AF
  8
0
 10
1213.9999829232679
 20
520.49999721349616
 30
0.0
 11
1213.9999829232679
 21
521.19999788702864
 31
0.0
  0
LINE
  5
62B0
  8
0
 10
1271.9999849796291
 20
591.49999767543216
 30
0.0
 11
1219.999983906745
 21
591.49999767543216
 31
0.0
  0
ARC
  5
62B1
  8
0
 10
1219.999984443187
 20
590.4999978542462
 30
0.0
 40
1.000000000000085
 50
90.0
 51
180.0
  0
ARC
  5
62B2
  8
0
 10
1271.999984443187
 20
590.4999978542462
 30
0.0
 40
1.000000000000085
 50
0.0
 51
90.0
  0
LINE
  5
62B3
  8
0
 10
1173.0999872088421
 20
593.99999529124636
 30
0.0
 11
1318.8999816775311
 21
593.99999529124636
 31
0.0
  0
CIRCLE
  5
62B4
  8
0
 10
1245.99998613756
 20
568.99999785424711
 30
0.0
 40
16.50000000000011
  0
LINE
  5
62B5
  8
0
 10
1213.474873453378
 20
529.68529462815673
 30
0.0
 11
1220.0999855995169
 21
529.68529462815707
 31
0.0
  0
POLYLINE
  5
62B6
  8
0
 10
1213.4748718630919
 20
529.68529467639564
 30
0.0
 66
     1
 70
     8
  0
VERTEX
  8
0
  5
8D53
 10
1213.47
 20
529.685
 30
0.000000
  70
    32
  0
VERTEX
  8
0
  5
8D54
 10
1213.47
 20
529.683
 30
0.000000
  70
    32
  0
VERTEX
  8
0
  5
8D55
 10
1213.47
 20
529.682
 30
0.000000
  70
    32
  0
VERTEX
  8
0
  5
8D56
 10
1213.47
 20
529.680
 30
0.000000
  70
    32
  0
VERTEX
  8
0
  5
8D57
 10
1213.47
 20
529.678
 30
0.000000
  70
    32
  0
VERTEX
  8
0
  5
8D58
 10
1213.47
 20
529.676
 30
0.000000
  70
    32
  0
VERTEX
  8
0
  5
8D59
 10
1213.46
 20
529.674
 30
0.000000
  70
    32
  0
VERTEX
  8
0
  5
8D5A
 10
1213.46
 20
529.672
 30
0.000000
  70
    32
  0
VERTEX
  8
0
  5
8D5B
 10
1213.46
 20
529.670
 30
0.000000
  70
    32
  0
VERTEX
  8
0
  5
8D5C
 10
1213.46
 20
529.669
 30
0.000000
  70
    32
  0
VERTEX
  8
0
  5
8D5D
 10
1213.46
 20
529.667
 30
0.000000
  70
    32
  0
VERTEX
  8
0
  5
8D5E
 10
1213.46
 20
529.665
 30
0.000000
  70
    32
  0
VERTEX
  8
0
  5
8D5F
 10
1213.45
 20
529.663
 30
0.000000
  70
    32
  0
VERTEX
  8
0
  5
8D60
 10
1213.45
 20
529.661
 30
0.000000
  70
    32
  0
VERTEX
  8
0
  5
8D61
 10
1213.45
 20
529.659
 30
0.000000
  70
    32
  0
VERTEX
  8
0
  5
8D62
 10
1213.45
 20
529.658
 30
0.000000
  70
    32
  0
VERTEX
  8
0
  5
8D63
 10
1213.45
 20
529.656
 30
0.000000
  70
    32
  0
VERTEX
  8
0
  5
8D64
 10
1213.45
 20
529.654
 30
0.000000
  70
    32
  0
VERTEX
  8
0
  5
8D65
 10
1213.44
 20
529.652
 30
0.000000
  70
    32
  0
VERTEX
  8
0
  5
8D66
 10
1213.44
 20
529.650
 30
0.000000
  70
    32
  0
VERTEX
  8
0
  5
8D67
 10
1213.44
 20
529.648
 30
0.000000
  70
    32
  0
VERTEX
  8
0
  5
8D68
 10
1213.44
 20
529.646
 30
0.000000
  70
    32
  0
VERTEX
  8
0
  5
8D69
 10
1213.44
 20
529.645
 30
0.000000
  70
    32
  0
VERTEX
  8
0
  5
8D6A
 10
1213.43
 20
529.643
 30
0.000000
  70
    32
  0
VERTEX
  8
0
  5
8D6B
 10
1213.43
 20
529.641
 30
0.000000
  70
    32
  0
VERTEX
  8
0
  5
8D6C
 10
1213.43
 20
529.639
 30
0.000000
  70
    32
  0
VERTEX
  8
0
  5
8D6D
 10
1213.43
 20
529.637
 30
0.000000
  70
    32
  0
VERTEX
  8
0
  5
8D6E
 10
1213.43
 20
529.635
 30
0.000000
  70
    32
  0
VERTEX
  8
0
  5
8D6F
 10
1213.43
 20
529.633
 30
0.000000
  70
    32
  0
VERTEX
  8
0
  5
8D70
 10
1213.42
 20
529.632
 30
0.000000
  70
    32
  0
VERTEX
  8
0
  5
8D71
 10
1213.42
 20
529.630
 30
0.000000
  70
    32
  0
VERTEX
  8
0
  5
8D72
 10
1213.42
 20
529.628
 30
0.000000
  70
    32
  0
VERTEX
  8
0
  5
8D73
 10
1213.42
 20
529.626
 30
0.000000
  70
    32
  0
VERTEX
  8
0
  5
8D74
 10
1213.42
 20
529.624
 30
0.000000
  70
    32
  0
VERTEX
  8
0
  5
8D75
 10
1213.42
 20
529.622
 30
0.000000
  70
    32
  0
VERTEX
  8
0
  5
8D76
 10
1213.41
 20
529.620
 30
0.000000
  70
    32
  0
VERTEX
  8
0
  5
8D77
 10
1213.41
 20
529.619
 30
0.000000
  70
    32
  0
VERTEX
  8
0
  5
8D78
 10
1213.41
 20
529.617
 30
0.000000
  70
    32
  0
VERTEX
  8
0
  5
8D79
 10
1213.41
 20
529.615
 30
0.000000
  70
    32
  0
VERTEX
  8
0
  5
8D7A
 10
1213.41
 20
529.613
 30
0.000000
  70
    32
  0
VERTEX
  8
0
  5
8D7B
 10
1213.40
 20
529.611
 30
0.000000
  70
    32
  0
VERTEX
  8
0
  5
8D7C
 10
1213.40
 20
529.609
 30
0.000000
  70
    32
  0
VERTEX
  8
0
  5
8D7D
 10
1213.40
 20
529.607
 30
0.000000
  70
    32
  0
VERTEX
  8
0
  5
8D7E
 10
1213.40
 20
529.606
 30
0.000000
  70
    32
  0
VERTEX
  8
0
  5
8D7F
 10
1213.40
 20
529.604
 30
0.000000
  70
    32
  0
VERTEX
  8
0
  5
8D80
 10
1213.40
 20
529.602
 30
0.000000
  70
    32
  0
VERTEX
  8
0
  5
8D81
 10
1213.39
 20
529.600
 30
0.000000
  70
    32
  0
VERTEX
  8
0
  5
8D82
 10
1213.39
 20
529.598
 30
0.000000
  70
    32
  0
VERTEX
  8
0
  5
8D83
 10
1213.39
 20
529.596
 30
0.000000
  70
    32
  0
VERTEX
  8
0
  5
8D84
 10
1213.39
 20
529.594
 30
0.000000
  70
    32
  0
VERTEX
  8
0
  5
8D85
 10
1213.39
 20
529.593
 30
0.000000
  70
    32
  0
VERTEX
  8
0
  5
8D86
 10
1213.39
 20
529.591
 30
0.000000
  70
    32
  0
VERTEX
  8
0
  5
8D87
 10
1213.38
 20
529.589
 30
0.000000
  70
    32
  0
VERTEX
  8
0
  5
8D88
 10
1213.38
 20
529.587
 30
0.000000
  70
    32
  0
VERTEX
  8
0
  5
8D89
 10
1213.38
 20
529.585
 30
0.000000
  70
    32
  0
VERTEX
  8
0
  5
8D8A
 10
1213.38
 20
529.583
 30
0.000000
  70
    32
  0
VERTEX
  8
0
  5
8D8B
 10
1213.38
 20
529.582
 30
0.000000
  70
    32
  0
VERTEX
  8
0
  5
8D8C
 10
1213.38
 20
529.580
 30
0.000000
  70
    32
  0
VERTEX
  8
0
  5
8D8D
 10
1213.37
 20
529.578
 30
0.000000
  70
    32
  0
VERTEX
  8
0
  5
8D8E
 10
1213.37
 20
529.576
 30
0.000000
  70
    32
  0
VERTEX
  8
0
  5
8D8F
 10
1213.37
 20
529.574
 30
0.000000
  70
    32
  0
VERTEX
  8
0
  5
8D90
 10
1213.37
 20
529.572
 30
0.000000
  70
    32
  0
VERTEX
  8
0
  5
8D91
 10
1213.37
 20
529.570
 30
0.000000
  70
    32
  0
VERTEX
  8
0
  5
8D92
 10
1213.36
 20
529.569
 30
0.000000
  70
    32
  0
VERTEX
  8
0
  5
8D93
 10
1213.36
 20
529.567
 30
0.000000
  70
    32
  0
VERTEX
  8
0
  5
8D94
 10
1213.36
 20
529.565
 30
0.000000
  70
    32
  0
VERTEX
  8
0
  5
8D95
 10
1213.36
 20
529.563
 30
0.000000
  70
    32
  0
VERTEX
  8
0
  5
8D96
 10
1213.36
 20
529.561
 30
0.000000
  70
    32
  0
VERTEX
  8
0
  5
8D97
 10
1213.36
 20
529.559
 30
0.000000
  70
    32
  0
VERTEX
  8
0
  5
8D98
 10
1213.35
 20
529.557
 30
0.000000
  70
    32
  0
VERTEX
  8
0
  5
8D99
 10
1213.35
 20
529.556
 30
0.000000
  70
    32
  0
VERTEX
  8
0
  5
8D9A
 10
1213.35
 20
529.554
 30
0.000000
  70
    32
  0
VERTEX
  8
0
  5
8D9B
 10
1213.35
 20
529.552
 30
0.000000
  70
    32
  0
VERTEX
  8
0
  5
8D9C
 10
1213.35
 20
529.550
 30
0.000000
  70
    32
  0
VERTEX
  8
0
  5
8D9D
 10
1213.35
 20
529.548
 30
0.000000
  70
    32
  0
VERTEX
  8
0
  5
8D9E
 10
1213.34
 20
529.546
 30
0.000000
  70
    32
  0
VERTEX
  8
0
  5
8D9F
 10
1213.34
 20
529.544
 30
0.000000
  70
    32
  0
VERTEX
  8
0
  5
8DA0
 10
1213.34
 20
529.543
 30
0.000000
  70
    32
  0
VERTEX
  8
0
  5
8DA1
 10
1213.34
 20
529.541
 30
0.000000
  70
    32
  0
VERTEX
  8
0
  5
8DA2
 10
1213.34
 20
529.539
 30
0.000000
  70
    32
  0
VERTEX
  8
0
  5
8DA3
 10
1213.33
 20
529.537
 30
0.000000
  70
    32
  0
VERTEX
  8
0
  5
8DA4
 10
1213.33
 20
529.535
 30
0.000000
  70
    32
  0
VERTEX
  8
0
  5
8DA5
 10
1213.33
 20
529.533
 30
0.000000
  70
    32
  0
VERTEX
  8
0
  5
8DA6
 10
1213.33
 20
529.531
 30
0.000000
  70
    32
  0
VERTEX
  8
0
  5
8DA7
 10
1213.33
 20
529.530
 30
0.000000
  70
    32
  0
VERTEX
  8
0
  5
8DA8
 10
1213.33
 20
529.528
 30
0.000000
  70
    32
  0
VERTEX
  8
0
  5
8DA9
 10
1213.32
 20
529.526
 30
0.000000
  70
    32
  0
VERTEX
  8
0
  5
8DAA
 10
1213.32
 20
529.524
 30
0.000000
  70
    32
  0
VERTEX
  8
0
  5
8DAB
 10
1213.32
 20
529.522
 30
0.000000
  70
    32
  0
VERTEX
  8
0
  5
8DAC
 10
1213.32
 20
529.520
 30
0.000000
  70
    32
  0
VERTEX
  8
0
  5
8DAD
 10
1213.32
 20
529.518
 30
0.000000
  70
    32
  0
VERTEX
  8
0
  5
8DAE
 10
1213.32
 20
529.517
 30
0.000000
  70
    32
  0
VERTEX
  8
0
  5
8DAF
 10
1213.31
 20
529.515
 30
0.000000
  70
    32
  0
VERTEX
  8
0
  5
8DB0
 10
1213.31
 20
529.513
 30
0.000000
  70
    32
  0
VERTEX
  8
0
  5
8DB1
 10
1213.31
 20
529.511
 30
0.000000
  70
    32
  0
VERTEX
  8
0
  5
8DB2
 10
1213.31
 20
529.509
 30
0.000000
  70
    32
  0
VERTEX
  8
0
  5
8DB3
 10
1213.31
 20
529.507
 30
0.000000
  70
    32
  0
VERTEX
  8
0
  5
8DB4
 10
1213.30
 20
529.505
 30
0.000000
  70
    32
  0
VERTEX
  8
0
  5
8DB5
 10
1213.30
 20
529.504
 30
0.000000
  70
    32
  0
VERTEX
  8
0
  5
8DB6
 10
1213.30
 20
529.502
 30
0.000000
  70
    32
  0
VERTEX
  8
0
  5
8DB7
 10
1213.30
 20
529.500
 30
0.000000
  70
    32
  0
VERTEX
  8
0
  5
8DB8
 10
1213.30
 20
529.498
 30
0.000000
  70
    32
  0
VERTEX
  8
0
  5
8DB9
 10
1213.30
 20
529.496
 30
0.000000
  70
    32
  0
VERTEX
  8
0
  5
8DBA
 10
1213.29
 20
529.494
 30
0.000000
  70
    32
  0
VERTEX
  8
0
  5
8DBB
 10
1213.29
 20
529.492
 30
0.000000
  70
    32
  0
VERTEX
  8
0
  5
8DBC
 10
1213.29
 20
529.491
 30
0.000000
  70
    32
  0
VERTEX
  8
0
  5
8DBD
 10
1213.29
 20
529.489
 30
0.000000
  70
    32
  0
VERTEX
  8
0
  5
8DBE
 10
1213.29
 20
529.487
 30
0.000000
  70
    32
  0
VERTEX
  8
0
  5
8DBF
 10
1213.29
 20
529.485
 30
0.000000
  70
    32
  0
VERTEX
  8
0
  5
8DC0
 10
1213.28
 20
529.483
 30
0.000000
  70
    32
  0
VERTEX
  8
0
  5
8DC1
 10
1213.28
 20
529.481
 30
0.000000
  70
    32
  0
VERTEX
  8
0
  5
8DC2
 10
1213.28
 20
529.480
 30
0.000000
  70
    32
  0
VERTEX
  8
0
  5
8DC3
 10
1213.28
 20
529.478
 30
0.000000
  70
    32
  0
VERTEX
  8
0
  5
8DC4
 10
1213.28
 20
529.476
 30
0.000000
  70
    32
  0
VERTEX
  8
0
  5
8DC5
 10
1213.27
 20
529.474
 30
0.000000
  70
    32
  0
VERTEX
  8
0
  5
8DC6
 10
1213.27
 20
529.472
 30
0.000000
  70
    32
  0
VERTEX
  8
0
  5
8DC7
 10
1213.27
 20
529.470
 30
0.000000
  70
    32
  0
VERTEX
  8
0
  5
8DC8
 10
1213.27
 20
529.468
 30
0.000000
  70
    32
  0
VERTEX
  8
0
  5
8DC9
 10
1213.27
 20
529.467
 30
0.000000
  70
    32
  0
VERTEX
  8
0
  5
8DCA
 10
1213.27
 20
529.465
 30
0.000000
  70
    32
  0
VERTEX
  8
0
  5
8DCB
 10
1213.26
 20
529.463
 30
0.000000
  70
    32
  0
VERTEX
  8
0
  5
8DCC
 10
1213.26
 20
529.461
 30
0.000000
  70
    32
  0
VERTEX
  8
0
  5
8DCD
 10
1213.26
 20
529.459
 30
0.000000
  70
    32
  0
VERTEX
  8
0
  5
8DCE
 10
1213.26
 20
529.457
 30
0.000000
  70
    32
  0
VERTEX
  8
0
  5
8DCF
 10
1213.26
 20
529.455
 30
0.000000
  70
    32
  0
VERTEX
  8
0
  5
8DD0
 10
1213.26
 20
529.454
 30
0.000000
  70
    32
  0
VERTEX
  8
0
  5
8DD1
 10
1213.25
 20
529.452
 30
0.000000
  70
    32
  0
VERTEX
  8
0
  5
8DD2
 10
1213.25
 20
529.450
 30
0.000000
  70
    32
  0
VERTEX
  8
0
  5
8DD3
 10
1213.25
 20
529.448
 30
0.000000
  70
    32
  0
SEQEND
  8
0
  5
8DD4
  0
LINE
  5
62B7
  8
0
 10
1212.749984115361
 20
521.49999737740904
 30
0.0
 11
1212.749984115361
 21
531.99999630452578
 31
0.0
  0
LINE
  5
62B8
  8
0
 10
1212.749984115361
 20
529.06099930406947
 30
0.0
 11
1213.24998512864
 21
529.44795638324172
 31
0.0
  0
LINE
  5
62B9
  8
0
 10
1213.9999829232679
 20
521.19999788702864
 30
0.0
 11
1220.0999855995169
 21
521.19999788702864
 31
0.0
  0
LINE
  5
62BA
  8
0
 10
1220.0999855995169
 20
590.49999564887435
 30
0.0
 11
1220.0999855995169
 21
516.49999842049033
 31
0.0
  0
LINE
  5
62BB
  8
0
 10
1220.0999855995169
 20
590.49999564887435
 30
0.0
 11
1220.599984750151
 21
590.99999666215331
 31
0.0
  0
LINE
  5
62BC
  8
0
 10
1271.8999851495021
 20
590.49999564887435
 30
0.0
 11
1271.8999851495021
 21
516.49999842049033
 31
0.0
  0
LINE
  5
62BD
  8
0
 10
1271.8999851495021
 20
590.49999564887435
 30
0.0
 11
1271.3999841362231
 21
590.99999666215331
 31
0.0
  0
LINE
  5
62BE
  8
0
 10
1271.3999841362231
 20
590.99999666215331
 30
0.0
 11
1220.599984750151
 21
590.99999666215331
 31
0.0
  0
LINE
  5
62BF
  8
0
 10
1220.599984750151
 20
515.99999740721125
 30
0.0
 11
1220.0999855995169
 21
516.49999842049033
 31
0.0
  0
LINE
  5
62C0
  8
0
 10
1218.999983742832
 20
591.99999868871157
 30
0.0
 11
1218.999983742832
 21
549.23847913743396
 31
0.0
  0
LINE
  5
62C1
  8
0
 10
1272.9999851435409
 20
559.83239263297457
 30
0.0
 11
1318.8999816775311
 21
559.83239263297457
 31
0.0
  0
LINE
  5
62C2
  8
0
 10
1318.8999816775311
 20
590.99999666215331
 30
0.0
 11
1317.899987101554
 21
591.99999868871123
 31
0.0
  0
LINE
  5
62C3
  8
0
 10
1317.899987101554
 20
591.99999868871123
 30
0.0
 11
1174.099981784819
 21
591.99999868871123
 31
0.0
  0
LINE
  5
62C4
  8
0
 10
1272.9999851435409
 20
591.99999868871123
 30
0.0
 11
1272.9999851435409
 21
549.23847754148824
 31
0.0
  0
ARC
  5
62C5
  8
0
 10
1272.5629128101471
 20
548.56842696475417
 30
0.0
 40
0.8000000000000449
 50
315.27857411318519
 51
56.883749191538477
  0
LINE
  5
62C6
  8
0
 10
1271.8999851495021
 20
546.7621083725187
 30
0.0
 11
1273.131342604755
 21
548.00549745561034
 31
0.0
  0
LINE
  5
62C7
  8
0
 10
1318.8999816775311
 20
593.99999529124636
 30
0.0
 11
1318.8999816775311
 21
544.99999657274634
 31
0.0
  0
LINE
  5
62C8
  8
0
 10
1317.899987101554
 20
543.99999827147872
 30
0.0
 11
1318.8999816775311
 21
544.99999657274634
 31
0.0
  0
LINE
  5
62C9
  8
0
 10
1271.9944845885029
 20
549.13135468961138
 30
0.0
 11
1271.8999851495021
 21
549.0359324923445
 31
0.0
  0
ARC
  5
62CA
  8
0
 10
1272.5629128101471
 20
548.56842696475417
 30
0.0
 40
0.7999999999999945
 50
56.883749191538477
 51
135.27857411318519
  0
LINE
  5
62CB
  8
0
 10
1215.9999851137391
 20
495.99999785424637
 30
0.0
 11
1236.999984443187
 21
495.99999785424632
 31
0.0
  0
LINE
  5
62CC
  8
0
 10
1276.9999839365471
 20
496.9999979017436
 30
0.0
 11
1275.999983772635
 21
495.99999785424609
 31
0.0
  0
LINE
  5
62CD
  8
0
 10
1276.9999839365471
 20
496.9999979017436
 30
0.0
 11
1296.999983489512
 21
496.9999979017436
 31
0.0
  0
LINE
  5
62CE
  8
0
 10
1297.99998551607
 20
495.99999785424609
 30
0.0
 11
1296.999983489512
 21
496.9999979017436
 31
0.0
  0
LINE
  5
62CF
  8
0
 10
1318.999983370303
 20
496.9999979017436
 30
0.0
 11
1318.999983370303
 21
514.49999809266467
 31
0.0
  0
LINE
  5
62D0
  8
0
 10
1317.999981343745
 20
515.49999825657756
 30
0.0
 11
1318.999983370303
 21
514.49999809266467
 31
0.0
  0
LINE
  5
62D1
  8
0
 10
1317.999981343745
 20
515.49999825657756
 30
0.0
 11
1311.9999840855589
 21
515.49999825657756
 31
0.0
  0
LINE
  5
62D2
  8
0
 10
1311.9999840855589
 20
515.49999825657756
 30
0.0
 11
1311.9999840855589
 21
528.49999666215331
 31
0.0
  0
LINE
  5
62D3
  8
0
 10
1311.9999840855589
 20
528.49999666215331
 30
0.0
 11
1317.999981343745
 21
528.49999666215331
 31
0.0
  0
LINE
  5
62D4
  8
0
 10
1318.999983370303
 20
529.49999868871123
 30
0.0
 11
1317.999981343745
 21
528.49999666215331
 31
0.0
  0
LINE
  5
62D5
  8
0
 10
1318.999983370303
 20
529.49999868871123
 30
0.0
 11
1318.999983370303
 21
542.99999624492068
 31
0.0
  0
LINE
  5
62D6
  8
0
 10
1317.999981343745
 20
543.99999827147872
 30
0.0
 11
1318.999983370303
 21
542.99999624492068
 31
0.0
  0
LINE
  5
62D7
  8
0
 10
1317.999981343745
 20
543.99999827147872
 30
0.0
 11
1271.8999851495021
 21
543.99999827147872
 31
0.0
  0
LINE
  5
62D8
  8
0
 10
1272.1999846398819
 20
515.99999740721125
 30
0.0
 11
1219.799984246491
 21
515.99999740721125
 31
0.0
  0
LINE
  5
62D9
  8
0
 10
1219.799984246491
 20
515.99999740721125
 30
0.0
 11
1219.799984246491
 21
520.49999721349616
 31
0.0
  0
LINE
  5
62DA
  8
0
 10
1219.799984246491
 20
520.49999721349616
 30
0.0
 11
1212.499983608722
 21
520.49999721349616
 31
0.0
  0
LINE
  5
62DB
  8
0
 10
1212.499983608722
 20
520.49999721349616
 30
0.0
 11
1212.499983608722
 21
531.99999630452544
 31
0.0
  0
LINE
  5
62DC
  8
0
 10
1212.499983608722
 20
531.99999630452544
 30
0.0
 11
1220.0999855995169
 21
531.99999630452544
 31
0.0
  0
LINE
  5
62DD
  8
0
 10
1219.0999854356039
 20
543.99999827147872
 30
0.0
 11
1220.0999855995169
 21
542.99999624492068
 31
0.0
  0
LINE
  5
62DE
  8
0
 10
1173.9999875426281
 20
528.49999666215331
 30
0.0
 11
1172.99998551607
 21
529.49999868871123
 31
0.0
  0
LINE
  5
62DF
  8
0
 10
1173.9999875426281
 20
528.49999666215331
 30
0.0
 11
1179.9999848008149
 21
528.49999666215331
 31
0.0
  0
LINE
  5
62E0
  8
0
 10
1179.9999848008149
 20
528.49999666215331
 30
0.0
 11
1179.9999848008149
 21
515.49999825657756
 31
0.0
  0
LINE
  5
62E1
  8
0
 10
1179.9999848008149
 20
515.49999825657756
 30
0.0
 11
1173.9999875426281
 21
515.49999825657756
 31
0.0
  0
LINE
  5
62E2
  8
0
 10
1172.99998551607
 20
514.49999809266467
 30
0.0
 11
1173.9999875426281
 21
515.49999825657756
 31
0.0
  0
LINE
  5
62E3
  8
0
 10
1172.99998551607
 20
514.49999809266467
 30
0.0
 11
1172.99998551607
 21
496.9999979017436
 31
0.0
  0
LINE
  5
62E4
  8
0
 10
1173.9999875426281
 20
495.99999785424609
 30
0.0
 11
1172.99998551607
 21
496.9999979017436
 31
0.0
  0
LINE
  5
62E5
  8
0
 10
1173.9999875426281
 20
495.99999785424609
 30
0.0
 11
1193.999983370303
 21
495.99999785424609
 31
0.0
  0
LINE
  5
62E6
  8
0
 10
1194.9999853968609
 20
496.9999979017436
 30
0.0
 11
1193.999983370303
 21
495.99999785424609
 31
0.0
  0
LINE
  5
62E7
  8
0
 10
1194.9999853968609
 20
496.9999979017436
 30
0.0
 11
1214.9999849498261
 21
496.9999979017436
 31
0.0
  0
LINE
  5
62E8
  8
0
 10
1215.9999851137391
 20
495.99999785424609
 30
0.0
 11
1214.9999849498261
 21
496.9999979017436
 31
0.0
  0
LINE
  5
62EA
  8
0
 10
1297.99998551607
 20
495.99999785424609
 30
0.0
 11
1317.999981343745
 21
495.99999785424609
 31
0.0
  0
LINE
  5
62EB
  8
0
 10
1318.999983370303
 20
496.9999979017436
 30
0.0
 11
1317.999981343745
 21
495.99999785424609
 31
0.0
  0
LINE
  5
62EC
  8
0
 10
1236.999984830617
 20
489.49999735505719
 30
0.0
 11
1236.999984830617
 21
500.99999774248738
 31
0.0
  0
LINE
  5
62EE
  8
0
 10
1242.49998441711
 20
501.49999782444382
 30
0.0
 11
1242.49998441711
 21
500.99999774248738
 31
0.0
  0
LINE
  5
62EF
  8
0
 10
1242.49998441711
 20
501.49999782444382
 30
0.0
 11
1249.4999844692641
 21
501.49999782444382
 31
0.0
  0
LINE
  5
62F0
  8
0
 10
1249.4999844692641
 20
500.99999774248738
 30
0.0
 11
1249.4999844692641
 21
501.49999782444382
 31
0.0
  0
LINE
  5
62F2
  8
0
 10
1254.9999840557571
 20
500.99999774248738
 30
0.0
 11
1254.9999840557571
 21
489.49999735505719
 31
0.0
  0
ARC
  5
62F3
  8
0
 10
1245.999984443187
 20
568.99999825508053
 30
0.0
 40
12.249999999999959
 50
86.108905677624634
 51
93.891094322375366
  0
ARC
  5
62F4
  8
0
 10
1245.999984443187
 20
568.99999825508053
 30
0.0
 40
12.24999999999998
 50
146.10890567761601
 51
153.89109432238851
  0
ARC
  5
62F5
  8
0
 10
1245.999984443187
 20
568.99999825508053
 30
0.0
 40
12.25000000000006
 50
206.10890567761149
 51
213.8910943223834
  0
ARC
  5
62F6
  8
0
 10
1245.999984443187
 20
568.99999825508053
 30
0.0
 40
12.250000000000099
 50
266.10890567762459
 51
273.8910943223745
  0
ARC
  5
62F7
  8
0
 10
1245.999984443187
 20
568.99999825508053
 30
0.0
 40
12.25000000000006
 50
326.10890567761658
 51
333.89109432235972
  0
ARC
  5
62F8
  8
0
 10
1245.999984443187
 20
568.99999825508053
 30
0.0
 40
12.24999999999998
 50
26.108905677611499
 51
33.89109432238395
  0
LINE
  5
62F9
  8
0
 10
1245.1686967924329
 20
581.22176002831543
 30
0.0
 11
1235.8312720939409
 21
575.83079536510354
 31
0.0
  0
LINE
  5
62FA
  8
0
 10
1234.999984443187
 20
574.39096291829333
 30
0.0
 11
1234.999984443187
 21
563.60903359186864
 31
0.0
  0
LINE
  5
62FB
  8
0
 10
1235.8312720939409
 20
562.16920114505785
 30
0.0
 11
1245.1686967924329
 21
556.77823648184562
 31
0.0
  0
LINE
  5
62FC
  8
0
 10
1246.83127209394
 20
556.77823648184562
 30
0.0
 11
1256.1686967924329
 21
562.16920114505785
 31
0.0
  0
LINE
  5
62FD
  8
0
 10
1256.9999844431859
 20
563.60903359186773
 30
0.0
 11
1256.999984443187
 21
574.39096291829151
 31
0.0
  0
LINE
  5
62FE
  8
0
 10
1256.1686967924329
 20
575.83079536510354
 30
0.0
 11
1246.8312720939409
 21
581.22176002831543
 31
0.0
  0
CIRCLE
  5
62FF
  8
0
 10
1245.999984350359
 20
568.99999675950471
 30
0.0
 40
10.0
  0
CIRCLE
  5
6300
  8
3
 10
1279.499984443187
 20
571.99999785424609
 30
0.0
 40
4.0
  0
CIRCLE
  5
6301
  8
0
 10
1279.499984443187
 20
571.99999785424609
 30
0.0
 40
3.3235000000000001
  0
LINE
  5
6302
  8
1
 10
1245.999984443187
 20
613.99999529124636
 30
0.0
 11
1245.999984443187
 21
468.99999774248738
 31
0.0
  0
LINE
  5
6303
  8
1
 10
1279.499984443187
 20
580.9999978542462
 30
0.0
 11
1279.499984443187
 21
562.99999785424609
 31
0.0
  0
LINE
  5
6304
  8
1
 10
1288.499984443187
 20
571.99999785424609
 30
0.0
 11
1270.499984443187
 21
571.99999785424609
 31
0.0
  0
CIRCLE
  5
6305
  8
3
 10
1212.499984443187
 20
571.99999785424711
 30
0.0
 40
4.0
  0
CIRCLE
  5
6306
  8
0
 10
1212.499984443187
 20
571.99999785424711
 30
0.0
 40
3.3235000000000001
  0
LINE
  5
6307
  8
1
 10
1212.499984443187
 20
580.99999785424711
 30
0.0
 11
1212.499984443187
 21
562.999997854247
 31
0.0
  0
LINE
  5
6308
  8
1
 10
1221.499984443187
 20
571.99999785424711
 30
0.0
 11
1203.499984443187
 21
571.99999785424711
 31
0.0
  0
LINE
  5
6309
  8
0
 10
1218.999983742832
 20
559.83239263297457
 30
0.0
 11
1173.0999872088421
 21
559.83239263297457
 31
0.0
  0
LINE
  5
630A
  8
0
 10
1173.0999872088421
 20
590.99999666215331
 30
0.0
 11
1174.0999817848201
 21
591.99999868871123
 31
0.0
  0
LINE
  5
630B
  8
0
 10
1173.0999872088421
 20
593.99999529124636
 30
0.0
 11
1173.0999872088421
 21
544.99999657274634
 31
0.0
  0
LINE
  5
630C
  8
0
 10
1174.0999817848201
 20
543.99999827147872
 30
0.0
 11
1173.0999872088421
 21
544.99999657274634
 31
0.0
  0
LINE
  5
630D
  8
0
 10
1172.99998551607
 20
529.49999868871123
 30
0.0
 11
1172.99998551607
 21
542.99999624492068
 31
0.0
  0
LINE
  5
630E
  8
0
 10
1173.9999875426281
 20
543.99999827147872
 30
0.0
 11
1172.99998551607
 21
542.99999624492068
 31
0.0
  0
LINE
  5
630F
  8
0
 10
1173.9999875426281
 20
543.99999827147872
 30
0.0
 11
1220.0999855995169
 21
543.99999827147872
 31
0.0
  0
LINE
  5
6310
  8
0
 10
1277.999985963105
 20
520.99999822677523
 30
0.0
 11
1278.7499837577329
 21
520.99999822677523
 31
0.0
  0
LINE
  5
6311
  8
0
 10
1278.7499837577329
 20
520.99999822677523
 30
0.0
 11
1279.2499847710119
 21
521.49999737740904
 31
0.0
  0
LINE
  5
6312
  8
0
 10
1277.999985963105
 20
520.49999721349616
 30
0.0
 11
1277.999985963105
 21
521.19999788702864
 31
0.0
  0
LINE
  5
6313
  8
0
 10
1278.5250954329961
 20
529.68529462815673
 30
0.0
 11
1271.8999851495021
 21
529.68529462815673
 31
0.0
  0
POLYLINE
  5
6314
  8
0
 10
1278.5250970232821
 20
529.68529467639564
 30
0.0
 66
     1
 70
     8
  0
VERTEX
  8
0
  5
8DD5
 10
1278.53
 20
529.685
 30
0.000000
  70
    32
  0
VERTEX
  8
0
  5
8DD6
 10
1278.53
 20
529.683
 30
0.000000
  70
    32
  0
VERTEX
  8
0
  5
8DD7
 10
1278.53
 20
529.682
 30
0.000000
  70
    32
  0
VERTEX
  8
0
  5
8DD8
 10
1278.53
 20
529.680
 30
0.000000
  70
    32
  0
VERTEX
  8
0
  5
8DD9
 10
1278.53
 20
529.678
 30
0.000000
  70
    32
  0
VERTEX
  8
0
  5
8DDA
 10
1278.53
 20
529.676
 30
0.000000
  70
    32
  0
VERTEX
  8
0
  5
8DDB
 10
1278.54
 20
529.674
 30
0.000000
  70
    32
  0
VERTEX
  8
0
  5
8DDC
 10
1278.54
 20
529.672
 30
0.000000
  70
    32
  0
VERTEX
  8
0
  5
8DDD
 10
1278.54
 20
529.670
 30
0.000000
  70
    32
  0
VERTEX
  8
0
  5
8DDE
 10
1278.54
 20
529.669
 30
0.000000
  70
    32
  0
VERTEX
  8
0
  5
8DDF
 10
1278.54
 20
529.667
 30
0.000000
  70
    32
  0
VERTEX
  8
0
  5
8DE0
 10
1278.54
 20
529.665
 30
0.000000
  70
    32
  0
VERTEX
  8
0
  5
8DE1
 10
1278.55
 20
529.663
 30
0.000000
  70
    32
  0
VERTEX
  8
0
  5
8DE2
 10
1278.55
 20
529.661
 30
0.000000
  70
    32
  0
VERTEX
  8
0
  5
8DE3
 10
1278.55
 20
529.659
 30
0.000000
  70
    32
  0
VERTEX
  8
0
  5
8DE4
 10
1278.55
 20
529.658
 30
0.000000
  70
    32
  0
VERTEX
  8
0
  5
8DE5
 10
1278.55
 20
529.656
 30
0.000000
  70
    32
  0
VERTEX
  8
0
  5
8DE6
 10
1278.55
 20
529.654
 30
0.000000
  70
    32
  0
VERTEX
  8
0
  5
8DE7
 10
1278.56
 20
529.652
 30
0.000000
  70
    32
  0
VERTEX
  8
0
  5
8DE8
 10
1278.56
 20
529.650
 30
0.000000
  70
    32
  0
VERTEX
  8
0
  5
8DE9
 10
1278.56
 20
529.648
 30
0.000000
  70
    32
  0
VERTEX
  8
0
  5
8DEA
 10
1278.56
 20
529.646
 30
0.000000
  70
    32
  0
VERTEX
  8
0
  5
8DEB
 10
1278.56
 20
529.645
 30
0.000000
  70
    32
  0
VERTEX
  8
0
  5
8DEC
 10
1278.57
 20
529.643
 30
0.000000
  70
    32
  0
VERTEX
  8
0
  5
8DED
 10
1278.57
 20
529.641
 30
0.000000
  70
    32
  0
VERTEX
  8
0
  5
8DEE
 10
1278.57
 20
529.639
 30
0.000000
  70
    32
  0
VERTEX
  8
0
  5
8DEF
 10
1278.57
 20
529.637
 30
0.000000
  70
    32
  0
VERTEX
  8
0
  5
8DF0
 10
1278.57
 20
529.635
 30
0.000000
  70
    32
  0
VERTEX
  8
0
  5
8DF1
 10
1278.57
 20
529.633
 30
0.000000
  70
    32
  0
VERTEX
  8
0
  5
8DF2
 10
1278.58
 20
529.632
 30
0.000000
  70
    32
  0
VERTEX
  8
0
  5
8DF3
 10
1278.58
 20
529.630
 30
0.000000
  70
    32
  0
VERTEX
  8
0
  5
8DF4
 10
1278.58
 20
529.628
 30
0.000000
  70
    32
  0
VERTEX
  8
0
  5
8DF5
 10
1278.58
 20
529.626
 30
0.000000
  70
    32
  0
VERTEX
  8
0
  5
8DF6
 10
1278.58
 20
529.624
 30
0.000000
  70
    32
  0
VERTEX
  8
0
  5
8DF7
 10
1278.58
 20
529.622
 30
0.000000
  70
    32
  0
VERTEX
  8
0
  5
8DF8
 10
1278.59
 20
529.620
 30
0.000000
  70
    32
  0
VERTEX
  8
0
  5
8DF9
 10
1278.59
 20
529.619
 30
0.000000
  70
    32
  0
VERTEX
  8
0
  5
8DFA
 10
1278.59
 20
529.617
 30
0.000000
  70
    32
  0
VERTEX
  8
0
  5
8DFB
 10
1278.59
 20
529.615
 30
0.000000
  70
    32
  0
VERTEX
  8
0
  5
8DFC
 10
1278.59
 20
529.613
 30
0.000000
  70
    32
  0
VERTEX
  8
0
  5
8DFD
 10
1278.60
 20
529.611
 30
0.000000
  70
    32
  0
VERTEX
  8
0
  5
8DFE
 10
1278.60
 20
529.609
 30
0.000000
  70
    32
  0
VERTEX
  8
0
  5
8DFF
 10
1278.60
 20
529.607
 30
0.000000
  70
    32
  0
VERTEX
  8
0
  5
8E00
 10
1278.60
 20
529.606
 30
0.000000
  70
    32
  0
VERTEX
  8
0
  5
8E01
 10
1278.60
 20
529.604
 30
0.000000
  70
    32
  0
VERTEX
  8
0
  5
8E02
 10
1278.60
 20
529.602
 30
0.000000
  70
    32
  0
VERTEX
  8
0
  5
8E03
 10
1278.61
 20
529.600
 30
0.000000
  70
    32
  0
VERTEX
  8
0
  5
8E04
 10
1278.61
 20
529.598
 30
0.000000
  70
    32
  0
VERTEX
  8
0
  5
8E05
 10
1278.61
 20
529.596
 30
0.000000
  70
    32
  0
VERTEX
  8
0
  5
8E06
 10
1278.61
 20
529.594
 30
0.000000
  70
    32
  0
VERTEX
  8
0
  5
8E07
 10
1278.61
 20
529.593
 30
0.000000
  70
    32
  0
VERTEX
  8
0
  5
8E08
 10
1278.61
 20
529.591
 30
0.000000
  70
    32
  0
VERTEX
  8
0
  5
8E09
 10
1278.62
 20
529.589
 30
0.000000
  70
    32
  0
VERTEX
  8
0
  5
8E0A
 10
1278.62
 20
529.587
 30
0.000000
  70
    32
  0
VERTEX
  8
0
  5
8E0B
 10
1278.62
 20
529.585
 30
0.000000
  70
    32
  0
VERTEX
  8
0
  5
8E0C
 10
1278.62
 20
529.583
 30
0.000000
  70
    32
  0
VERTEX
  8
0
  5
8E0D
 10
1278.62
 20
529.582
 30
0.000000
  70
    32
  0
VERTEX
  8
0
  5
8E0E
 10
1278.62
 20
529.580
 30
0.000000
  70
    32
  0
VERTEX
  8
0
  5
8E0F
 10
1278.63
 20
529.578
 30
0.000000
  70
    32
  0
VERTEX
  8
0
  5
8E10
 10
1278.63
 20
529.576
 30
0.000000
  70
    32
  0
VERTEX
  8
0
  5
8E11
 10
1278.63
 20
529.574
 30
0.000000
  70
    32
  0
VERTEX
  8
0
  5
8E12
 10
1278.63
 20
529.572
 30
0.000000
  70
    32
  0
VERTEX
  8
0
  5
8E13
 10
1278.63
 20
529.570
 30
0.000000
  70
    32
  0
VERTEX
  8
0
  5
8E14
 10
1278.64
 20
529.569
 30
0.000000
  70
    32
  0
VERTEX
  8
0
  5
8E15
 10
1278.64
 20
529.567
 30
0.000000
  70
    32
  0
VERTEX
  8
0
  5
8E16
 10
1278.64
 20
529.565
 30
0.000000
  70
    32
  0
VERTEX
  8
0
  5
8E17
 10
1278.64
 20
529.563
 30
0.000000
  70
    32
  0
VERTEX
  8
0
  5
8E18
 10
1278.64
 20
529.561
 30
0.000000
  70
    32
  0
VERTEX
  8
0
  5
8E19
 10
1278.64
 20
529.559
 30
0.000000
  70
    32
  0
VERTEX
  8
0
  5
8E1A
 10
1278.65
 20
529.557
 30
0.000000
  70
    32
  0
VERTEX
  8
0
  5
8E1B
 10
1278.65
 20
529.556
 30
0.000000
  70
    32
  0
VERTEX
  8
0
  5
8E1C
 10
1278.65
 20
529.554
 30
0.000000
  70
    32
  0
VERTEX
  8
0
  5
8E1D
 10
1278.65
 20
529.552
 30
0.000000
  70
    32
  0
VERTEX
  8
0
  5
8E1E
 10
1278.65
 20
529.550
 30
0.000000
  70
    32
  0
VERTEX
  8
0
  5
8E1F
 10
1278.65
 20
529.548
 30
0.000000
  70
    32
  0
VERTEX
  8
0
  5
8E20
 10
1278.66
 20
529.546
 30
0.000000
  70
    32
  0
VERTEX
  8
0
  5
8E21
 10
1278.66
 20
529.544
 30
0.000000
  70
    32
  0
VERTEX
  8
0
  5
8E22
 10
1278.66
 20
529.543
 30
0.000000
  70
    32
  0
VERTEX
  8
0
  5
8E23
 10
1278.66
 20
529.541
 30
0.000000
  70
    32
  0
VERTEX
  8
0
  5
8E24
 10
1278.66
 20
529.539
 30
0.000000
  70
    32
  0
VERTEX
  8
0
  5
8E25
 10
1278.67
 20
529.537
 30
0.000000
  70
    32
  0
VERTEX
  8
0
  5
8E26
 10
1278.67
 20
529.535
 30
0.000000
  70
    32
  0
VERTEX
  8
0
  5
8E27
 10
1278.67
 20
529.533
 30
0.000000
  70
    32
  0
VERTEX
  8
0
  5
8E28
 10
1278.67
 20
529.531
 30
0.000000
  70
    32
  0
VERTEX
  8
0
  5
8E29
 10
1278.67
 20
529.530
 30
0.000000
  70
    32
  0
VERTEX
  8
0
  5
8E2A
 10
1278.67
 20
529.528
 30
0.000000
  70
    32
  0
VERTEX
  8
0
  5
8E2B
 10
1278.68
 20
529.526
 30
0.000000
  70
    32
  0
VERTEX
  8
0
  5
8E2C
 10
1278.68
 20
529.524
 30
0.000000
  70
    32
  0
VERTEX
  8
0
  5
8E2D
 10
1278.68
 20
529.522
 30
0.000000
  70
    32
  0
VERTEX
  8
0
  5
8E2E
 10
1278.68
 20
529.520
 30
0.000000
  70
    32
  0
VERTEX
  8
0
  5
8E2F
 10
1278.68
 20
529.518
 30
0.000000
  70
    32
  0
VERTEX
  8
0
  5
8E30
 10
1278.68
 20
529.517
 30
0.000000
  70
    32
  0
VERTEX
  8
0
  5
8E31
 10
1278.69
 20
529.515
 30
0.000000
  70
    32
  0
VERTEX
  8
0
  5
8E32
 10
1278.69
 20
529.513
 30
0.000000
  70
    32
  0
VERTEX
  8
0
  5
8E33
 10
1278.69
 20
529.511
 30
0.000000
  70
    32
  0
VERTEX
  8
0
  5
8E34
 10
1278.69
 20
529.509
 30
0.000000
  70
    32
  0
VERTEX
  8
0
  5
8E35
 10
1278.69
 20
529.507
 30
0.000000
  70
    32
  0
VERTEX
  8
0
  5
8E36
 10
1278.70
 20
529.505
 30
0.000000
  70
    32
  0
VERTEX
  8
0
  5
8E37
 10
1278.70
 20
529.504
 30
0.000000
  70
    32
  0
VERTEX
  8
0
  5
8E38
 10
1278.70
 20
529.502
 30
0.000000
  70
    32
  0
VERTEX
  8
0
  5
8E39
 10
1278.70
 20
529.500
 30
0.000000
  70
    32
  0
VERTEX
  8
0
  5
8E3A
 10
1278.70
 20
529.498
 30
0.000000
  70
    32
  0
VERTEX
  8
0
  5
8E3B
 10
1278.70
 20
529.496
 30
0.000000
  70
    32
  0
VERTEX
  8
0
  5
8E3C
 10
1278.71
 20
529.494
 30
0.000000
  70
    32
  0
VERTEX
  8
0
  5
8E3D
 10
1278.71
 20
529.492
 30
0.000000
  70
    32
  0
VERTEX
  8
0
  5
8E3E
 10
1278.71
 20
529.491
 30
0.000000
  70
    32
  0
VERTEX
  8
0
  5
8E3F
 10
1278.71
 20
529.489
 30
0.000000
  70
    32
  0
VERTEX
  8
0
  5
8E40
 10
1278.71
 20
529.487
 30
0.000000
  70
    32
  0
VERTEX
  8
0
  5
8E41
 10
1278.71
 20
529.485
 30
0.000000
  70
    32
  0
VERTEX
  8
0
  5
8E42
 10
1278.72
 20
529.483
 30
0.000000
  70
    32
  0
VERTEX
  8
0
  5
8E43
 10
1278.72
 20
529.481
 30
0.000000
  70
    32
  0
VERTEX
  8
0
  5
8E44
 10
1278.72
 20
529.480
 30
0.000000
  70
    32
  0
VERTEX
  8
0
  5
8E45
 10
1278.72
 20
529.478
 30
0.000000
  70
    32
  0
VERTEX
  8
0
  5
8E46
 10
1278.72
 20
529.476
 30
0.000000
  70
    32
  0
VERTEX
  8
0
  5
8E47
 10
1278.73
 20
529.474
 30
0.000000
  70
    32
  0
VERTEX
  8
0
  5
8E48
 10
1278.73
 20
529.472
 30
0.000000
  70
    32
  0
VERTEX
  8
0
  5
8E49
 10
1278.73
 20
529.470
 30
0.000000
  70
    32
  0
VERTEX
  8
0
  5
8E4A
 10
1278.73
 20
529.468
 30
0.000000
  70
    32
  0
VERTEX
  8
0
  5
8E4B
 10
1278.73
 20
529.467
 30
0.000000
  70
    32
  0
VERTEX
  8
0
  5
8E4C
 10
1278.73
 20
529.465
 30
0.000000
  70
    32
  0
VERTEX
  8
0
  5
8E4D
 10
1278.74
 20
529.463
 30
0.000000
  70
    32
  0
VERTEX
  8
0
  5
8E4E
 10
1278.74
 20
529.461
 30
0.000000
  70
    32
  0
VERTEX
  8
0
  5
8E4F
 10
1278.74
 20
529.459
 30
0.000000
  70
    32
  0
VERTEX
  8
0
  5
8E50
 10
1278.74
 20
529.457
 30
0.000000
  70
    32
  0
VERTEX
  8
0
  5
8E51
 10
1278.74
 20
529.455
 30
0.000000
  70
    32
  0
VERTEX
  8
0
  5
8E52
 10
1278.74
 20
529.454
 30
0.000000
  70
    32
  0
VERTEX
  8
0
  5
8E53
 10
1278.75
 20
529.452
 30
0.000000
  70
    32
  0
VERTEX
  8
0
  5
8E54
 10
1278.75
 20
529.450
 30
0.000000
  70
    32
  0
VERTEX
  8
0
  5
8E55
 10
1278.75
 20
529.448
 30
0.000000
  70
    32
  0
SEQEND
  8
0
  5
8E56
  0
LINE
  5
6315
  8
0
 10
1279.2499847710119
 20
521.49999737740904
 30
0.0
 11
1279.2499847710119
 21
531.99999630452578
 31
0.0
  0
LINE
  5
6316
  8
0
 10
1279.2499847710119
 20
529.06099930406947
 30
0.0
 11
1278.7499837577329
 21
529.44795638324172
 31
0.0
  0
LINE
  5
6317
  8
0
 10
1277.999985963105
 20
521.19999788702864
 30
0.0
 11
1271.8999851495021
 21
521.19999788702864
 31
0.0
  0
LINE
  5
6318
  8
0
 10
1271.399985998868
 20
515.99999740721125
 30
0.0
 11
1271.8999851495021
 21
516.49999842049033
 31
0.0
  0
LINE
  5
6319
  8
0
 10
1272.1999846398819
 20
515.99999740721125
 30
0.0
 11
1272.1999846398819
 21
520.49999721349616
 31
0.0
  0
LINE
  5
631A
  8
0
 10
1272.1999846398819
 20
520.49999721349616
 30
0.0
 11
1279.4999852776521
 21
520.49999721349616
 31
0.0
  0
LINE
  5
631B
  8
0
 10
1279.4999852776521
 20
520.49999721349616
 30
0.0
 11
1279.4999852776521
 21
531.99999630452544
 31
0.0
  0
LINE
  5
631C
  8
0
 10
1279.4999852776521
 20
531.99999630452544
 30
0.0
 11
1271.8999851495021
 21
531.99999630452544
 31
0.0
  0
LINE
  5
631D
  8
0
 10
1272.8999853134151
 20
543.99999827147872
 30
0.0
 11
1271.8999851495021
 21
542.99999624492068
 31
0.0
  0
ARC
  5
631E
  8
0
 10
1219.437056076227
 20
548.56842696475417
 30
0.0
 40
0.8000000000000449
 50
123.1162508084615
 51
224.7214258868147
  0
LINE
  5
631F
  8
0
 10
1220.099983736872
 20
546.7621083725187
 30
0.0
 11
1218.8686262816179
 21
548.00549745561034
 31
0.0
  0
LINE
  5
6320
  8
0
 10
1220.0054842978709
 20
549.13135468961138
 30
0.0
 11
1220.099983736872
 21
549.0359324923445
 31
0.0
  0
ARC
  5
6321
  8
0
 10
1219.437056076227
 20
548.56842696475417
 30
0.0
 40
0.7999999999999945
 50
44.721425886834311
 51
123.1162508084615
  0
LINE
  5
6323
  8
1
 10
1224.4999861375591
 20
568.99999675950471
 30
0.0
 11
1267.49998613756
 21
568.99999675950471
 31
0.0
  0
LINE
  5
6427
  8
0
 10
200.10000169277171
 20
586.99999785424734
 30
0.0
 11
345.89999616146059
 21
586.99999785424734
 31
0.0
  0
LINE
  5
6428
  8
0
 10
200.10000169277171
 20
581.99999785424734
 30
0.0
 11
345.89999616146059
 21
581.99999785424734
 31
0.0
  0
LINE
  5
6429
  8
0
 10
200.10000169277171
 20
576.99999785424734
 30
0.0
 11
345.89999616146059
 21
576.99999785424734
 31
0.0
  0
LINE
  5
642A
  8
0
 10
200.10000169277171
 20
571.99999785424734
 30
0.0
 11
234.9999989270768
 21
571.99999785424734
 31
0.0
  0
LINE
  5
642B
  8
0
 10
200.10000169277171
 20
566.99999785424734
 30
0.0
 11
345.89999616146059
 21
566.99999785424734
 31
0.0
  0
LINE
  5
642C
  8
0
 10
200.10000169277171
 20
561.99999785424734
 30
0.0
 11
345.89999616146059
 21
561.99999785424734
 31
0.0
  0
LINE
  5
642D
  8
0
 10
200.10000169277171
 20
556.99999785424734
 30
0.0
 11
345.89999616146059
 21
556.99999785424734
 31
0.0
  0
CIRCLE
  5
6430
  8
0
 10
239.49999892711639
 20
571.99999785424734
 30
0.0
 40
4.500000000039563
  0
LINE
  5
6431
  8
0
 10
243.99999892715601
 20
571.99999785424734
 30
0.0
 11
301.99999892710548
 21
571.99999785424734
 31
0.0
  0
CIRCLE
  5
6432
  8
0
 10
306.49999892711639
 20
571.99999785424734
 30
0.0
 40
4.5000000000109344
  0
LINE
  5
6433
  8
0
 10
310.99999892712731
 20
571.99999785424734
 30
0.0
 11
345.89999616146059
 21
571.99999785424734
 31
0.0
  0
LINE
  5
6434
  8
1
 10
272.99999892711622
 20
475.99999785433118
 30
0.0
 11
272.99999892711622
 21
613.99999529124761
 31
0.0
  0
LINE
  5
6479
  8
1
 10
230.4999989271177
 20
571.99999785424734
 30
0.0
 11
248.49999892711779
 21
571.99999785424734
 31
0.0
  0
LINE
  5
647A
  8
1
 10
239.49999892711779
 20
580.99999785424734
 30
0.0
 11
239.49999892711779
 21
562.99999785424734
 31
0.0
  0
LINE
  5
647C
  8
1
 10
297.49999892711747
 20
571.99999785424734
 30
0.0
 11
315.49999892711747
 21
571.99999785424734
 31
0.0
  0
LINE
  5
647D
  8
1
 10
306.4999989271189
 20
580.99999785424734
 30
0.0
 11
306.4999989271189
 21
562.99999785424734
 31
0.0
  0
LINE
  5
6528
  8
1
 10
1042.9999855160711
 20
272.99997948909407
 30
0.0
 11
475.99999785423302
 21
272.99997948909407
 31
0.0
  0
LINE
  5
6529
  8
0
 10
1001.499986842274
 20
289.49998040780218
 30
0.0
 11
1002.999986156821
 21
287.99997983585013
 31
0.0
  0
LINE
  5
652A
  8
0
 10
1002.999986156821
 20
257.99998002661852
 30
0.0
 11
1001.499986842274
 21
256.49997857038647
 31
0.0
  0
LINE
  5
652B
  8
0
 10
1001.499986842274
 20
256.49997857038647
 30
0.0
 11
998.99998550116993
 21
256.49997857038647
 31
0.0
  0
LINE
  5
652C
  8
0
 10
998.99998550116993
 20
289.49998040780218
 30
0.0
 11
1001.499986842274
 21
289.49998040780218
 31
0.0
  0
ARC
  5
652D
  8
0
 10
998.59998532235602
 20
287.39997986467529
 30
0.0
 40
0.3999999999999204
 50
270.0
 51
0.0
  0
ARC
  5
652E
  8
0
 10
998.59998532235602
 20
258.59997986467511
 30
0.0
 40
0.4000000000000626
 50
0.0000000000260551
 51
90.0
  0
LINE
  5
652F
  8
0
 10
998.59998618066311
 20
258.9999801131587
 30
0.0
 11
960.49998452654086
 21
258.9999801131587
 31
0.0
  0
LINE
  5
6530
  8
0
 10
960.49998452654086
 20
286.99997886502911
 30
0.0
 11
998.59998618066288
 21
286.99997886502911
 31
0.0
  0
ARC
  5
6531
  8
0
 10
1020.298279400184
 20
262.99997986467559
 30
0.0
 40
2.7017059221718389
 50
338.26051268787819
 51
0.0
  0
ARC
  5
6532
  8
0
 10
1020.298279400184
 20
282.99997986467571
 30
0.0
 40
2.7017059221718389
 50
0.0
 51
21.72402599247263
  0
LINE
  5
6533
  8
3
 10
960.49998452654086
 20
284.24998102869841
 30
0.0
 11
985.58484493568506
 21
284.2499810286979
 31
0.0
  0
LINE
  5
6534
  8
3
 10
985.58484493568517
 20
261.7499811717741
 30
0.0
 11
960.49998452654086
 21
261.7499811717737
 31
0.0
  0
LINE
  5
6535
  8
0
 10
1002.999986156821
 20
287.99997983585013
 30
0.0
 11
1002.999986156821
 21
257.99998002661852
 31
0.0
  0
LINE
  5
6536
  8
0
 10
1001.499986842274
 20
289.49998040780218
 30
0.0
 11
1001.499986842274
 21
256.49997857038647
 31
0.0
  0
LINE
  5
6537
  8
0
 10
998.99998550116993
 20
289.49998040780218
 30
0.0
 11
998.99998550116993
 21
256.49997857038647
 31
0.0
  0
LINE
  5
6538
  8
0
 10
1022.999985322356
 20
282.99997986467571
 30
0.0
 11
1022.999985322356
 21
262.99997986467559
 31
0.0
  0
LINE
  5
6539
  8
0
 10
1021.793844744563
 20
273.83126657928619
 30
0.0
 11
1021.793844744563
 21
272.16869324997128
 31
0.0
  0
POLYLINE
  5
653A
  8
0
 66
     1
 10
0.0
 20
0.0
 30
0.0
 70
   128
  0
VERTEX
  5
8C3F
  8
0
 10
1021.793844744563
 20
272.16869324997128
 30
0.0
  0
VERTEX
  5
8C40
  8
0
 10
1022.3534094244239
 20
271.08649140352622
 30
0.0
  0
VERTEX
  5
8C41
  8
0
 10
1022.731135234236
 20
269.30900405215903
 30
0.0
  0
VERTEX
  5
8C42
  8
0
 10
1022.808103457093
 20
267.49324331541419
 30
0.0
  0
VERTEX
  5
8C43
  8
0
 10
1022.707829818129
 20
265.41191899520231
 30
0.0
  0
VERTEX
  5
8C44
  8
0
 10
1022.1466818898911
 20
263.41114737177918
 30
0.0
  0
VERTEX
  5
8C45
  8
0
 10
1021.793844744563
 20
262.83126666084422
 30
0.0
  0
SEQEND
  5
8C46
  8
0
  0
LINE
  5
653B
  8
0
 10
1021.793844744563
 20
261.99998003602258
 30
0.0
 11
1021.793844744563
 21
262.83126666084422
 31
0.0
  0
LINE
  5
653C
  8
0
 10
1021.793844744563
 20
283.1686927030421
 30
0.0
 11
1021.793844744563
 21
283.99997940753821
 31
0.0
  0
POLYLINE
  5
653D
  8
0
 66
     1
 10
0.0
 20
0.0
 30
0.0
 70
   128
  0
VERTEX
  5
8C47
  8
0
 10
1021.793844744563
 20
283.1686927030421
 30
0.0
  0
VERTEX
  5
8C48
  8
0
 10
1022.3534094244239
 20
282.0864908292267
 30
0.0
  0
VERTEX
  5
8C49
  8
0
 10
1022.7187523692839
 20
280.32580249300167
 30
0.0
  0
VERTEX
  5
8C4A
  8
0
 10
1022.808103457093
 20
278.49324314916862
 30
0.0
  0
VERTEX
  5
8C4B
  8
0
 10
1022.692749843001
 20
276.4521438778508
 30
0.0
  0
VERTEX
  5
8C4C
  8
0
 10
1022.1466818898911
 20
274.41114816603908
 30
0.0
  0
VERTEX
  5
8C4D
  8
0
 10
1021.793844744563
 20
273.83126657928619
 30
0.0
  0
SEQEND
  5
8C4E
  8
0
  0
LINE
  5
653E
  8
0
 10
1002.999986156821
 20
283.1686927030421
 30
0.0
 11
1021.793844744563
 21
283.1686927030421
 31
0.0
  0
LINE
  5
653F
  8
0
 10
1021.793844744563
 20
273.83126657928619
 30
0.0
 11
1002.999986156821
 21
273.83126657928619
 31
0.0
  0
LINE
  5
6540
  8
0
 10
1002.999986156821
 20
272.16869324997128
 30
0.0
 11
1021.793844744563
 21
272.16869324997128
 31
0.0
  0
LINE
  5
6541
  8
0
 10
1021.793844744563
 20
262.83126666084422
 30
0.0
 11
1002.999986156821
 21
262.83126666084422
 31
0.0
  0
LINE
  5
6542
  8
0
 10
1022.808103259377
 20
283.99997940753821
 30
0.0
 11
1002.999986156821
 21
283.99997940753821
 31
0.0
  0
LINE
  5
6543
  8
0
 10
1002.999986156821
 20
261.99998003602258
 30
0.0
 11
1022.808103145508
 21
261.99998003602309
 31
0.0
  0
LINE
  5
6544
  8
0
 10
985.58484493568506
 20
286.99997886502962
 30
0.0
 11
985.58484493568506
 21
258.9999801131587
 31
0.0
  0
LINE
  5
6545
  8
3
 10
985.58484493568517
 20
261.7499811717741
 30
0.0
 11
990.34798649007428
 21
258.9999801131587
 31
0.0
  0
LINE
  5
6546
  8
3
 10
985.58484493568517
 20
284.2499810286979
 30
0.0
 11
990.34798090891525
 21
286.99997886502911
 31
0.0
  0
LINE
  5
6547
  8
0
 10
960.49998452654097
 20
298.39997918213021
 30
0.0
 11
960.49998452654097
 21
247.59998165870269
 31
0.0
  0
LINE
  5
6548
  8
0
 10
960.49998452654097
 20
298.39997918213021
 30
0.0
 11
959.99998450279224
 21
298.89998019540923
 31
0.0
  0
LINE
  5
6549
  8
0
 10
960.49998452654097
 20
247.59998165870269
 30
0.0
 11
959.99998450279224
 21
247.09998064542381
 31
0.0
  0
ARC
  5
654A
  8
0
 10
962.99998450279224
 20
272.99999892711639
 30
0.0
 40
10.0
 50
107.4576031237236
 51
120.6711995690886
  0
ARC
  5
654B
  8
0
 10
917.99998450279224
 20
272.99999892711639
 30
0.0
 40
10.0
 50
59.328792119029302
 51
300.67104532058448
  0
LINE
  5
6550
  8
1
 10
917.99998450279224
 20
287.99999892711639
 30
0.0
 11
917.99998450279224
 21
257.99999892711639
 31
0.0
  0
LINE
  5
6552
  8
0
 10
534.64108556508995
 20
281.99999853968552
 30
0.0
 11
498.35888391826279
 21
281.99999853968529
 31
0.0
  0
LINE
  5
6553
  8
0
 10
498.35888391826279
 20
263.99999931454568
 30
0.0
 11
534.64108556508995
 21
263.9999993145459
 31
0.0
  0
ARC
  5
6556
  8
0
 10
493.99998497962929
 20
272.99999892711548
 30
0.0
 40
10.0
 50
287.4576031237321
 51
300.67103700869723
  0
ARC
  5
6557
  8
0
 10
538.99998497962929
 20
272.99999892711571
 30
0.0
 40
10.0
 50
239.32895467941549
 51
120.6712078809706
  0
LINE
  5
655B
  8
1
 10
538.99998497962929
 20
287.99999892711571
 30
0.0
 11
538.99998497962929
 21
257.99999892711571
 31
0.0
  0
CIRCLE
  5
655C
  8
0
 10
610.99998450279224
 20
303.99999892711639
 30
0.0
 40
10.0
  0
ARC
  5
655D
  8
0
 10
610.99998450279224
 20
348.99999892711639
 30
0.0
 40
10.0
 50
197.4576095677088
 51
342.5423904322912
  0
CIRCLE
  5
655F
  8
0
 10
610.99998450279224
 20
326.4982467671162
 30
0.0
 40
2.0669999999999988
  0
CIRCLE
  5
6560
  8
3
 10
610.99998450279224
 20
326.4982467671162
 30
0.0
 40
2.5
  0
LINE
  5
6561
  8
1
 10
603.49998450279236
 20
326.4982467671162
 30
0.0
 11
618.49998450279224
 21
326.4982467671162
 31
0.0
  0
LINE
  5
6562
  8
1
 10
610.99998450279247
 20
355.99999785423279
 30
0.0
 11
610.99998450279179
 21
189.99999999999969
 31
0.0
  0
LINE
  5
6563
  8
1
 10
595.99998450279224
 20
303.99999892711639
 30
0.0
 11
625.99998450279224
 21
303.99999892711639
 31
0.0
  0
LINE
  5
6567
  8
0
 10
601.999974250793
 20
237.64108227532299
 30
0.0
 11
601.99997425079289
 21
201.3588576178667
 31
0.0
  0
LINE
  5
6569
  8
0
 10
619.9999809265131
 20
201.35885761786651
 30
0.0
 11
619.99998092651322
 21
237.64105372344639
 31
0.0
  0
LINE
  5
656B
  8
0
 10
607.49999284744194
 20
206.3674582700846
 30
0.0
 11
607.49999284744217
 21
232.63246478248811
 31
0.0
  0
LINE
  5
656C
  8
0
 10
614.49999213218655
 20
232.63246478248789
 30
0.0
 11
614.49999213218632
 21
206.3674582700844
 31
0.0
  0
CIRCLE
  5
656D
  8
0
 10
610.99998450279213
 20
241.99996005107141
 30
0.0
 40
10.0
  0
ARC
  5
656E
  8
0
 10
610.99998450279168
 20
196.99996005107141
 30
0.0
 40
10.0
 50
17.457609567702121
 51
162.54239043229779
  0
CIRCLE
  5
656F
  8
0
 10
610.99998450279179
 20
219.50171221107161
 30
0.0
 40
2.0669999999999988
  0
CIRCLE
  5
6570
  8
3
 10
610.99998450279179
 20
219.50171221107161
 30
0.0
 40
2.5
  0
LINE
  5
6571
  8
1
 10
603.49998450279179
 20
219.50171221107161
 30
0.0
 11
618.4999845027919
 21
219.50171221107141
 31
0.0
  0
LINE
  5
6572
  8
1
 10
595.99998450279213
 20
241.99996005107141
 30
0.0
 11
625.99998450279213
 21
241.99996005107121
 31
0.0
  0
LINE
  5
65B6
  8
1
 10
710.99998450279224
 20
284.24999892711639
 30
0.0
 11
710.99998450279224
 21
261.74999892711639
 31
0.0
  0
LINE
  5
65B8
  8
1
 10
860.99998450279224
 20
284.24999892711639
 30
0.0
 11
860.99998450279224
 21
261.74999892711639
 31
0.0
  0
CIRCLE
  5
6EC2
  8
0
 10
526.99998450279224
 20
567.99999785424825
 30
0.0
 40
5.0
  0
CIRCLE
  5
6EC3
  8
3
 10
526.99998450279224
 20
567.99999785424825
 30
0.0
 40
6.0
  0
CIRCLE
  5
717D
  8
3
 10
239.49999892711779
 20
571.99999785424734
 30
0.0
 40
4.0
  0
CIRCLE
  5
717E
  8
0
 10
239.49999892711779
 20
571.99999785424734
 30
0.0
 40
3.399999999999999
  0
CIRCLE
  5
717F
  8
3
 10
306.49999892711747
 20
571.99999785424734
 30
0.0
 40
4.0
  0
CIRCLE
  5
7180
  8
0
 10
306.49999892711747
 20
571.99999785424734
 30
0.0
 40
3.399999999999999
  0
CIRCLE
  5
7181
  8
0
 10
1212.499984443187
 20
571.99999785424711
 30
0.0
 40
4.5
  0
CIRCLE
  5
7182
  8
0
 10
1279.499984443187
 20
571.99999785424711
 30
0.0
 40
4.5
  0
CIRCLE
  5
7183
  8
0
 10
899.99998450279224
 20
521.99999785424734
 30
0.0
 40
3.375
  0
CIRCLE
  5
7184
  8
3
 10
899.99998450279224
 20
521.99999785424734
 30
0.0
 40
4.0
  0
CIRCLE
  5
7185
  8
0
 10
556.99998450279224
 20
521.99999785424734
 30
0.0
 40
3.375
  0
CIRCLE
  5
7186
  8
3
 10
556.99998450279224
 20
521.99999785424734
 30
0.0
 40
4.0
  0
LINE
  5
87FB
  8
5
 10
601.99998450279224
 20
309.4982467671162
 30
0.0
 11
601.99998450279224
 21
343.49824676711609
 31
0.0
  0
LINE
  5
87FC
  8
5
 10
602.49998450279224
 20
343.99824676711609
 30
0.0
 11
619.49998450279224
 21
343.99824676711609
 31
0.0
  0
LINE
  5
87FD
  8
5
 10
619.99998450279236
 20
343.49824676711609
 30
0.0
 11
619.99998450279236
 21
309.4982467671162
 31
0.0
  0
LINE
  5
87FE
  8
5
 10
619.49998450279224
 20
308.99824676711609
 30
0.0
 11
602.49998450279224
 21
308.99824676711609
 31
0.0
  0
LINE
  5
8801
  8
5
 10
619.99998450279236
 20
343.49824676711609
 30
0.0
 11
619.49998450279224
 21
343.99824676711609
 31
0.0
  0
LINE
  5
8802
  8
5
 10
619.99998450279236
 20
309.4982467671162
 30
0.0
 11
619.49998450279224
 21
308.99824676711609
 31
0.0
  0
LINE
  5
8803
  8
5
 10
602.49998450279224
 20
308.99824676711609
 30
0.0
 11
601.99998450279224
 21
309.4982467671162
 31
0.0
  0
LINE
  5
8804
  8
5
 10
601.99998450279224
 20
343.49824676711609
 30
0.0
 11
602.49998450279224
 21
343.99824676711609
 31
0.0
  0
CIRCLE
  5
8805
  8
5
 10
610.99998450279224
 20
326.4982467671162
 30
0.0
 40
4.75
  0
LINE
  5
8806
  8
5
 10
602.49998450279224
 20
500.99999774248857
 30
0.0
 11
619.49998450279224
 21
500.99999774248857
 31
0.0
  0
LINE
  5
8808
  8
5
 10
601.99998450279224
 20
500.49999774248857
 30
0.0
 11
602.49998450279224
 21
500.99999774248857
 31
0.0
  0
LINE
  5
8809
  8
5
 10
601.99998450279224
 20
489.49999774248857
 30
0.0
 11
601.99998450279224
 21
500.49999774248857
 31
0.0
  0
LINE
  5
880A
  8
5
 10
619.99998450279236
 20
489.49999774248857
 30
0.0
 11
619.99998450279236
 21
500.49999774248857
 31
0.0
  0
LINE
  5
880B
  8
5
 10
619.99998450279236
 20
500.49999774248857
 30
0.0
 11
619.49998450279224
 21
500.99999774248857
 31
0.0
  0
LINE
  5
8811
  8
5
 10
602.49998450279224
 20
488.99999774248857
 30
0.0
 11
619.49998450279224
 21
488.99999774248857
 31
0.0
  0
LINE
  5
8812
  8
5
 10
601.99998450279224
 20
489.49999774248857
 30
0.0
 11
602.49998450279224
 21
488.99999774248857
 31
0.0
  0
LINE
  5
8813
  8
5
 10
619.99998450279236
 20
489.49999774248857
 30
0.0
 11
619.49998450279224
 21
488.99999774248857
 31
0.0
  0
LINE
  5
8815
  8
1
 10
1192.5017171651609
 20
483.99999785426661
 30
0.0
 11
1192.5017171651609
 21
511.1999978542666
 31
0.0
  0
LINE
  5
8817
  8
5
 10
1210.0017171651609
 20
489.4999978542665
 30
0.0
 11
1210.0017171651609
 21
496.99999790174371
 31
0.0
  0
LINE
  5
8818
  8
5
 10
1175.0017171651609
 20
489.4999978542665
 30
0.0
 11
1175.0017171651609
 21
495.99999785424609
 31
0.0
  0
LINE
  5
881F
  8
5
 10
1209.5017171651609
 20
488.9999978542665
 30
0.0
 11
1175.5017171651609
 21
488.9999978542665
 31
0.0
  0
LINE
  5
8820
  8
5
 10
1210.0017171651609
 20
489.4999978542665
 30
0.0
 11
1209.5017171651609
 21
488.9999978542665
 31
0.0
  0
LINE
  5
8821
  8
5
 10
1175.0017171651609
 20
489.4999978542665
 30
0.0
 11
1175.5017171651609
 21
488.9999978542665
 31
0.0
  0
LINE
  5
8822
  8
5
 10
601.9999845027919
 20
236.50171221107149
 30
0.0
 11
601.9999845027919
 21
202.50171221107149
 31
0.0
  0
LINE
  5
8823
  8
5
 10
602.49998450279179
 20
202.00171221107149
 30
0.0
 11
619.49998450279179
 21
202.00171221107149
 31
0.0
  0
LINE
  5
8824
  8
5
 10
619.99998450279179
 20
202.50171221107149
 30
0.0
 11
619.99998450279179
 21
236.50171221107149
 31
0.0
  0
LINE
  5
8825
  8
5
 10
619.49998450279179
 20
237.00171221107149
 30
0.0
 11
602.49998450279179
 21
237.00171221107149
 31
0.0
  0
LINE
  5
8828
  8
5
 10
619.99998450279179
 20
202.50171221107149
 30
0.0
 11
619.49998450279179
 21
202.00171221107149
 31
0.0
  0
LINE
  5
8829
  8
5
 10
619.99998450279179
 20
236.50171221107149
 30
0.0
 11
619.49998450279179
 21
237.00171221107149
 31
0.0
  0
LINE
  5
882A
  8
5
 10
602.49998450279179
 20
237.00171221107149
 30
0.0
 11
601.9999845027919
 21
236.50171221107149
 31
0.0
  0
LINE
  5
882B
  8
5
 10
601.9999845027919
 20
202.50171221107149
 30
0.0
 11
602.49998450279179
 21
202.00171221107149
 31
0.0
  0
CIRCLE
  5
882C
  8
5
 10
610.99998450279179
 20
219.50171221107149
 30
0.0
 40
4.75
  0
LINE
  5
883C
  8
1
 10
1299.49825172121
 20
483.99999785427548
 30
0.0
 11
1299.49825172121
 21
511.19999785427558
 31
0.0
  0
LINE
  5
883E
  8
5
 10
1281.99825172121
 20
489.49999785427548
 30
0.0
 11
1281.998251721209
 21
496.99999790174371
 31
0.0
  0
LINE
  5
883F
  8
5
 10
1316.99825172121
 20
489.49999785427548
 30
0.0
 11
1316.99825172121
 21
495.99999785424609
 31
0.0
  0
LINE
  5
8846
  8
5
 10
1282.49825172121
 20
488.99999785427548
 30
0.0
 11
1316.49825172121
 21
488.99999785427548
 31
0.0
  0
LINE
  5
8847
  8
5
 10
1281.99825172121
 20
489.49999785427548
 30
0.0
 11
1282.49825172121
 21
488.99999785427548
 31
0.0
  0
LINE
  5
8848
  8
5
 10
1316.99825172121
 20
489.49999785427548
 30
0.0
 11
1316.49825172121
 21
488.99999785427548
 31
0.0
  0
LINE
  5
886F
  8
5
 10
613.49998450279224
 20
500.99999774248857
 30
0.0
 11
613.49998450279236
 21
501.49999782444502
 31
0.0
  0
LINE
  5
8870
  8
5
 10
613.06698450279259
 20
500.99999774248857
 30
0.0
 11
613.06698450279259
 21
501.49999782444502
 31
0.0
  0
LINE
  5
8871
  8
5
 10
608.93298450279212
 20
500.99999774248857
 30
0.0
 11
608.93298450279224
 21
501.49999782444502
 31
0.0
  0
LINE
  5
8872
  8
5
 10
608.49998450279224
 20
500.99999774248857
 30
0.0
 11
608.49998450279236
 21
501.49999782444502
 31
0.0
  0
LINE
  5
889D
  8
5
 10
609.84528396441317
 20
324.49824676711643
 30
0.0
 11
608.69058342603387
 21
326.49824676711643
 31
0.0
  0
LINE
  5
889E
  8
5
 10
608.69058342603387
 20
326.49824676711643
 30
0.0
 11
609.84528396441317
 21
328.4982467671162
 31
0.0
  0
LINE
  5
889F
  8
5
 10
609.84528396441317
 20
328.4982467671162
 30
0.0
 11
612.154685041172
 21
328.4982467671162
 31
0.0
  0
LINE
  5
88A0
  8
5
 10
612.154685041172
 20
328.4982467671162
 30
0.0
 11
613.30938557955085
 21
326.4982467671162
 31
0.0
  0
LINE
  5
88A1
  8
5
 10
613.30938557955085
 20
326.4982467671162
 30
0.0
 11
612.15468504117143
 21
324.49824676711592
 31
0.0
  0
LINE
  5
88A2
  8
5
 10
612.15468504117143
 20
324.49824676711592
 30
0.0
 11
609.84528396441317
 21
324.49824676711643
 31
0.0
  0
CIRCLE
  5
88A3
  8
5
 10
610.99998450279224
 20
326.4982467671162
 30
0.0
 40
4.25
  0
LINE
  5
88A4
  8
5
 10
609.84528396441283
 20
217.50171221107169
 30
0.0
 11
608.6905834260333
 21
219.50171221107169
 31
0.0
  0
LINE
  5
88A5
  8
5
 10
608.6905834260333
 20
219.50171221107169
 30
0.0
 11
609.84528396441283
 21
221.50171221107149
 31
0.0
  0
LINE
  5
88A6
  8
5
 10
609.84528396441283
 20
221.50171221107149
 30
0.0
 11
612.15468504117143
 21
221.50171221107149
 31
0.0
  0
LINE
  5
88A7
  8
5
 10
612.15468504117143
 20
221.50171221107149
 30
0.0
 11
613.30938557955051
 21
219.50171221107149
 31
0.0
  0
LINE
  5
88A8
  8
5
 10
613.30938557955051
 20
219.50171221107149
 30
0.0
 11
612.15468504117098
 21
217.50171221107129
 31
0.0
  0
LINE
  5
88A9
  8
5
 10
612.15468504117098
 20
217.50171221107129
 30
0.0
 11
609.84528396441283
 21
217.50171221107169
 31
0.0
  0
CIRCLE
  5
88AA
  8
5
 10
610.99998450279179
 20
219.50171221107149
 30
0.0
 40
4.25
  0
LINE
  5
88AD
  8
0
 10
533.99998398574246
 20
281.4999794890935
 30
0.0
 11
533.99998398574246
 21
264.4999794890935
 31
0.0
  0
LINE
  5
88AF
  8
0
 10
498.99998398574252
 20
264.4999794890935
 30
0.0
 11
498.99998398574252
 21
281.4999794890935
 31
0.0
  0
LINE
  5
88B1
  8
1
 10
516.49998398574257
 20
286.99997948909339
 30
0.0
 11
516.49998398574257
 21
258.9999794890935
 31
0.0
  0
LINE
  5
88B2
  8
0
 10
533.50000381119503
 20
263.9999993145459
 30
0.0
 11
533.99998398574246
 21
264.4999794890935
 31
0.0
  0
LINE
  5
88B3
  8
0
 10
499.4999641602904
 20
263.99999931454568
 30
0.0
 11
498.99998398574252
 21
264.4999794890935
 31
0.0
  0
LINE
  5
88B4
  8
0
 10
498.99998398574252
 20
281.4999794890935
 30
0.0
 11
499.50000303633431
 21
281.99999853968518
 31
0.0
  0
LINE
  5
88B5
  8
0
 10
533.49996493515039
 20
281.99999853968541
 30
0.0
 11
533.99998398574246
 21
281.4999794890935
 31
0.0
  0
CIRCLE
  5
88B6
  8
0
 10
516.49998398574257
 20
272.9999794890935
 30
0.0
 40
4.75
  0
LINE
  5
88B7
  8
0
 10
263.99999931454641
 20
500.99999774248857
 30
0.0
 11
281.99999853968598
 21
500.99999774248852
 31
0.0
  0
LINE
  5
88B9
  8
0
 10
263.99999892711622
 20
500.49999774248857
 30
0.0
 11
264.49999892711622
 21
500.99999774248857
 31
0.0
  0
LINE
  5
88BC
  8
0
 10
281.99999892711622
 20
500.49999774248857
 30
0.0
 11
281.49999892711622
 21
500.99999774248857
 31
0.0
  0
LINE
  5
88C2
  8
0
 10
264.49999892711622
 20
488.99999774248857
 30
0.0
 11
281.49999892711622
 21
488.99999774248857
 31
0.0
  0
LINE
  5
88C3
  8
0
 10
263.99999892711622
 20
489.49999774248857
 30
0.0
 11
264.49999892711622
 21
488.99999774248857
 31
0.0
  0
LINE
  5
88C4
  8
0
 10
281.99999892711622
 20
489.49999774248857
 30
0.0
 11
281.49999892711622
 21
488.99999774248857
 31
0.0
  0
LINE
  5
88C6
  8
1
 10
516.49998398574257
 20
483.99999774248738
 30
0.0
 11
516.49998398574257
 21
511.19999774248748
 31
0.0
  0
LINE
  5
88C8
  8
0
 10
533.99998398574246
 20
489.49999774248738
 30
0.0
 11
533.99998398574246
 21
495.99999785421198
 31
0.0
  0
LINE
  5
88C9
  8
0
 10
498.99998398574252
 20
489.49999774248738
 30
0.0
 11
498.99998398574257
 21
495.9999978542092
 31
0.0
  0
LINE
  5
88D0
  8
0
 10
533.49998398574257
 20
488.99999774248738
 30
0.0
 11
499.49998398574257
 21
488.99999774248738
 31
0.0
  0
LINE
  5
88D1
  8
0
 10
533.99998398574246
 20
489.49999774248738
 30
0.0
 11
533.49998398574257
 21
488.99999774248738
 31
0.0
  0
LINE
  5
88D2
  8
0
 10
498.99998398574252
 20
489.49999774248738
 30
0.0
 11
499.49998398574257
 21
488.99999774248738
 31
0.0
  0
LINE
  5
88D4
  8
0
 10
922.99998549667896
 20
281.49997948909407
 30
0.0
 11
922.99998549667896
 21
264.49997948909407
 31
0.0
  0
LINE
  5
88D6
  8
0
 10
957.99998549667907
 20
264.49997948909407
 30
0.0
 11
957.99998549667907
 21
281.49997948909407
 31
0.0
  0
LINE
  5
88D8
  8
1
 10
940.49998549667896
 20
286.99997948909419
 30
0.0
 11
940.49998549667896
 21
258.99997948909407
 31
0.0
  0
LINE
  5
88D9
  8
0
 10
923.49996567122662
 20
263.99999931454659
 30
0.0
 11
922.99998549667896
 21
264.49997948909407
 31
0.0
  0
LINE
  5
88DA
  8
0
 10
957.50000532213141
 20
263.99999931454659
 30
0.0
 11
957.99998549667907
 21
264.49997948909407
 31
0.0
  0
LINE
  5
88DB
  8
0
 10
957.99998549667907
 20
281.49997948909407
 30
0.0
 11
957.499966446087
 21
281.9999985396862
 31
0.0
  0
LINE
  5
88DC
  8
0
 10
923.50000454727115
 20
281.9999985396862
 30
0.0
 11
922.99998549667896
 21
281.49997948909407
 31
0.0
  0
CIRCLE
  5
88DD
  8
0
 10
940.49998549667896
 20
272.99997948909407
 30
0.0
 40
4.75
  0
LINE
  5
88DE
  8
0
 10
1254.9999840557571
 20
500.99999774248738
 30
0.0
 11
1236.999984830617
 21
500.99999774248749
 31
0.0
  0
LINE
  5
88E0
  8
0
 10
1254.999984443187
 20
500.49999774248738
 30
0.0
 11
1254.499984443187
 21
500.99999774248738
 31
0.0
  0
LINE
  5
88E3
  8
0
 10
1236.999984443187
 20
500.49999774248738
 30
0.0
 11
1237.499984443187
 21
500.99999774248738
 31
0.0
  0
LINE
  5
88E9
  8
0
 10
1254.499984443187
 20
488.99999774248738
 30
0.0
 11
1237.499984443187
 21
488.99999774248738
 31
0.0
  0
LINE
  5
88EA
  8
0
 10
1254.999984443187
 20
489.49999774248738
 30
0.0
 11
1254.499984443187
 21
488.99999774248738
 31
0.0
  0
LINE
  5
88EB
  8
0
 10
1236.999984443187
 20
489.49999774248738
 30
0.0
 11
1237.499984443187
 21
488.99999774248738
 31
0.0
  0
LINE
  5
88ED
  8
1
 10
940.49998549667896
 20
483.99999774248738
 30
0.0
 11
940.49998549667896
 21
511.19999774248748
 31
0.0
  0
LINE
  5
88EF
  8
0
 10
922.99998549667896
 20
489.49999774248738
 30
0.0
 11
922.99998549667896
 21
495.99999785424438
 31
0.0
  0
LINE
  5
88F0
  8
0
 10
957.99998549667907
 20
489.49999774248738
 30
0.0
 11
957.99998549667907
 21
495.99999785424723
 31
0.0
  0
LINE
  5
88F7
  8
0
 10
923.49998549667896
 20
488.99999774248738
 30
0.0
 11
957.49998549667896
 21
488.99999774248738
 31
0.0
  0
LINE
  5
88F8
  8
0
 10
922.99998549667896
 20
489.49999774248738
 30
0.0
 11
923.49998549667896
 21
488.99999774248738
 31
0.0
  0
LINE
  5
88F9
  8
0
 10
957.99998549667907
 20
489.49999774248738
 30
0.0
 11
957.49998549667896
 21
488.99999774248738
 31
0.0
  0
LINE
  5
8920
  8
0
 10
275.49999892711622
 20
500.99999774248857
 30
0.0
 11
275.49999892711622
 21
501.49999782444502
 31
0.0
  0
LINE
  5
8921
  8
3
 10
275.0669989271164
 20
500.99999774248857
 30
0.0
 11
275.0669989271164
 21
501.4999978244449
 31
0.0
  0
LINE
  5
8922
  8
3
 10
270.93299892711588
 20
500.99999774248857
 30
0.0
 11
270.93299892711588
 21
501.49999782444502
 31
0.0
  0
LINE
  5
8923
  8
0
 10
270.49999892711622
 20
500.99999774248857
 30
0.0
 11
270.49999892711622
 21
501.49999782444502
 31
0.0
  0
LINE
  5
894A
  8
0
 10
1248.499984443187
 20
500.99999774248738
 30
0.0
 11
1248.499984443187
 21
501.49999782444382
 31
0.0
  0
LINE
  5
894B
  8
3
 10
1248.066984443187
 20
500.99999774248738
 30
0.0
 11
1248.066984443187
 21
501.49999782444382
 31
0.0
  0
LINE
  5
894C
  8
3
 10
1243.932984443187
 20
500.99999774248738
 30
0.0
 11
1243.932984443187
 21
501.49999782444382
 31
0.0
  0
LINE
  5
894D
  8
0
 10
1243.499984443187
 20
500.99999774248738
 30
0.0
 11
1243.499984443187
 21
501.49999782444382
 31
0.0
  0
LINE
  5
894E
  8
0
 10
514.4999839857428
 20
274.15468002747252
 30
0.0
 11
516.49998398574269
 21
275.30938056585182
 31
0.0
  0
LINE
  5
894F
  8
0
 10
516.49998398574269
 20
275.30938056585182
 30
0.0
 11
518.49998398574246
 21
274.15468002747252
 31
0.0
  0
LINE
  5
8950
  8
0
 10
518.49998398574246
 20
274.15468002747252
 30
0.0
 11
518.49998398574246
 21
271.84527895071369
 31
0.0
  0
LINE
  5
8951
  8
0
 10
518.49998398574246
 20
271.84527895071369
 30
0.0
 11
516.49998398574257
 21
270.69057841233479
 31
0.0
  0
LINE
  5
8952
  8
0
 10
516.49998398574257
 20
270.69057841233479
 30
0.0
 11
514.49998398574235
 21
271.84527895071437
 31
0.0
  0
LINE
  5
8953
  8
0
 10
514.49998398574235
 20
271.84527895071437
 30
0.0
 11
514.4999839857428
 21
274.15468002747252
 31
0.0
  0
CIRCLE
  5
8954
  8
0
 10
516.49998398574257
 20
272.9999794890935
 30
0.0
 40
4.25
  0
LINE
  5
8955
  8
0
 10
938.4999854966793
 20
274.1546800274732
 30
0.0
 11
940.49998549667919
 21
275.30938056585251
 31
0.0
  0
LINE
  5
8956
  8
0
 10
940.49998549667919
 20
275.30938056585251
 30
0.0
 11
942.49998549667896
 21
274.1546800274732
 31
0.0
  0
LINE
  5
8957
  8
0
 10
942.49998549667896
 20
274.1546800274732
 30
0.0
 11
942.49998549667896
 21
271.84527895071437
 31
0.0
  0
LINE
  5
8958
  8
0
 10
942.49998549667896
 20
271.84527895071437
 30
0.0
 11
940.49998549667896
 21
270.69057841233553
 31
0.0
  0
LINE
  5
8959
  8
0
 10
940.49998549667896
 20
270.69057841233553
 30
0.0
 11
938.49998549667885
 21
271.845278950715
 31
0.0
  0
LINE
  5
895A
  8
0
 10
938.49998549667885
 20
271.845278950715
 30
0.0
 11
938.4999854966793
 21
274.1546800274732
 31
0.0
  0
CIRCLE
  5
895B
  8
0
 10
940.49998549667896
 20
272.99997948909407
 30
0.0
 40
4.25
  0
ARC
  5
895C
  8
0
 10
493.99998497962929
 20
272.99999892711548
 30
0.0
 40
10.0
 50
59.328800430912523
 51
72.54239687626783
  0
ARC
  5
895D
  8
0
 10
962.99998450279224
 20
272.99999892711639
 30
0.0
 40
10.0
 50
239.3289629913038
 51
252.5423968762764
  0
LINE
  5
895F
  8
0
 10
1254.999984443187
 20
495.9999978542462
 30
0.0
 11
1275.999983772635
 21
495.99999785424609
 31
0.0
  0
LINE
  5
8960
  8
0
 10
263.99999892711622
 20
495.99999785435659
 30
0.0
 11
242.99999959750039
 21
495.99999785441531
 31
0.0
  0
LINE
  5
8AD5
  8
1
 10
219.50173164908981
 20
483.99999785426661
 30
0.0
 11
219.50173164908981
 21
511.1999978542666
 31
0.0
  0
LINE
  5
8AD6
  8
5
 10
237.00173164908981
 20
489.4999978542665
 30
0.0
 11
237.00173164908981
 21
496.99999790174371
 31
0.0
  0
LINE
  5
8AD7
  8
5
 10
202.00173164908981
 20
489.4999978542665
 30
0.0
 11
202.00173164908981
 21
495.99999785424609
 31
0.0
  0
LINE
  5
8AD8
  8
5
 10
236.50173164908981
 20
488.9999978542665
 30
0.0
 11
202.50173164908981
 21
488.9999978542665
 31
0.0
  0
LINE
  5
8AD9
  8
5
 10
237.00173164908981
 20
489.4999978542665
 30
0.0
 11
236.50173164908981
 21
488.9999978542665
 31
0.0
  0
LINE
  5
8ADA
  8
5
 10
202.00173164908981
 20
489.4999978542665
 30
0.0
 11
202.50173164908981
 21
488.9999978542665
 31
0.0
  0
LINE
  5
8ADB
  8
1
 10
326.49826620513858
 20
483.99999785427548
 30
0.0
 11
326.49826620513858
 21
511.19999785427558
 31
0.0
  0
LINE
  5
8ADC
  8
5
 10
308.99826620513869
 20
489.49999785427548
 30
0.0
 11
308.99826620513841
 21
496.99999790174371
 31
0.0
  0
LINE
  5
8ADD
  8
5
 10
343.99826620513858
 20
489.49999785427548
 30
0.0
 11
343.99826620513858
 21
495.99999785424609
 31
0.0
  0
LINE
  5
8ADE
  8
5
 10
309.49826620513858
 20
488.99999785427548
 30
0.0
 11
343.49826620513858
 21
488.99999785427548
 31
0.0
  0
LINE
  5
8ADF
  8
5
 10
308.99826620513869
 20
489.49999785427548
 30
0.0
 11
309.49826620513858
 21
488.99999785427548
 31
0.0
  0
LINE
  5
8AE0
  8
5
 10
343.99826620513858
 20
489.49999785427548
 30
0.0
 11
343.49826620513858
 21
488.99999785427548
 31
0.0
  0
ENDSEC
  0
EOF
