  0
SECTION
  2
HEADER
  9
$ACADVER
  1
AC1009
  9
$INSBASE
 10
0.0
 20
0.0
 30
0.0
  9
$EXTMIN
 10
0.0
 20
-2.960436562073669
 30
0.0
  9
$EXTMAX
 10
122.5000000000001
 20
162.0
 30
0.0
  9
$LIMMIN
 10
0.0
 20
0.0
  9
$LIMMAX
 10
187.5
 20
135.0
  9
$ORTHOMODE
 70
     1
  9
$REGENMODE
 70
     1
  9
$FILLMODE
 70
     1
  9
$QTEXTMODE
 70
     0
  9
$MIRRTEXT
 70
     0
  9
$DRAGMODE
 70
     2
  9
$LTSCALE
 40
5.0
  9
$OSMODE
 70
  3071
  9
$ATTMODE
 70
     1
  9
$TEXTSIZE
 40
4.0
  9
$TRACEWID
 40
0.05
  9
$TEXTSTYLE
  7
STANDARD
  9
$CLAYER
  8
0
  9
$CELTYPE
  6
BYLAYER
  9
$CECOLOR
 62
   256
  9
$DIMSCALE
 40
0.5
  9
$DIMASZ
 40
3.0
  9
$DIMEXO
 40
2.0
  9
$DIMDLI
 40
0.38
  9
$DIMRND
 40
0.0
  9
$DIMDLE
 40
0.0
  9
$DIMEXE
 40
2.0
  9
$DIMTP
 40
0.0
  9
$DIMTM
 40
0.0
  9
$DIMTXT
 40
3.0
  9
$DIMCEN
 40
0.0
  9
$DIMTSZ
 40
0.0
  9
$DIMTOL
 70
     0
  9
$DIMLIM
 70
     0
  9
$DIMTIH
 70
     0
  9
$DIMTOH
 70
     0
  9
$DIMSE1
 70
     0
  9
$DIMSE2
 70
     0
  9
$DIMTAD
 70
     1
  9
$DIMZIN
 70
     0
  9
$DIMBLK
  1

  9
$DIMASO
 70
     0
  9
$DIMSHO
 70
     0
  9
$DIMPOST
  1

  9
$DIMAPOST
  1

  9
$DIMALT
 70
     0
  9
$DIMALTD
 70
     2
  9
$DIMALTF
 40
25.399999999999999
  9
$DIMLFAC
 40
1.0
  9
$DIMTOFL
 70
     0
  9
$DIMTVP
 40
1.6000000000000001
  9
$DIMTIX
 70
     1
  9
$DIMSOXD
 70
     0
  9
$DIMSAH
 70
     0
  9
$DIMBLK1
  1

  9
$DIMBLK2
  1

  9
$DIMSTYLE
  2
STANDARD
  9
$DIMCLRD
 70
     0
  9
$DIMCLRE
 70
     0
  9
$DIMCLRT
 70
     0
  9
$DIMTFAC
 40
1.0
  9
$DIMGAP
 40
0.09
  9
$LUNITS
 70
     2
  9
$LUPREC
 70
     4
  9
$SKETCHINC
 40
0.1
  9
$FILLETRAD
 40
1.0
  9
$AUNITS
 70
     0
  9
$AUPREC
 70
     0
  9
$MENU
  1
E:\r13\win\SUPPORT\ACAD
  9
$ELEVATION
 40
0.0
  9
$PELEVATION
 40
0.0
  9
$THICKNESS
 40
0.0
  9
$LIMCHECK
 70
     0
  9
$BLIPMODE
 70
     0
  9
$CHAMFERA
 40
0.0
  9
$CHAMFERB
 40
0.0
  9
$SKPOLY
 70
     0
  9
$TDCREATE
 40
2449840.6143865739
  9
$TDUPDATE
 40
2456597.6816143291
  9
$TDINDWG
 40
0.2964378241
  9
$TDUSRTIMER
 40
0.2964378241
  9
$USRTIMER
 70
     1
  9
$ANGBASE
 50
0.0
  9
$ANGDIR
 70
     0
  9
$PDMODE
 70
     0
  9
$PDSIZE
 40
0.0
  9
$PLINEWID
 40
0.0
  9
$COORDS
 70
     1
  9
$SPLFRAME
 70
     0
  9
$SPLINETYPE
 70
     6
  9
$SPLINESEGS
 70
     8
  9
$ATTDIA
 70
     0
  9
$ATTREQ
 70
     1
  9
$HANDLING
 70
     1
  9
$HANDSEED
  5
1A14
  9
$SURFTAB1
 70
     6
  9
$SURFTAB2
 70
     6
  9
$SURFTYPE
 70
     6
  9
$SURFU
 70
     6
  9
$SURFV
 70
     6
  9
$UCSNAME
  2

  9
$UCSORG
 10
0.0
 20
0.0
 30
0.0
  9
$UCSXDIR
 10
1.0
 20
0.0
 30
0.0
  9
$UCSYDIR
 10
0.0
 20
1.0
 30
0.0
  9
$PUCSNAME
  2

  9
$PUCSORG
 10
0.0
 20
0.0
 30
0.0
  9
$PUCSXDIR
 10
1.0
 20
0.0
 30
0.0
  9
$PUCSYDIR
 10
0.0
 20
1.0
 30
0.0
  9
$USERI1
 70
     0
  9
$USERI2
 70
     1
  9
$USERI3
 70
     1
  9
$USERI4
 70
     0
  9
$USERI5
 70
     0
  9
$USERR1
 40
0.0
  9
$USERR2
 40
0.0
  9
$USERR3
 40
0.0
  9
$USERR4
 40
0.0
  9
$USERR5
 40
0.0
  9
$WORLDVIEW
 70
     1
  9
$SHADEDGE
 70
     3
  9
$SHADEDIF
 70
    70
  9
$TILEMODE
 70
     1
  9
$MAXACTVP
 70
    16
  9
$PLIMCHECK
 70
     0
  9
$PEXTMIN
 10
1.0000000000000000E+020
 20
1.0000000000000000E+020
 30
1.0000000000000000E+020
  9
$PEXTMAX
 10
-1.0000000000000000E+020
 20
-1.0000000000000000E+020
 30
-1.0000000000000000E+020
  9
$PLIMMIN
 10
0.0
 20
0.0
  9
$PLIMMAX
 10
12.0
 20
9.0
  9
$UNITMODE
 70
     0
  9
$VISRETAIN
 70
     0
  9
$PLINEGEN
 70
     0
  9
$PSLTSCALE
 70
     0
  0
ENDSEC
  0
SECTION
  2
TABLES
  0
TABLE
  2
VPORT
 70
     1
  0
VPORT
  2
*ACTIVE
 70
     0
 10
0.0
 20
0.0
 11
1.0
 21
1.0
 12
93.747139195326156
 22
79.873987452165849
 13
0.0
 23
0.0
 14
5.0
 24
5.0
 15
5.0
 25
5.0
 16
0.0
 26
0.0
 36
1.0
 17
0.0
 27
0.0
 37
0.0
 40
167.58675715799589
 41
2.304913294797688
 42
50.0
 43
0.0
 44
0.0
 50
0.0
 51
0.0
 71
     0
 72
   100
 73
     1
 74
     0
 75
     0
 76
     0
 77
     0
 78
     0
  0
ENDTAB
  0
TABLE
  2
LTYPE
 70
     4
  0
LTYPE
  2
CONTINUOUS
 70
     0
  3
Solid Line
 72
    65
 73
     0
 40
0.0
  0
LTYPE
  2
CENTER
 70
     0
  3
____ _ ____ _ ____ _ ____ _ ____ _ ____ _ ____
 72
    65
 73
     4
 40
2.0
 49
1.25
 49
-0.25
 49
0.25
 49
-0.25
  0
LTYPE
  2
HIDDEN
 70
     0
  3
_ _ _ _ _ _ _ _ _ _ _ _ _ _ _ _ _ _ _ _ _ _ _
 72
    65
 73
     2
 40
0.375
 49
0.25
 49
-0.125
  0
LTYPE
  2
PHANTOM2
 70
     0
  3
___ _ _ ___ _ _ ___ _ _ ___ _ _
 72
    65
 73
     6
 40
1.25
 49
0.625
 49
-0.125
 49
0.125
 49
-0.125
 49
0.125
 49
-0.125
  0
ENDTAB
  0
TABLE
  2
LAYER
 70
     3
  0
LAYER
  2
0
 70
     0
 62
     7
  6
CONTINUOUS
  0
LAYER
  2
1
 70
     0
 62
     1
  6
CENTER
  0
LAYER
  2
2
 70
     0
 62
     2
  6
HIDDEN
  0
ENDTAB
  0
TABLE
  2
STYLE
 70
     2
  0
STYLE
  2
STANDARD
 70
     0
 40
0.0
 41
1.0
 50
0.0
 71
     0
 42
4.0
  3
TXT
  4
BIGFONT
  0
STYLE
  2
STANDARD1
 70
     0
 40
0.0
 41
1.0
 50
0.0
 71
     0
 42
3.0
  3
txt
  4

  0
ENDTAB
  0
TABLE
  2
VIEW
 70
     1
  0
VIEW
  2
ALL
 70
     0
 40
179.66152299999999
 10
141.903918
 20
89.830760999999995
 41
0.0
 11
0.0
 21
0.0
 31
1.0
 12
0.0
 22
0.0
 32
0.0
 42
0.0
 43
0.0
 44
0.0
 50
0.0
 71
     0
  0
ENDTAB
  0
TABLE
  2
UCS
 70
     0
  0
ENDTAB
  0
TABLE
  2
APPID
 70
     5
  0
APPID
  2
ACAD
 70
     0
  0
APPID
  2
DCO15
 70
     0
  0
APPID
  2
ACAD_EXEMPT_FROM_CAD_STANDARDS
 70
     0
  0
APPID
  2
ACAD_MLEADERVER
 70
     0
  0
APPID
  2
ACAD_NAV_VCDISPLAY
 70
     0
  0
ENDTAB
  0
TABLE
  2
DIMSTYLE
 70
     1
  0
DIMSTYLE
  2
STANDARD
 70
     0
  3

  4

  5

  6

  7

 40
1.0
 41
0.18
 42
0.0625
 43
0.38
 44
0.18
 45
0.0
 46
0.0
 47
0.0
 48
0.0
140
0.18
141
0.09
142
0.0
143
25.399999999999999
144
1.0
145
0.0
146
1.0
147
0.09
 71
     0
 72
     0
 73
     1
 74
     1
 75
     0
 76
     0
 77
     0
 78
     0
170
     0
171
     2
172
     0
173
     0
174
     0
175
     0
176
     0
177
     0
178
     0
  0
ENDTAB
  0
ENDSEC
  0
SECTION
  2
BLOCKS
  0
BLOCK
  8
0
  2
$MODEL_SPACE
 70
     0
 10
0.0
 20
0.0
 30
0.0
  3
$MODEL_SPACE
  1

  0
ENDBLK
  5
1BD
  8
0
  0
BLOCK
 67
     1
  8
0
  2
$PAPER_SPACE
 70
     0
 10
0.0
 20
0.0
 30
0.0
  3
$PAPER_SPACE
  1

  0
ENDBLK
  5
1BB
 67
     1
  8
0
  0
ENDSEC
  0
SECTION
  2
ENTITIES
  0
ARC
  5
16A2
  8
2
 10
100.10000000000009
 20
99.500000000000043
 30
0.0
 40
0.5000000000000028
 50
53.130102354156669
 51
90.0
  0
ARC
  5
16A3
  8
2
 10
119.90000000000011
 20
99.500000000000043
 30
0.0
 40
0.5000000000000036
 50
90.0
 51
126.8698976458433
  0
ARC
  5
16A4
  8
0
 10
99.485506906490514
 20
98.259662062339757
 30
0.0
 40
1.999999999999996
 50
119.52171929518489
 51
173.09814565285629
  0
ARC
  5
16A5
  8
0
 10
120.5144930935096
 20
98.259662062339757
 30
0.0
 40
1.9999999999999969
 50
6.9018543471436766
 51
60.478280704814971
  0
LINE
  5
16A6
  8
0
 10
122.5
 20
98.200000000000031
 30
0.0
 11
122.5
 21
98.500000000000014
 31
0.0
  0
LINE
  5
16A7
  8
0
 10
97.500000000000071
 20
98.500000000000043
 30
0.0
 11
97.500000000000071
 21
98.200000000000074
 31
0.0
  0
LINE
  5
16A8
  8
0
 10
117.0
 20
91.000000000000014
 30
0.0
 11
122.5
 21
98.200000000000031
 31
0.0
  0
LINE
  5
16A9
  8
0
 10
97.500000000000071
 20
98.200000000000074
 30
0.0
 11
103.0
 21
91.000000000000043
 31
0.0
  0
LINE
  5
16AC
  8
0
 10
116.4956367322509
 20
82.300000000000026
 30
0.0
 11
117.0
 21
82.799980961532114
 31
0.0
  0
LINE
  5
16AD
  8
0
 10
103.0000000000001
 20
82.799980961532142
 30
0.0
 11
103.5043632677493
 21
82.300000000000054
 31
0.0
  0
LINE
  5
16AE
  8
0
 10
113.0
 20
51.800000000000033
 30
0.0
 11
113.0
 21
82.300000000000026
 31
0.0
  0
LINE
  5
16AF
  8
0
 10
107.0
 20
82.300000000000026
 30
0.0
 11
107.0
 21
51.800000000000033
 31
0.0
  0
LINE
  5
16B0
  8
0
 10
112.13397459621559
 20
50.300000000000018
 30
0.0
 11
113.0
 21
51.800000000000033
 31
0.0
  0
LINE
  5
16B1
  8
0
 10
107.0
 20
51.800000000000033
 30
0.0
 11
107.8660254037845
 21
50.300000000000018
 31
0.0
  0
ARC
  5
16B2
  8
2
 10
110.0000000000001
 20
112.6999999999999
 30
0.0
 40
15.99999999999992
 50
233.13010235415601
 51
306.86989764584399
  0
LINE
  5
16B6
  8
0
 10
98.500000000000057
 20
100.0
 30
0.0
 11
121.5
 21
100.0
 31
0.0
  0
LINE
  5
16B7
  8
0
 10
97.500000000000071
 20
98.500000000000043
 30
0.0
 11
122.5
 21
98.500000000000014
 31
0.0
  0
LINE
  5
16B8
  8
0
 10
97.500000000000071
 20
98.200000000000074
 30
0.0
 11
122.5
 21
98.200000000000031
 31
0.0
  0
LINE
  5
16BA
  8
0
 10
103.0
 20
82.799980961532142
 30
0.0
 11
117.0
 21
82.799980961532114
 31
0.0
  0
LINE
  5
16BB
  8
0
 10
103.5043632677493
 20
82.300000000000054
 30
0.0
 11
116.4956367322509
 21
82.300000000000026
 31
0.0
  0
LINE
  5
16BC
  8
0
 10
107.0
 20
51.800000000000033
 30
0.0
 11
113.0
 21
51.800000000000033
 31
0.0
  0
LINE
  5
16BD
  8
0
 10
107.8660254037845
 20
50.300000000000018
 30
0.0
 11
112.13397459621559
 21
50.300000000000018
 31
0.0
  0
POLYLINE
  5
16C8
  8
0
 66
     1
 10
0.0
 20
0.0
 30
0.0
  0
VERTEX
  5
18CE
  8
0
 10
108.5196394960538
 20
93.851507799302297
 30
0.0
  0
VERTEX
  5
18CF
  8
0
 10
108.51379072531419
 20
93.903131444186286
 30
0.0
  0
VERTEX
  5
18D0
  8
0
 10
108.5050690015474
 20
94.007970198483079
 30
0.0
  0
VERTEX
  5
18D1
  8
0
 10
108.50057404128761
 20
94.114506007814256
 30
0.0
  0
VERTEX
  5
18D2
  8
0
 10
108.5
 20
94.168250142521984
 30
0.0
  0
SEQEND
  5
18D3
  8
0
  0
POLYLINE
  5
16C9
  8
0
 66
     1
 10
0.0
 20
0.0
 30
0.0
  0
VERTEX
  5
18D4
  8
0
 10
108.5
 20
94.168250142521984
 30
0.0
  0
VERTEX
  5
18D5
  8
0
 10
108.5001008070055
 20
94.190704287323271
 30
0.0
  0
VERTEX
  5
18D6
  8
0
 10
108.5009135894821
 20
94.235714865113934
 30
0.0
  0
VERTEX
  5
18D7
  8
0
 10
108.5025547529517
 20
94.280831179021575
 30
0.0
  0
VERTEX
  5
18D8
  8
0
 10
108.50369078225719
 20
94.303417542294795
 30
0.0
  0
VERTEX
  5
18D9
  8
0
 10
108.5050395385462
 20
94.326016636862747
 30
0.0
  0
VERTEX
  5
18DA
  8
0
 10
108.5083821223933
 20
94.371234911776199
 30
0.0
  0
VERTEX
  5
18DB
  8
0
 10
108.5125956383261
 20
94.4164500021284
 30
0.0
  0
VERTEX
  5
18DC
  8
0
 10
108.5176922057347
 20
94.461626292666537
 30
0.0
  0
VERTEX
  5
18DD
  8
0
 10
108.5236829633828
 20
94.506728617309321
 30
0.0
  0
VERTEX
  5
18DE
  8
0
 10
108.53057811017101
 20
94.551722323887262
 30
0.0
  0
VERTEX
  5
18DF
  8
0
 10
108.5343677714891
 20
94.574167773541333
 30
0.0
  0
VERTEX
  5
18E0
  8
0
 10
108.53838695398009
 20
94.596573341053258
 30
0.0
  0
VERTEX
  5
18E1
  8
0
 10
108.54711796989309
 20
94.641248247471268
 30
0.0
  0
VERTEX
  5
18E2
  8
0
 10
108.5567788516059
 20
94.685714265947325
 30
0.0
  0
VERTEX
  5
18E3
  8
0
 10
108.56737645259101
 20
94.729938812584805
 30
0.0
  0
VERTEX
  5
18E4
  8
0
 10
108.5789167230509
 20
94.773889249393804
 30
0.0
  0
VERTEX
  5
18E5
  8
0
 10
108.5914046988384
 20
94.817532932452067
 30
0.0
  0
VERTEX
  5
18E6
  8
0
 10
108.598005398393
 20
94.8392295513314
 30
0.0
  0
VERTEX
  5
18E7
  8
0
 10
108.6048444956465
 20
94.860837264048072
 30
0.0
  0
VERTEX
  5
18E8
  8
0
 10
108.61923930786649
 20
94.903769743807004
 30
0.0
  0
VERTEX
  5
18E9
  8
0
 10
108.6345914126302
 20
94.94629801914671
 30
0.0
  0
VERTEX
  5
18EA
  8
0
 10
108.642626912804
 20
94.967400522715025
 30
0.0
  0
VERTEX
  5
18EB
  8
0
 10
108.6509021796811
 20
94.988389935344273
 30
0.0
  0
VERTEX
  5
18EC
  8
0
 10
108.6681720878527
 20
95.030013585414324
 30
0.0
  0
VERTEX
  5
18ED
  8
0
 10
108.6864007490682
 20
95.071137359903986
 30
0.0
  0
VERTEX
  5
18EE
  8
0
 10
108.69587426157049
 20
95.091502009442834
 30
0.0
  0
VERTEX
  5
18EF
  8
0
 10
108.7055869409205
 20
95.111729996589489
 30
0.0
  0
VERTEX
  5
18F0
  8
0
 10
108.7257286490297
 20
95.151760629912687
 30
0.0
  0
VERTEX
  5
18F1
  8
0
 10
108.7468231205098
 20
95.191198839813865
 30
0.0
  0
VERTEX
  5
18F2
  8
0
 10
108.7688669299998
 20
95.230014699392996
 30
0.0
  0
VERTEX
  5
18F3
  8
0
 10
108.79185605980371
 20
95.268178820558347
 30
0.0
  0
VERTEX
  5
18F4
  8
0
 10
108.8157859957427
 20
95.305662396490121
 30
0.0
  0
VERTEX
  5
18F5
  8
0
 10
108.8281022470421
 20
95.324140146212486
 30
0.0
  0
VERTEX
  5
18F6
  8
0
 10
108.8406518403099
 20
95.342437239349536
 30
0.0
  0
VERTEX
  5
18F7
  8
0
 10
108.8665032769696
 20
95.378550269167945
 30
0.0
  0
VERTEX
  5
18F8
  8
0
 10
108.89394684303301
 20
95.414746673787434
 30
0.0
  0
VERTEX
  5
18F9
  8
0
 10
108.92314366837731
 20
95.451057539607746
 30
0.0
  0
VERTEX
  5
18FA
  8
0
 10
108.954073185515
 20
95.487273695980605
 30
0.0
  0
VERTEX
  5
18FB
  8
0
 10
108.9867020992132
 20
95.523190964184835
 30
0.0
  0
VERTEX
  5
18FC
  8
0
 10
109.003639862117
 20
95.540975480994163
 30
0.0
  0
VERTEX
  5
18FD
  8
0
 10
109.0209840853059
 20
95.558611823446782
 30
0.0
  0
VERTEX
  5
18FE
  8
0
 10
109.05685994266049
 20
95.593347250256969
 30
0.0
  0
VERTEX
  5
18FF
  8
0
 10
109.0942583877021
 20
95.627218769624477
 30
0.0
  0
VERTEX
  5
1900
  8
0
 10
109.1330976611403
 20
95.660060672151104
 30
0.0
  0
VERTEX
  5
1901
  8
0
 10
109.1732830189945
 20
95.691718429849047
 30
0.0
  0
VERTEX
  5
1902
  8
0
 10
109.2146993123032
 20
95.722044441311894
 30
0.0
  0
VERTEX
  5
1903
  8
0
 10
109.2358272586407
 20
95.736664356628879
 30
0.0
  0
VERTEX
  5
1904
  8
0
 10
109.257210212396
 20
95.750900376655665
 30
0.0
  0
VERTEX
  5
1905
  8
0
 10
109.3006593508064
 20
95.778160647896257
 30
0.0
  0
VERTEX
  5
1906
  8
0
 10
109.3448723744179
 20
95.803715816109857
 30
0.0
  0
VERTEX
  5
1907
  8
0
 10
109.3896602910949
 20
95.827475908531568
 30
0.0
  0
VERTEX
  5
1908
  8
0
 10
109.4351602849034
 20
95.849528811186076
 30
0.0
  0
VERTEX
  5
1909
  8
0
 10
109.48293606857651
 20
95.870526121862341
 30
0.0
  0
VERTEX
  5
190A
  8
0
 10
109.5076931878905
 20
95.880568048437183
 30
0.0
  0
VERTEX
  5
190B
  8
0
 10
109.5329804986864
 20
95.890250079299065
 30
0.0
  0
VERTEX
  5
190C
  8
0
 10
109.5849840160229
 20
95.908382422626389
 30
0.0
  0
VERTEX
  5
190D
  8
0
 10
109.63860489890109
 20
95.924647410826324
 30
0.0
  0
VERTEX
  5
190E
  8
0
 10
109.6934817877903
 20
95.938820164375514
 30
0.0
  0
VERTEX
  5
190F
  8
0
 10
109.7492498795657
 20
95.950732005249805
 30
0.0
  0
VERTEX
  5
1910
  8
0
 10
109.8055231905624
 20
95.960266400821311
 30
0.0
  0
VERTEX
  5
1911
  8
0
 10
109.8337155166921
 20
95.964119596167635
 30
0.0
  0
VERTEX
  5
1912
  8
0
 10
109.86186900642601
 20
95.96735884477313
 30
0.0
  0
VERTEX
  5
1913
  8
0
 10
109.917824432887
 20
95.972005895023258
 30
0.0
  0
VERTEX
  5
1914
  8
0
 10
109.9729188942447
 20
95.974269853945685
 30
0.0
  0
VERTEX
  5
1915
  8
0
 10
110.0
 20
95.974545454545492
 30
0.0
  0
VERTEX
  5
1916
  8
0
 10
110.0270811057554
 20
95.974269853945685
 30
0.0
  0
VERTEX
  5
1917
  8
0
 10
110.0821755671131
 20
95.972005895023258
 30
0.0
  0
VERTEX
  5
1918
  8
0
 10
110.13813099357409
 20
95.96735884477313
 30
0.0
  0
VERTEX
  5
1919
  8
0
 10
110.166284483308
 20
95.964119596167635
 30
0.0
  0
VERTEX
  5
191A
  8
0
 10
110.1944768094377
 20
95.960266400821311
 30
0.0
  0
VERTEX
  5
191B
  8
0
 10
110.2507501204343
 20
95.950732005249805
 30
0.0
  0
VERTEX
  5
191C
  8
0
 10
110.3065182122097
 20
95.938820164375514
 30
0.0
  0
VERTEX
  5
191D
  8
0
 10
110.36139510109901
 20
95.924647410826324
 30
0.0
  0
VERTEX
  5
191E
  8
0
 10
110.4150159839773
 20
95.908382422626389
 30
0.0
  0
VERTEX
  5
191F
  8
0
 10
110.4670195013137
 20
95.890250079299065
 30
0.0
  0
VERTEX
  5
1920
  8
0
 10
110.4923068121096
 20
95.880568048437183
 30
0.0
  0
VERTEX
  5
1921
  8
0
 10
110.51706393142349
 20
95.870526121862341
 30
0.0
  0
VERTEX
  5
1922
  8
0
 10
110.5648397150967
 20
95.849528811186076
 30
0.0
  0
VERTEX
  5
1923
  8
0
 10
110.6103397089052
 20
95.827475908531568
 30
0.0
  0
VERTEX
  5
1924
  8
0
 10
110.6551276255822
 20
95.803715816109857
 30
0.0
  0
VERTEX
  5
1925
  8
0
 10
110.6993406491937
 20
95.778160647896257
 30
0.0
  0
VERTEX
  5
1926
  8
0
 10
110.7427897876041
 20
95.750900376655665
 30
0.0
  0
VERTEX
  5
1927
  8
0
 10
110.7641727413594
 20
95.736664356628879
 30
0.0
  0
VERTEX
  5
1928
  8
0
 10
110.785300687697
 20
95.722044441311894
 30
0.0
  0
VERTEX
  5
1929
  8
0
 10
110.8267169810055
 20
95.691718429849047
 30
0.0
  0
VERTEX
  5
192A
  8
0
 10
110.8669023388597
 20
95.660060672151104
 30
0.0
  0
VERTEX
  5
192B
  8
0
 10
110.905741612298
 20
95.627218769624477
 30
0.0
  0
VERTEX
  5
192C
  8
0
 10
110.9431400573397
 20
95.593347250256969
 30
0.0
  0
VERTEX
  5
192D
  8
0
 10
110.9790159146942
 20
95.558611823446782
 30
0.0
  0
VERTEX
  5
192E
  8
0
 10
110.9963601378832
 20
95.540975480994163
 30
0.0
  0
VERTEX
  5
192F
  8
0
 10
111.0132979007869
 20
95.523190964184877
 30
0.0
  0
VERTEX
  5
1930
  8
0
 10
111.0459268144851
 20
95.487273695980605
 30
0.0
  0
VERTEX
  5
1931
  8
0
 10
111.07685633162281
 20
95.451057539607746
 30
0.0
  0
VERTEX
  5
1932
  8
0
 10
111.10605315696711
 20
95.414746673787434
 30
0.0
  0
VERTEX
  5
1933
  8
0
 10
111.1334967230305
 20
95.378550269167945
 30
0.0
  0
VERTEX
  5
1934
  8
0
 10
111.1593481596902
 20
95.342437239349564
 30
0.0
  0
VERTEX
  5
1935
  8
0
 10
111.171897752958
 20
95.324140146212486
 30
0.0
  0
VERTEX
  5
1936
  8
0
 10
111.1842140042574
 20
95.305662396490121
 30
0.0
  0
VERTEX
  5
1937
  8
0
 10
111.20814394019629
 20
95.268178820558347
 30
0.0
  0
VERTEX
  5
1938
  8
0
 10
111.2311330700003
 20
95.230014699392996
 30
0.0
  0
VERTEX
  5
1939
  8
0
 10
111.2531768794903
 20
95.191198839813865
 30
0.0
  0
VERTEX
  5
193A
  8
0
 10
111.27427135097039
 20
95.151760629912687
 30
0.0
  0
VERTEX
  5
193B
  8
0
 10
111.2944130590796
 20
95.111729996589489
 30
0.0
  0
VERTEX
  5
193C
  8
0
 10
111.3041257384296
 20
95.091502009442834
 30
0.0
  0
VERTEX
  5
193D
  8
0
 10
111.3135992509319
 20
95.071137359903986
 30
0.0
  0
VERTEX
  5
193E
  8
0
 10
111.3318279121474
 20
95.030013585414352
 30
0.0
  0
VERTEX
  5
193F
  8
0
 10
111.349097820319
 20
94.988389935344301
 30
0.0
  0
VERTEX
  5
1940
  8
0
 10
111.35737308719609
 20
94.967400522715025
 30
0.0
  0
VERTEX
  5
1941
  8
0
 10
111.36540858737
 20
94.94629801914671
 30
0.0
  0
VERTEX
  5
1942
  8
0
 10
111.38076069213361
 20
94.903769743807004
 30
0.0
  0
VERTEX
  5
1943
  8
0
 10
111.3951555043536
 20
94.860837264048072
 30
0.0
  0
VERTEX
  5
1944
  8
0
 10
111.4019946016071
 20
94.8392295513314
 30
0.0
  0
VERTEX
  5
1945
  8
0
 10
111.4085953011617
 20
94.817532932452067
 30
0.0
  0
VERTEX
  5
1946
  8
0
 10
111.4210832769492
 20
94.773889249393804
 30
0.0
  0
VERTEX
  5
1947
  8
0
 10
111.43262354740909
 20
94.729938812584805
 30
0.0
  0
VERTEX
  5
1948
  8
0
 10
111.4432211483943
 20
94.685714265947325
 30
0.0
  0
VERTEX
  5
1949
  8
0
 10
111.45288203010701
 20
94.641248247471268
 30
0.0
  0
VERTEX
  5
194A
  8
0
 10
111.4616130460201
 20
94.596573341053258
 30
0.0
  0
VERTEX
  5
194B
  8
0
 10
111.465632228511
 20
94.574167773541333
 30
0.0
  0
VERTEX
  5
194C
  8
0
 10
111.46942188982911
 20
94.551722323887262
 30
0.0
  0
VERTEX
  5
194D
  8
0
 10
111.4763170366172
 20
94.506728617309321
 30
0.0
  0
VERTEX
  5
194E
  8
0
 10
111.4823077942654
 20
94.461626292666537
 30
0.0
  0
VERTEX
  5
194F
  8
0
 10
111.4874043616739
 20
94.4164500021284
 30
0.0
  0
VERTEX
  5
1950
  8
0
 10
111.4916178776068
 20
94.371234911776199
 30
0.0
  0
VERTEX
  5
1951
  8
0
 10
111.4949604614538
 20
94.326016636862747
 30
0.0
  0
VERTEX
  5
1952
  8
0
 10
111.4963092177429
 20
94.303417542294795
 30
0.0
  0
VERTEX
  5
1953
  8
0
 10
111.4974452470484
 20
94.280831179021575
 30
0.0
  0
VERTEX
  5
1954
  8
0
 10
111.499086410518
 20
94.235714865113934
 30
0.0
  0
VERTEX
  5
1955
  8
0
 10
111.4998991929946
 20
94.190704287323271
 30
0.0
  0
VERTEX
  5
1956
  8
0
 10
111.5
 20
94.168250142521984
 30
0.0
  0
SEQEND
  5
1957
  8
0
  0
POLYLINE
  5
16CA
  8
0
 66
     1
 10
0.0
 20
0.0
 30
0.0
  0
VERTEX
  5
1958
  8
0
 10
111.5
 20
94.168250142521984
 30
0.0
  0
VERTEX
  5
1959
  8
0
 10
111.49989771924299
 20
94.145591054944873
 30
0.0
  0
VERTEX
  5
195A
  8
0
 10
111.4990864397049
 20
94.100415386784576
 30
0.0
  0
VERTEX
  5
195B
  8
0
 10
111.4974822890089
 20
94.055461622493496
 30
0.0
  0
VERTEX
  5
195C
  8
0
 10
111.4963891925547
 20
94.033079921398766
 30
0.0
  0
VERTEX
  5
195D
  8
0
 10
111.4951055911833
 20
94.010768054657277
 30
0.0
  0
VERTEX
  5
195E
  8
0
 10
111.4919778404542
 20
93.966372938779784
 30
0.0
  0
VERTEX
  5
195F
  8
0
 10
111.48812170234601
 20
93.922314425273825
 30
0.0
  0
VERTEX
  5
1960
  8
0
 10
111.4835610111391
 20
93.878630487807357
 30
0.0
  0
VERTEX
  5
1961
  8
0
 10
111.4783124451055
 20
93.835294574420985
 30
0.0
  0
VERTEX
  5
1962
  8
0
 10
111.472300898114
 20
93.791672596877149
 30
0.0
  0
VERTEX
  5
1963
  8
0
 10
111.4689959244991
 20
93.769700467695387
 30
0.0
  0
VERTEX
  5
1964
  8
0
 10
111.4654887611082
 20
93.747628217623415
 30
0.0
  0
VERTEX
  5
1965
  8
0
 10
111.45786027178529
 20
93.703205433984081
 30
0.0
  0
VERTEX
  5
1966
  8
0
 10
111.44940118313239
 20
93.658448635677274
 30
0.0
  0
VERTEX
  5
1967
  8
0
 10
111.4400987184592
 20
93.613402534047694
 30
0.0
  0
VERTEX
  5
1968
  8
0
 10
111.4299415195141
 20
93.568112096089791
 30
0.0
  0
VERTEX
  5
1969
  8
0
 10
111.4189195880268
 20
93.522622482191551
 30
0.0
  0
VERTEX
  5
196A
  8
0
 10
111.41308157915731
 20
93.499817135098965
 30
0.0
  0
VERTEX
  5
196B
  8
0
 10
111.40702422083901
 20
93.476978986719203
 30
0.0
  0
VERTEX
  5
196C
  8
0
 10
111.3942479386202
 20
93.431226980735786
 30
0.0
  0
VERTEX
  5
196D
  8
0
 10
111.380584407996
 20
93.385411856304287
 30
0.0
  0
VERTEX
  5
196E
  8
0
 10
111.3734182379829
 20
93.362494801998409
 30
0.0
  0
VERTEX
  5
196F
  8
0
 10
111.3660283567586
 20
93.339578971980629
 30
0.0
  0
VERTEX
  5
1970
  8
0
 10
111.350575481666
 20
93.293773599261755
 30
0.0
  0
VERTEX
  5
1971
  8
0
 10
111.3342223481791
 20
93.24804086992394
 30
0.0
  0
VERTEX
  5
1972
  8
0
 10
111.3257073221191
 20
93.22521579926341
 30
0.0
  0
VERTEX
  5
1973
  8
0
 10
111.3169662813236
 20
93.202425724379964
 30
0.0
  0
VERTEX
  5
1974
  8
0
 10
111.29880524670961
 20
93.156972861404867
 30
0.0
  0
VERTEX
  5
1975
  8
0
 10
111.27973772242591
 20
93.111726694107645
 30
0.0
  0
VERTEX
  5
1976
  8
0
 10
111.2597627425066
 20
93.066731711106513
 30
0.0
  0
VERTEX
  5
1977
  8
0
 10
111.2388800551184
 20
93.022032989374665
 30
0.0
  0
VERTEX
  5
1978
  8
0
 10
111.2170898750236
 20
92.977675765424337
 30
0.0
  0
VERTEX
  5
1979
  8
0
 10
111.20585463907121
 20
92.955639376806559
 30
0.0
  0
VERTEX
  5
197A
  8
0
 10
111.19439276038069
 20
92.933705367819087
 30
0.0
  0
VERTEX
  5
197B
  8
0
 10
111.1707895069281
 20
92.890167215428747
 30
0.0
  0
VERTEX
  5
197C
  8
0
 10
111.1462810356722
 20
92.847106825240985
 30
0.0
  0
VERTEX
  5
197D
  8
0
 10
111.1208682739957
 20
92.804569831591621
 30
0.0
  0
VERTEX
  5
197E
  8
0
 10
111.0945520303131
 20
92.762602019127755
 30
0.0
  0
VERTEX
  5
197F
  8
0
 10
111.0673328627298
 20
92.721249372331116
 30
0.0
  0
VERTEX
  5
1980
  8
0
 10
111.05338475495169
 20
92.700818177476876
 30
0.0
  0
VERTEX
  5
1981
  8
0
 10
111.0392109426369
 20
92.680558144995373
 30
0.0
  0
VERTEX
  5
1982
  8
0
 10
111.0101859148366
 20
92.640574953665961
 30
0.0
  0
VERTEX
  5
1983
  8
0
 10
110.9802567567051
 20
92.601346899688053
 30
0.0
  0
VERTEX
  5
1984
  8
0
 10
110.9494216401051
 20
92.562921725135354
 30
0.0
  0
VERTEX
  5
1985
  8
0
 10
110.9176778013483
 20
92.525348008437675
 30
0.0
  0
VERTEX
  5
1986
  8
0
 10
110.8850214265241
 20
92.488675405900196
 30
0.0
  0
VERTEX
  5
1987
  8
0
 10
110.86834953633939
 20
92.470692905870266
 30
0.0
  0
VERTEX
  5
1988
  8
0
 10
110.8514324790245
 20
92.452939334098815
 30
0.0
  0
VERTEX
  5
1989
  8
0
 10
110.8163275245503
 20
92.417630802235564
 30
0.0
  0
VERTEX
  5
198A
  8
0
 10
110.77943336759461
 20
92.382661000296551
 30
0.0
  0
VERTEX
  5
198B
  8
0
 10
110.740789608329
 20
92.348273151766037
 30
0.0
  0
VERTEX
  5
198C
  8
0
 10
110.7004446973252
 20
92.314708485222368
 30
0.0
  0
VERTEX
  5
198D
  8
0
 10
110.6584561540723
 20
92.282204694747591
 30
0.0
  0
VERTEX
  5
198E
  8
0
 10
110.6368659533313
 20
92.266423504753803
 30
0.0
  0
VERTEX
  5
198F
  8
0
 10
110.6148904375396
 20
92.250994144274571
 30
0.0
  0
VERTEX
  5
1990
  8
0
 10
110.5698222658399
 20
92.221301798497109
 30
0.0
  0
VERTEX
  5
1991
  8
0
 10
110.5233331172158
 20
92.193342921208156
 30
0.0
  0
VERTEX
  5
1992
  8
0
 10
110.4755085306503
 20
92.167320647584191
 30
0.0
  0
VERTEX
  5
1993
  8
0
 10
110.426421025534
 20
92.143417844936508
 30
0.0
  0
VERTEX
  5
1994
  8
0
 10
110.3761657969474
 20
92.121815947580231
 30
0.0
  0
VERTEX
  5
1995
  8
0
 10
110.3506392185472
 20
92.111933843253524
 30
0.0
  0
VERTEX
  5
1996
  8
0
 10
110.3248690870435
 20
92.102692089743201
 30
0.0
  0
VERTEX
  5
1997
  8
0
 10
110.2726689565302
 20
92.086205388895493
 30
0.0
  0
VERTEX
  5
1998
  8
0
 10
110.2197094273584
 20
92.072492816506966
 30
0.0
  0
VERTEX
  5
1999
  8
0
 10
110.1929903816755
 20
92.066713052781509
 30
0.0
  0
VERTEX
  5
199A
  8
0
 10
110.166137579804
 20
92.061667497290031
 30
0.0
  0
VERTEX
  5
199B
  8
0
 10
110.1121146083901
 20
92.053819540138946
 30
0.0
  0
VERTEX
  5
199C
  8
0
 10
110.0578150120205
 20
92.049012299766034
 30
0.0
  0
VERTEX
  5
199D
  8
0
 10
110.0306171763134
 20
92.047760482618159
 30
0.0
  0
VERTEX
  5
199E
  8
0
 10
110.0034163851907
 20
92.047278799821257
 30
0.0
  0
VERTEX
  5
199F
  8
0
 10
109.9490172470914
 20
92.048625360896366
 30
0.0
  0
VERTEX
  5
19A0
  8
0
 10
109.8946955178434
 20
92.053047619867883
 30
0.0
  0
VERTEX
  5
19A1
  8
0
 10
109.84062803798859
 20
92.06051644918746
 30
0.0
  0
VERTEX
  5
19A2
  8
0
 10
109.7869903051142
 20
92.070972171239134
 30
0.0
  0
VERTEX
  5
19A3
  8
0
 10
109.73394560739951
 20
92.084327759806314
 30
0.0
  0
VERTEX
  5
19A4
  8
0
 10
109.7076921604845
 20
92.092059472082454
 30
0.0
  0
VERTEX
  5
19A5
  8
0
 10
109.6816421211122
 20
92.100472977344722
 30
0.0
  0
VERTEX
  5
19A6
  8
0
 10
109.6302241426293
 20
92.119273848409776
 30
0.0
  0
VERTEX
  5
19A7
  8
0
 10
109.5798308525428
 20
92.140573832733438
 30
0.0
  0
VERTEX
  5
19A8
  8
0
 10
109.5305902183739
 20
92.164197803989325
 30
0.0
  0
VERTEX
  5
19A9
  8
0
 10
109.4826035054249
 20
92.189963349313715
 30
0.0
  0
VERTEX
  5
19AA
  8
0
 10
109.4359418455961
 20
92.217689811269608
 30
0.0
  0
VERTEX
  5
19AB
  8
0
 10
109.4131346467877
 20
92.232226036336058
 30
0.0
  0
VERTEX
  5
19AC
  8
0
 10
109.39069056609161
 20
92.247175978695921
 30
0.0
  0
VERTEX
  5
19AD
  8
0
 10
109.34693183496729
 20
92.278207976461843
 30
0.0
  0
VERTEX
  5
19AE
  8
0
 10
109.3047413221805
 20
92.310561928390982
 30
0.0
  0
VERTEX
  5
19AF
  8
0
 10
109.2641865756782
 20
92.344006280978775
 30
0.0
  0
VERTEX
  5
19B0
  8
0
 10
109.2253262542558
 20
92.37830390549756
 30
0.0
  0
VERTEX
  5
19B1
  8
0
 10
109.188209941362
 20
92.413213927960143
 30
0.0
  0
VERTEX
  5
19B2
  8
0
 10
109.1703188416609
 20
92.430822682088959
 30
0.0
  0
VERTEX
  5
19B3
  8
0
 10
109.1528783289623
 20
92.448493298600127
 30
0.0
  0
VERTEX
  5
19B4
  8
0
 10
109.1191459417761
 20
92.484134490855254
 30
0.0
  0
VERTEX
  5
19B5
  8
0
 10
109.08637459929319
 20
92.52069031055548
 30
0.0
  0
VERTEX
  5
19B6
  8
0
 10
109.0545163511147
 20
92.558153573035298
 30
0.0
  0
VERTEX
  5
19B7
  8
0
 10
109.0235672444181
 20
92.596474466954035
 30
0.0
  0
VERTEX
  5
19B8
  8
0
 10
108.993524389461
 20
92.635604292748454
 30
0.0
  0
VERTEX
  5
19B9
  8
0
 10
108.9788421668126
 20
92.655457578537565
 30
0.0
  0
VERTEX
  5
19BA
  8
0
 10
108.96438584747889
 20
92.675495214903336
 30
0.0
  0
VERTEX
  5
19BB
  8
0
 10
108.9361505021281
 20
92.716100060902903
 30
0.0
  0
VERTEX
  5
19BC
  8
0
 10
108.9088179220828
 20
92.757372160644678
 30
0.0
  0
VERTEX
  5
19BD
  8
0
 10
108.88238822030939
 20
92.799265220436638
 30
0.0
  0
VERTEX
  5
19BE
  8
0
 10
108.8568619139124
 20
92.841733226231966
 30
0.0
  0
VERTEX
  5
19BF
  8
0
 10
108.83223978718959
 20
92.884730371374275
 30
0.0
  0
VERTEX
  5
19C0
  8
0
 10
108.8202680767469
 20
92.906413100212305
 30
0.0
  0
VERTEX
  5
19C1
  8
0
 10
108.8085227595915
 20
92.928211004766496
 30
0.0
  0
VERTEX
  5
19C2
  8
0
 10
108.785711759591
 20
92.972129595993309
 30
0.0
  0
VERTEX
  5
19C3
  8
0
 10
108.7638076049676
 20
93.016440714503034
 30
0.0
  0
VERTEX
  5
19C4
  8
0
 10
108.7531957919843
 20
93.038729299292484
 30
0.0
  0
VERTEX
  5
19C5
  8
0
 10
108.7428108896712
 20
93.061099020472454
 30
0.0
  0
VERTEX
  5
19C6
  8
0
 10
108.72272187719859
 20
93.106059265439157
 30
0.0
  0
VERTEX
  5
19C7
  8
0
 10
108.7035403867621
 20
93.151276333910914
 30
0.0
  0
VERTEX
  5
19C8
  8
0
 10
108.6942897158209
 20
93.173967233042006
 30
0.0
  0
VERTEX
  5
19C9
  8
0
 10
108.6852655445488
 20
93.196705662903327
 30
0.0
  0
VERTEX
  5
19CA
  8
0
 10
108.66789588676239
 20
93.242302870426855
 30
0.0
  0
VERTEX
  5
19CB
  8
0
 10
108.65142945054031
 20
93.288023291527637
 30
0.0
  0
VERTEX
  5
19CC
  8
0
 10
108.6358636481342
 20
93.333822013422335
 30
0.0
  0
VERTEX
  5
19CD
  8
0
 10
108.6211951466159
 20
93.379653925562948
 30
0.0
  0
VERTEX
  5
19CE
  8
0
 10
108.6074197575594
 20
93.425473771132161
 30
0.0
  0
VERTEX
  5
19CF
  8
0
 10
108.600865412289
 20
93.448364999114133
 30
0.0
  0
VERTEX
  5
19D0
  8
0
 10
108.59453233571099
 20
93.471236199588276
 30
0.0
  0
VERTEX
  5
19D1
  8
0
 10
108.5825266858148
 20
93.51689582010529
 30
0.0
  0
VERTEX
  5
19D2
  8
0
 10
108.57139547692189
 20
93.562407255950646
 30
0.0
  0
VERTEX
  5
19D3
  8
0
 10
108.5611301636719
 20
93.607725200013832
 30
0.0
  0
VERTEX
  5
19D4
  8
0
 10
108.5517209141932
 20
93.652804471862183
 30
0.0
  0
VERTEX
  5
19D5
  8
0
 10
108.54315654443209
 20
93.697600076852197
 30
0.0
  0
VERTEX
  5
19D6
  8
0
 10
108.5391873099728
 20
93.719877509403545
 30
0.0
  0
VERTEX
  5
19D7
  8
0
 10
108.5354244588839
 20
93.742067267984439
 30
0.0
  0
VERTEX
  5
19D8
  8
0
 10
108.5285105978686
 20
93.786161611358423
 30
0.0
  0
VERTEX
  5
19D9
  8
0
 10
108.5223993916693
 20
93.829839056271808
 30
0.0
  0
VERTEX
  5
19DA
  8
0
 10
108.5196394960538
 20
93.851507799302297
 30
0.0
  0
SEQEND
  5
19DB
  8
0
  0
LINE
  5
16CB
  8
1
 10
105.99992544644429
 20
56.300000000000018
 30
0.0
 11
114.00007455355571
 21
56.300000000000018
 31
0.0
  0
LINE
  5
16CC
  8
1
 10
110.0
 20
103.0
 30
0.0
 11
110.0
 21
47.300000000000018
 31
0.0
  0
ARC
  5
16DA
  8
0
 10
50.0
 20
146.5
 30
0.0
 40
9.8999999999999986
 50
8.2161172417121637
 51
351.7838827582878
  0
CIRCLE
  5
16DB
  8
0
 10
50.0
 20
146.5
 30
0.0
 40
11.5
  0
CIRCLE
  5
16DC
  8
0
 10
50.0
 20
146.5
 30
0.0
 40
12.5
  0
LINE
  5
16E9
  8
1
 10
50.0
 20
162.0
 30
0.0
 11
50.0
 21
131.0
 31
0.0
  0
LINE
  5
16EA
  8
1
 10
34.499999999999993
 20
146.5
 30
0.0
 11
65.5
 21
146.5
 31
0.0
  0
LINE
  5
16EF
  8
1
 10
59.299999999999947
 20
103.0
 30
0.0
 11
59.299999999999947
 21
90.086760666077865
 31
0.0
  0
LINE
  5
16F0
  8
1
 10
55.999999999999943
 20
56.300000000000018
 30
0.0
 11
48.224038195071081
 21
56.300000000000018
 31
0.0
  0
LINE
  5
16F1
  8
1
 10
50.0
 20
103.0
 30
0.0
 11
49.999999999999929
 21
47.300000000000033
 31
0.0
  0
LINE
  5
1702
  8
0
 10
47.866025403784413
 20
50.300000000000018
 30
0.0
 11
52.133974596215459
 21
50.300000000000018
 31
0.0
  0
LINE
  5
1703
  8
0
 10
46.999999999999929
 20
51.800000000000033
 30
0.0
 11
52.999999999999929
 21
51.800000000000033
 31
0.0
  0
LINE
  5
1707
  8
0
 10
37.499999999999943
 20
98.200000000000031
 30
0.0
 11
62.5
 21
98.200000000000031
 31
0.0
  0
LINE
  5
1708
  8
0
 10
37.499999999999943
 20
98.500000000000014
 30
0.0
 11
62.5
 21
98.500000000000014
 31
0.0
  0
LINE
  5
1709
  8
0
 10
38.5
 20
100.0
 30
0.0
 11
61.499999999999993
 21
100.0
 31
0.0
  0
ARC
  5
170E
  8
2
 10
50.0
 20
112.7
 30
0.0
 40
15.99999999999995
 50
233.13010235415601
 51
299.17639585501502
  0
ARC
  5
1710
  8
0
 10
52.489999999999952
 20
56.300000000000061
 30
0.0
 40
1.009999999999998
 50
297.99299515207372
 51
62.007162825345112
  0
LINE
  5
1714
  8
0
 10
46.999999999999929
 20
51.800000000000033
 30
0.0
 11
47.866025403784413
 21
50.300000000000018
 31
0.0
  0
LINE
  5
1715
  8
0
 10
52.133974596215459
 20
50.300000000000018
 30
0.0
 11
52.999999999999929
 21
51.800000000000033
 31
0.0
  0
LINE
  5
1716
  8
0
 10
46.999999999999993
 20
82.300000000000026
 30
0.0
 11
46.999999999999929
 21
51.800000000000033
 31
0.0
  0
LINE
  5
1717
  8
0
 10
52.999999999999929
 20
51.800000000000033
 30
0.0
 11
52.999999999999929
 21
55.300009204724532
 31
0.0
  0
LINE
  5
1718
  8
0
 10
52.999999999999929
 20
57.300000000000033
 30
0.0
 11
52.999999999999993
 21
82.300000000000026
 31
0.0
  0
LINE
  5
171D
  8
0
 10
37.499999999999943
 20
98.200000000000031
 30
0.0
 11
42.999999999999993
 21
91.000000000000014
 31
0.0
  0
LINE
  5
1720
  8
0
 10
37.499999999999943
 20
98.500000000000014
 30
0.0
 11
37.499999999999943
 21
98.200000000000031
 31
0.0
  0
LINE
  5
1721
  8
0
 10
62.5
 20
98.200000000000031
 30
0.0
 11
62.5
 21
98.500000000000014
 31
0.0
  0
ARC
  5
1722
  8
0
 10
60.514493093509529
 20
98.259662062339757
 30
0.0
 40
1.9999999999999969
 50
6.9018543471436766
 51
60.478280704813422
  0
ARC
  5
1723
  8
0
 10
39.48550690649045
 20
98.259662062339757
 30
0.0
 40
1.999999999999996
 50
119.5217192951866
 51
173.09814565285629
  0
ARC
  5
1724
  8
2
 10
40.099999999999959
 20
99.500000000000043
 30
0.0
 40
0.5000000000000028
 50
53.130102354156669
 51
90.0
  0
LINE
  5
1732
  8
1
 10
59.300615679734157
 20
151.0001423386434
 30
0.0
 11
59.300615679734157
 21
141.9993880487234
 31
0.0
  0
CIRCLE
  5
174C
  8
0
 10
110.0
 20
56.300000000000018
 30
0.0
 40
0.9998993033805298
  0
LINE
  5
177F
  8
0
 10
117.0
 20
91.000000000000014
 30
0.0
 11
117.0
 21
82.799980961532114
 31
0.0
  0
LINE
  5
1780
  8
0
 10
103.0
 20
91.000000000000057
 30
0.0
 11
103.0
 21
82.799980961532142
 31
0.0
  0
LINE
  5
1781
  8
0
 10
103.0
 20
91.000000000000057
 30
0.0
 11
117.0
 21
91.000000000001634
 31
0.0
  0
LINE
  5
1782
  8
0
 10
43.000000000000021
 20
91.000000000000014
 30
0.0
 11
57.000000000000021
 21
91.000000000001606
 31
0.0
  0
LINE
  5
1783
  8
0
 10
43.000000000000021
 20
91.000000000000014
 30
0.0
 11
43.000000000000021
 21
82.7999809615321
 31
0.0
  0
LINE
  5
1784
  8
0
 10
57.000000000000021
 20
90.999999999999972
 30
0.0
 11
57.000000000000021
 21
82.799980961532071
 31
0.0
  0
LINE
  5
1786
  8
0
 10
43.504363267749262
 20
82.300000000000026
 30
0.0
 11
56.495636732250837
 21
82.299999999999983
 31
0.0
  0
LINE
  5
1787
  8
0
 10
43.000000000000021
 20
82.7999809615321
 30
0.0
 11
57.000000000000007
 21
82.799980961532071
 31
0.0
  0
LINE
  5
1788
  8
0
 10
43.000000000000028
 20
82.7999809615321
 30
0.0
 11
43.504363267749262
 21
82.300000000000026
 31
0.0
  0
LINE
  5
1789
  8
0
 10
56.495636732250837
 20
82.299999999999983
 30
0.0
 11
57.000000000000007
 21
82.799980961532071
 31
0.0
  0
LINE
  5
178B
  8
0
 10
57.000000000000021
 20
91.000000000001606
 30
0.0
 11
62.5
 21
98.200000000000031
 31
0.0
  0
CIRCLE
  5
17F0
  8
0
 10
59.300615679734157
 20
146.5
 30
0.0
 40
1.4999021138359721
  0
ARC
  5
17F3
  8
2
 10
59.795085988640182
 20
99.465780540410904
 30
0.0
 40
0.5342296587785146
 50
89.645956070877915
 51
125.6300350537133
  0
ARC
  5
17FC
  8
2
 10
30.074150696535291
 20
140.43107569913661
 30
0.0
 40
50.076938242665847
 50
303.61888782285132
 51
305.96498306951111
  0
ARC
  5
1804
  8
0
 10
55.8284003002126
 20
56.300004602362272
 30
0.0
 40
2.9999731754700369
 50
160.52869146607591
 51
199.47130853392429
  0
TEXT
  5
18A1
  8
0
 62
     3
 10
0.0
 20
0.0
 30
0.0
 40
10.0
  1
NBLP06025-SUS
  7
STANDARD1
  0
ENDSEC
  0
EOF
