  0
SECTION
  2
HEADER
  9
$ACADVER
  1
AC1009
  9
$INSBASE
 10
0.0
 20
0.0
 30
0.0
  9
$EXTMIN
 10
0.0
 20
-2.960436562073669
 30
0.0
  9
$EXTMAX
 10
122.5
 20
162.0
 30
0.0
  9
$LIMMIN
 10
0.0
 20
0.0
  9
$LIMMAX
 10
187.5
 20
135.0
  9
$ORTHOMODE
 70
     1
  9
$REGENMODE
 70
     1
  9
$FILLMODE
 70
     1
  9
$QTEXTMODE
 70
     0
  9
$MIRRTEXT
 70
     0
  9
$DRAGMODE
 70
     2
  9
$LTSCALE
 40
5.0
  9
$OSMODE
 70
  3071
  9
$ATTMODE
 70
     1
  9
$TEXTSIZE
 40
4.0
  9
$TRACEWID
 40
0.05
  9
$TEXTSTYLE
  7
STANDARD
  9
$CLAYER
  8
0
  9
$CELTYPE
  6
BYLAYER
  9
$CECOLOR
 62
   256
  9
$DIMSCALE
 40
0.5
  9
$DIMASZ
 40
3.0
  9
$DIMEXO
 40
2.0
  9
$DIMDLI
 40
0.38
  9
$DIMRND
 40
0.0
  9
$DIMDLE
 40
0.0
  9
$DIMEXE
 40
2.0
  9
$DIMTP
 40
0.0
  9
$DIMTM
 40
0.0
  9
$DIMTXT
 40
3.0
  9
$DIMCEN
 40
0.0
  9
$DIMTSZ
 40
0.0
  9
$DIMTOL
 70
     0
  9
$DIMLIM
 70
     0
  9
$DIMTIH
 70
     0
  9
$DIMTOH
 70
     0
  9
$DIMSE1
 70
     0
  9
$DIMSE2
 70
     0
  9
$DIMTAD
 70
     1
  9
$DIMZIN
 70
     0
  9
$DIMBLK
  1

  9
$DIMASO
 70
     0
  9
$DIMSHO
 70
     0
  9
$DIMPOST
  1

  9
$DIMAPOST
  1

  9
$DIMALT
 70
     0
  9
$DIMALTD
 70
     2
  9
$DIMALTF
 40
25.399999999999999
  9
$DIMLFAC
 40
1.0
  9
$DIMTOFL
 70
     0
  9
$DIMTVP
 40
1.6000000000000001
  9
$DIMTIX
 70
     1
  9
$DIMSOXD
 70
     0
  9
$DIMSAH
 70
     0
  9
$DIMBLK1
  1

  9
$DIMBLK2
  1

  9
$DIMSTYLE
  2
STANDARD
  9
$DIMCLRD
 70
     0
  9
$DIMCLRE
 70
     0
  9
$DIMCLRT
 70
     0
  9
$DIMTFAC
 40
1.0
  9
$DIMGAP
 40
0.09
  9
$LUNITS
 70
     2
  9
$LUPREC
 70
     4
  9
$SKETCHINC
 40
0.1
  9
$FILLETRAD
 40
1.0
  9
$AUNITS
 70
     0
  9
$AUPREC
 70
     0
  9
$MENU
  1
E:\r13\win\SUPPORT\ACAD
  9
$ELEVATION
 40
0.0
  9
$PELEVATION
 40
0.0
  9
$THICKNESS
 40
0.0
  9
$LIMCHECK
 70
     0
  9
$BLIPMODE
 70
     0
  9
$CHAMFERA
 40
0.0
  9
$CHAMFERB
 40
0.0
  9
$SKPOLY
 70
     0
  9
$TDCREATE
 40
2449840.6143865739
  9
$TDUPDATE
 40
2456597.6816776972
  9
$TDINDWG
 40
0.3499196296
  9
$TDUSRTIMER
 40
0.3499196296
  9
$USRTIMER
 70
     1
  9
$ANGBASE
 50
0.0
  9
$ANGDIR
 70
     0
  9
$PDMODE
 70
     0
  9
$PDSIZE
 40
0.0
  9
$PLINEWID
 40
0.0
  9
$COORDS
 70
     1
  9
$SPLFRAME
 70
     0
  9
$SPLINETYPE
 70
     6
  9
$SPLINESEGS
 70
     8
  9
$ATTDIA
 70
     0
  9
$ATTREQ
 70
     1
  9
$HANDLING
 70
     1
  9
$HANDSEED
  5
1BBF
  9
$SURFTAB1
 70
     6
  9
$SURFTAB2
 70
     6
  9
$SURFTYPE
 70
     6
  9
$SURFU
 70
     6
  9
$SURFV
 70
     6
  9
$UCSNAME
  2

  9
$UCSORG
 10
0.0
 20
0.0
 30
0.0
  9
$UCSXDIR
 10
1.0
 20
0.0
 30
0.0
  9
$UCSYDIR
 10
0.0
 20
1.0
 30
0.0
  9
$PUCSNAME
  2

  9
$PUCSORG
 10
0.0
 20
0.0
 30
0.0
  9
$PUCSXDIR
 10
1.0
 20
0.0
 30
0.0
  9
$PUCSYDIR
 10
0.0
 20
1.0
 30
0.0
  9
$USERI1
 70
     0
  9
$USERI2
 70
     1
  9
$USERI3
 70
     1
  9
$USERI4
 70
     0
  9
$USERI5
 70
     0
  9
$USERR1
 40
0.0
  9
$USERR2
 40
0.0
  9
$USERR3
 40
0.0
  9
$USERR4
 40
0.0
  9
$USERR5
 40
0.0
  9
$WORLDVIEW
 70
     1
  9
$SHADEDGE
 70
     3
  9
$SHADEDIF
 70
    70
  9
$TILEMODE
 70
     1
  9
$MAXACTVP
 70
    16
  9
$PLIMCHECK
 70
     0
  9
$PEXTMIN
 10
1.0000000000000000E+020
 20
1.0000000000000000E+020
 30
1.0000000000000000E+020
  9
$PEXTMAX
 10
-1.0000000000000000E+020
 20
-1.0000000000000000E+020
 30
-1.0000000000000000E+020
  9
$PLIMMIN
 10
0.0
 20
0.0
  9
$PLIMMAX
 10
12.0
 20
9.0
  9
$UNITMODE
 70
     0
  9
$VISRETAIN
 70
     0
  9
$PLINEGEN
 70
     0
  9
$PSLTSCALE
 70
     0
  0
ENDSEC
  0
SECTION
  2
TABLES
  0
TABLE
  2
VPORT
 70
     1
  0
VPORT
  2
*ACTIVE
 70
     0
 10
0.0
 20
0.0
 11
1.0
 21
1.0
 12
93.747139195326156
 22
79.873987452165906
 13
0.0
 23
0.0
 14
5.0
 24
5.0
 15
5.0
 25
5.0
 16
0.0
 26
0.0
 36
1.0
 17
0.0
 27
0.0
 37
0.0
 40
167.58675715799589
 41
2.304913294797688
 42
50.0
 43
0.0
 44
0.0
 50
0.0
 51
0.0
 71
     0
 72
   100
 73
     1
 74
     0
 75
     0
 76
     0
 77
     0
 78
     0
  0
ENDTAB
  0
TABLE
  2
LTYPE
 70
     4
  0
LTYPE
  2
CONTINUOUS
 70
     0
  3
Solid Line
 72
    65
 73
     0
 40
0.0
  0
LTYPE
  2
CENTER
 70
     0
  3
____ _ ____ _ ____ _ ____ _ ____ _ ____ _ ____
 72
    65
 73
     4
 40
2.0
 49
1.25
 49
-0.25
 49
0.25
 49
-0.25
  0
LTYPE
  2
HIDDEN
 70
     0
  3
_ _ _ _ _ _ _ _ _ _ _ _ _ _ _ _ _ _ _ _ _ _ _
 72
    65
 73
     2
 40
0.375
 49
0.25
 49
-0.125
  0
LTYPE
  2
PHANTOM2
 70
     0
  3
___ _ _ ___ _ _ ___ _ _ ___ _ _
 72
    65
 73
     6
 40
1.25
 49
0.625
 49
-0.125
 49
0.125
 49
-0.125
 49
0.125
 49
-0.125
  0
ENDTAB
  0
TABLE
  2
LAYER
 70
     3
  0
LAYER
  2
0
 70
     0
 62
     7
  6
CONTINUOUS
  0
LAYER
  2
1
 70
     0
 62
     1
  6
CENTER
  0
LAYER
  2
2
 70
     0
 62
     2
  6
HIDDEN
  0
ENDTAB
  0
TABLE
  2
STYLE
 70
     2
  0
STYLE
  2
STANDARD
 70
     0
 40
0.0
 41
1.0
 50
0.0
 71
     0
 42
4.0
  3
TXT
  4
BIGFONT
  0
STYLE
  2
STANDARD1
 70
     0
 40
0.0
 41
1.0
 50
0.0
 71
     0
 42
3.0
  3
txt
  4

  0
ENDTAB
  0
TABLE
  2
VIEW
 70
     1
  0
VIEW
  2
ALL
 70
     0
 40
179.66152299999999
 10
141.903918
 20
89.830760999999995
 41
0.0
 11
0.0
 21
0.0
 31
1.0
 12
0.0
 22
0.0
 32
0.0
 42
0.0
 43
0.0
 44
0.0
 50
0.0
 71
     0
  0
ENDTAB
  0
TABLE
  2
UCS
 70
     0
  0
ENDTAB
  0
TABLE
  2
APPID
 70
     5
  0
APPID
  2
ACAD
 70
     0
  0
APPID
  2
DCO15
 70
     0
  0
APPID
  2
ACAD_EXEMPT_FROM_CAD_STANDARDS
 70
     0
  0
APPID
  2
ACAD_MLEADERVER
 70
     0
  0
APPID
  2
ACAD_NAV_VCDISPLAY
 70
     0
  0
ENDTAB
  0
TABLE
  2
DIMSTYLE
 70
     1
  0
DIMSTYLE
  2
STANDARD
 70
     0
  3

  4

  5

  6

  7

 40
1.0
 41
0.18
 42
0.0625
 43
0.38
 44
0.18
 45
0.0
 46
0.0
 47
0.0
 48
0.0
140
0.18
141
0.09
142
0.0
143
25.399999999999999
144
1.0
145
0.0
146
1.0
147
0.09
 71
     0
 72
     0
 73
     1
 74
     1
 75
     0
 76
     0
 77
     0
 78
     0
170
     0
171
     2
172
     0
173
     0
174
     0
175
     0
176
     0
177
     0
178
     0
  0
ENDTAB
  0
ENDSEC
  0
SECTION
  2
BLOCKS
  0
BLOCK
  8
0
  2
$MODEL_SPACE
 70
     0
 10
0.0
 20
0.0
 30
0.0
  3
$MODEL_SPACE
  1

  0
ENDBLK
  5
1BD
  8
0
  0
BLOCK
 67
     1
  8
0
  2
$PAPER_SPACE
 70
     0
 10
0.0
 20
0.0
 30
0.0
  3
$PAPER_SPACE
  1

  0
ENDBLK
  5
1BB
 67
     1
  8
0
  0
ENDSEC
  0
SECTION
  2
ENTITIES
  0
ARC
  5
17E8
  8
0
 10
49.999999999999972
 20
146.5
 30
0.0
 40
9.8999999999999986
 50
8.2161172417121762
 51
351.7838827582878
  0
CIRCLE
  5
17E9
  8
0
 10
49.999999999999972
 20
146.5
 30
0.0
 40
11.5
  0
CIRCLE
  5
17EA
  8
0
 10
49.999999999999972
 20
146.5
 30
0.0
 40
12.5
  0
LINE
  5
17F3
  8
1
 10
49.999999999999972
 20
162.0
 30
0.0
 11
49.999999999999972
 21
131.0
 31
0.0
  0
LINE
  5
17F4
  8
1
 10
34.499999999999972
 20
146.5
 30
0.0
 11
65.499999999999972
 21
146.5
 31
0.0
  0
ARC
  5
17F7
  8
2
 10
100.09999999999999
 20
99.499999999999986
 30
0.0
 40
0.5000000000000028
 50
53.130102354156563
 51
90.0
  0
ARC
  5
17F8
  8
2
 10
119.90000000000001
 20
99.499999999999986
 30
0.0
 40
0.5000000000000036
 50
90.0
 51
126.86989764584339
  0
ARC
  5
17F9
  8
0
 10
99.485506906490457
 20
98.259662062339714
 30
0.0
 40
1.999999999999996
 50
119.5217192951857
 51
173.0981456528547
  0
ARC
  5
17FA
  8
0
 10
120.5144930935096
 20
98.259662062339714
 30
0.0
 40
1.9999999999999969
 50
6.9018543471453286
 51
60.478280704814253
  0
LINE
  5
17FB
  8
0
 10
122.5
 20
98.200000000000003
 30
0.0
 11
122.5
 21
98.499999999999986
 31
0.0
  0
LINE
  5
17FC
  8
0
 10
97.5
 20
98.500000000000014
 30
0.0
 11
97.5
 21
98.200000000000031
 31
0.0
  0
LINE
  5
17FD
  8
0
 10
117.0
 20
91.000000000000014
 30
0.0
 11
122.5
 21
98.200000000000003
 31
0.0
  0
LINE
  5
17FE
  8
0
 10
97.5
 20
98.200000000000031
 30
0.0
 11
103.0
 21
91.000000000000014
 31
0.0
  0
LINE
  5
1803
  8
0
 10
114.0
 20
25.800000000000029
 30
0.0
 11
114.0
 21
82.300000000000026
 31
0.0
  0
LINE
  5
1804
  8
0
 10
106.0
 20
82.300000000000026
 30
0.0
 11
106.0
 21
25.800000000000029
 31
0.0
  0
LINE
  5
1805
  8
0
 10
113.1339745962155
 20
24.300000000000029
 30
0.0
 11
114.0
 21
25.800000000000029
 31
0.0
  0
LINE
  5
1806
  8
0
 10
106.0
 20
25.800000000000029
 30
0.0
 11
106.86602540378441
 21
24.300000000000029
 31
0.0
  0
ARC
  5
1807
  8
2
 10
110.0
 20
112.6999999999999
 30
0.0
 40
15.99999999999992
 50
233.13010235415501
 51
306.86989764584411
  0
LINE
  5
180B
  8
0
 10
98.500000000000014
 20
100.0
 30
0.0
 11
121.5
 21
100.0
 31
0.0
  0
LINE
  5
180C
  8
0
 10
97.5
 20
98.500000000000014
 30
0.0
 11
122.5
 21
98.499999999999986
 31
0.0
  0
LINE
  5
180D
  8
0
 10
97.5
 20
98.200000000000031
 30
0.0
 11
122.5
 21
98.200000000000003
 31
0.0
  0
LINE
  5
1811
  8
0
 10
106.0
 20
25.800000000000029
 30
0.0
 11
114.0
 21
25.800000000000029
 31
0.0
  0
LINE
  5
1812
  8
0
 10
106.86602540378441
 20
24.300000000000029
 30
0.0
 11
113.1339745962155
 21
24.300000000000029
 31
0.0
  0
POLYLINE
  5
1821
  8
0
 66
     1
 10
0.0
 20
0.0
 30
0.0
  0
VERTEX
  5
1A79
  8
0
 10
108.5196394960537
 20
93.851507799302297
 30
0.0
  0
VERTEX
  5
1A7A
  8
0
 10
108.5137907253141
 20
93.903131444186286
 30
0.0
  0
VERTEX
  5
1A7B
  8
0
 10
108.5050690015473
 20
94.007970198483079
 30
0.0
  0
VERTEX
  5
1A7C
  8
0
 10
108.50057404128761
 20
94.114506007814285
 30
0.0
  0
VERTEX
  5
1A7D
  8
0
 10
108.5
 20
94.168250142521984
 30
0.0
  0
SEQEND
  5
1A7E
  8
0
  0
POLYLINE
  5
1822
  8
0
 66
     1
 10
0.0
 20
0.0
 30
0.0
  0
VERTEX
  5
1A7F
  8
0
 10
108.5
 20
94.168250142521984
 30
0.0
  0
VERTEX
  5
1A80
  8
0
 10
108.5001008070055
 20
94.190704287323229
 30
0.0
  0
VERTEX
  5
1A81
  8
0
 10
108.5009135894821
 20
94.235714865113906
 30
0.0
  0
VERTEX
  5
1A82
  8
0
 10
108.5025547529516
 20
94.280831179021575
 30
0.0
  0
VERTEX
  5
1A83
  8
0
 10
108.5036907822571
 20
94.303417542294795
 30
0.0
  0
VERTEX
  5
1A84
  8
0
 10
108.5050395385462
 20
94.326016636862747
 30
0.0
  0
VERTEX
  5
1A85
  8
0
 10
108.5083821223932
 20
94.371234911776199
 30
0.0
  0
VERTEX
  5
1A86
  8
0
 10
108.5125956383261
 20
94.4164500021284
 30
0.0
  0
VERTEX
  5
1A87
  8
0
 10
108.5176922057347
 20
94.461626292666566
 30
0.0
  0
VERTEX
  5
1A88
  8
0
 10
108.5236829633828
 20
94.506728617309321
 30
0.0
  0
VERTEX
  5
1A89
  8
0
 10
108.53057811017089
 20
94.551722323887262
 30
0.0
  0
VERTEX
  5
1A8A
  8
0
 10
108.5343677714891
 20
94.574167773541333
 30
0.0
  0
VERTEX
  5
1A8B
  8
0
 10
108.53838695397999
 20
94.596573341053286
 30
0.0
  0
VERTEX
  5
1A8C
  8
0
 10
108.54711796989309
 20
94.641248247471268
 30
0.0
  0
VERTEX
  5
1A8D
  8
0
 10
108.5567788516058
 20
94.685714265947368
 30
0.0
  0
VERTEX
  5
1A8E
  8
0
 10
108.56737645259091
 20
94.729938812584805
 30
0.0
  0
VERTEX
  5
1A8F
  8
0
 10
108.5789167230508
 20
94.773889249393804
 30
0.0
  0
VERTEX
  5
1A90
  8
0
 10
108.5914046988383
 20
94.817532932452096
 30
0.0
  0
VERTEX
  5
1A91
  8
0
 10
108.598005398393
 20
94.839229551331428
 30
0.0
  0
VERTEX
  5
1A92
  8
0
 10
108.6048444956464
 20
94.860837264048044
 30
0.0
  0
VERTEX
  5
1A93
  8
0
 10
108.61923930786639
 20
94.903769743806961
 30
0.0
  0
VERTEX
  5
1A94
  8
0
 10
108.6345914126301
 20
94.94629801914671
 30
0.0
  0
VERTEX
  5
1A95
  8
0
 10
108.642626912804
 20
94.967400522715025
 30
0.0
  0
VERTEX
  5
1A96
  8
0
 10
108.650902179681
 20
94.988389935344244
 30
0.0
  0
VERTEX
  5
1A97
  8
0
 10
108.6681720878526
 20
95.030013585414352
 30
0.0
  0
VERTEX
  5
1A98
  8
0
 10
108.6864007490681
 20
95.071137359904029
 30
0.0
  0
VERTEX
  5
1A99
  8
0
 10
108.69587426157049
 20
95.091502009442834
 30
0.0
  0
VERTEX
  5
1A9A
  8
0
 10
108.7055869409205
 20
95.111729996589489
 30
0.0
  0
VERTEX
  5
1A9B
  8
0
 10
108.72572864902961
 20
95.151760629912715
 30
0.0
  0
VERTEX
  5
1A9C
  8
0
 10
108.7468231205097
 20
95.191198839813865
 30
0.0
  0
VERTEX
  5
1A9D
  8
0
 10
108.7688669299997
 20
95.230014699392996
 30
0.0
  0
VERTEX
  5
1A9E
  8
0
 10
108.79185605980371
 20
95.268178820558333
 30
0.0
  0
VERTEX
  5
1A9F
  8
0
 10
108.8157859957427
 20
95.305662396490121
 30
0.0
  0
VERTEX
  5
1AA0
  8
0
 10
108.828102247042
 20
95.324140146212486
 30
0.0
  0
VERTEX
  5
1AA1
  8
0
 10
108.8406518403098
 20
95.342437239349536
 30
0.0
  0
VERTEX
  5
1AA2
  8
0
 10
108.8665032769695
 20
95.378550269167945
 30
0.0
  0
VERTEX
  5
1AA3
  8
0
 10
108.89394684303289
 20
95.414746673787434
 30
0.0
  0
VERTEX
  5
1AA4
  8
0
 10
108.92314366837719
 20
95.451057539607746
 30
0.0
  0
VERTEX
  5
1AA5
  8
0
 10
108.954073185515
 20
95.487273695980605
 30
0.0
  0
VERTEX
  5
1AA6
  8
0
 10
108.9867020992132
 20
95.523190964184835
 30
0.0
  0
VERTEX
  5
1AA7
  8
0
 10
109.0036398621169
 20
95.540975480994135
 30
0.0
  0
VERTEX
  5
1AA8
  8
0
 10
109.0209840853058
 20
95.558611823446782
 30
0.0
  0
VERTEX
  5
1AA9
  8
0
 10
109.0568599426604
 20
95.593347250256969
 30
0.0
  0
VERTEX
  5
1AAA
  8
0
 10
109.0942583877021
 20
95.627218769624477
 30
0.0
  0
VERTEX
  5
1AAB
  8
0
 10
109.1330976611403
 20
95.66006067215109
 30
0.0
  0
VERTEX
  5
1AAC
  8
0
 10
109.1732830189945
 20
95.691718429849075
 30
0.0
  0
VERTEX
  5
1AAD
  8
0
 10
109.2146993123031
 20
95.722044441311894
 30
0.0
  0
VERTEX
  5
1AAE
  8
0
 10
109.2358272586406
 20
95.736664356628879
 30
0.0
  0
VERTEX
  5
1AAF
  8
0
 10
109.2572102123959
 20
95.750900376655665
 30
0.0
  0
VERTEX
  5
1AB0
  8
0
 10
109.3006593508063
 20
95.778160647896257
 30
0.0
  0
VERTEX
  5
1AB1
  8
0
 10
109.3448723744178
 20
95.803715816109857
 30
0.0
  0
VERTEX
  5
1AB2
  8
0
 10
109.3896602910948
 20
95.827475908531611
 30
0.0
  0
VERTEX
  5
1AB3
  8
0
 10
109.4351602849034
 20
95.849528811186076
 30
0.0
  0
VERTEX
  5
1AB4
  8
0
 10
109.48293606857651
 20
95.870526121862341
 30
0.0
  0
VERTEX
  5
1AB5
  8
0
 10
109.5076931878904
 20
95.880568048437183
 30
0.0
  0
VERTEX
  5
1AB6
  8
0
 10
109.5329804986864
 20
95.890250079299065
 30
0.0
  0
VERTEX
  5
1AB7
  8
0
 10
109.5849840160228
 20
95.90838242262636
 30
0.0
  0
VERTEX
  5
1AB8
  8
0
 10
109.63860489890109
 20
95.924647410826324
 30
0.0
  0
VERTEX
  5
1AB9
  8
0
 10
109.6934817877903
 20
95.938820164375514
 30
0.0
  0
VERTEX
  5
1ABA
  8
0
 10
109.7492498795657
 20
95.950732005249805
 30
0.0
  0
VERTEX
  5
1ABB
  8
0
 10
109.8055231905623
 20
95.960266400821311
 30
0.0
  0
VERTEX
  5
1ABC
  8
0
 10
109.833715516692
 20
95.964119596167635
 30
0.0
  0
VERTEX
  5
1ABD
  8
0
 10
109.86186900642591
 20
95.96735884477313
 30
0.0
  0
VERTEX
  5
1ABE
  8
0
 10
109.917824432887
 20
95.972005895023258
 30
0.0
  0
VERTEX
  5
1ABF
  8
0
 10
109.9729188942446
 20
95.974269853945685
 30
0.0
  0
VERTEX
  5
1AC0
  8
0
 10
110.0
 20
95.974545454545492
 30
0.0
  0
VERTEX
  5
1AC1
  8
0
 10
110.0270811057553
 20
95.974269853945685
 30
0.0
  0
VERTEX
  5
1AC2
  8
0
 10
110.082175567113
 20
95.972005895023258
 30
0.0
  0
VERTEX
  5
1AC3
  8
0
 10
110.13813099357409
 20
95.96735884477313
 30
0.0
  0
VERTEX
  5
1AC4
  8
0
 10
110.166284483308
 20
95.964119596167635
 30
0.0
  0
VERTEX
  5
1AC5
  8
0
 10
110.1944768094377
 20
95.960266400821311
 30
0.0
  0
VERTEX
  5
1AC6
  8
0
 10
110.2507501204343
 20
95.950732005249805
 30
0.0
  0
VERTEX
  5
1AC7
  8
0
 10
110.3065182122097
 20
95.938820164375514
 30
0.0
  0
VERTEX
  5
1AC8
  8
0
 10
110.36139510109891
 20
95.924647410826324
 30
0.0
  0
VERTEX
  5
1AC9
  8
0
 10
110.4150159839772
 20
95.90838242262636
 30
0.0
  0
VERTEX
  5
1ACA
  8
0
 10
110.4670195013137
 20
95.890250079299065
 30
0.0
  0
VERTEX
  5
1ACB
  8
0
 10
110.4923068121095
 20
95.880568048437183
 30
0.0
  0
VERTEX
  5
1ACC
  8
0
 10
110.51706393142349
 20
95.870526121862341
 30
0.0
  0
VERTEX
  5
1ACD
  8
0
 10
110.5648397150966
 20
95.849528811186076
 30
0.0
  0
VERTEX
  5
1ACE
  8
0
 10
110.6103397089051
 20
95.827475908531611
 30
0.0
  0
VERTEX
  5
1ACF
  8
0
 10
110.6551276255822
 20
95.803715816109857
 30
0.0
  0
VERTEX
  5
1AD0
  8
0
 10
110.6993406491936
 20
95.778160647896257
 30
0.0
  0
VERTEX
  5
1AD1
  8
0
 10
110.7427897876041
 20
95.750900376655665
 30
0.0
  0
VERTEX
  5
1AD2
  8
0
 10
110.7641727413593
 20
95.736664356628879
 30
0.0
  0
VERTEX
  5
1AD3
  8
0
 10
110.7853006876969
 20
95.722044441311894
 30
0.0
  0
VERTEX
  5
1AD4
  8
0
 10
110.8267169810055
 20
95.691718429849075
 30
0.0
  0
VERTEX
  5
1AD5
  8
0
 10
110.8669023388597
 20
95.66006067215109
 30
0.0
  0
VERTEX
  5
1AD6
  8
0
 10
110.905741612298
 20
95.627218769624477
 30
0.0
  0
VERTEX
  5
1AD7
  8
0
 10
110.9431400573396
 20
95.593347250256969
 30
0.0
  0
VERTEX
  5
1AD8
  8
0
 10
110.9790159146942
 20
95.558611823446782
 30
0.0
  0
VERTEX
  5
1AD9
  8
0
 10
110.9963601378831
 20
95.540975480994135
 30
0.0
  0
VERTEX
  5
1ADA
  8
0
 10
111.0132979007868
 20
95.523190964184835
 30
0.0
  0
VERTEX
  5
1ADB
  8
0
 10
111.045926814485
 20
95.487273695980605
 30
0.0
  0
VERTEX
  5
1ADC
  8
0
 10
111.07685633162281
 20
95.451057539607746
 30
0.0
  0
VERTEX
  5
1ADD
  8
0
 10
111.10605315696711
 20
95.414746673787434
 30
0.0
  0
VERTEX
  5
1ADE
  8
0
 10
111.1334967230305
 20
95.378550269167945
 30
0.0
  0
VERTEX
  5
1ADF
  8
0
 10
111.1593481596902
 20
95.342437239349536
 30
0.0
  0
VERTEX
  5
1AE0
  8
0
 10
111.1718977529579
 20
95.324140146212486
 30
0.0
  0
VERTEX
  5
1AE1
  8
0
 10
111.1842140042573
 20
95.305662396490121
 30
0.0
  0
VERTEX
  5
1AE2
  8
0
 10
111.20814394019629
 20
95.268178820558333
 30
0.0
  0
VERTEX
  5
1AE3
  8
0
 10
111.2311330700003
 20
95.230014699392996
 30
0.0
  0
VERTEX
  5
1AE4
  8
0
 10
111.2531768794903
 20
95.191198839813865
 30
0.0
  0
VERTEX
  5
1AE5
  8
0
 10
111.27427135097039
 20
95.151760629912715
 30
0.0
  0
VERTEX
  5
1AE6
  8
0
 10
111.2944130590795
 20
95.111729996589489
 30
0.0
  0
VERTEX
  5
1AE7
  8
0
 10
111.30412573842951
 20
95.091502009442834
 30
0.0
  0
VERTEX
  5
1AE8
  8
0
 10
111.3135992509319
 20
95.071137359904029
 30
0.0
  0
VERTEX
  5
1AE9
  8
0
 10
111.3318279121473
 20
95.030013585414352
 30
0.0
  0
VERTEX
  5
1AEA
  8
0
 10
111.349097820319
 20
94.988389935344301
 30
0.0
  0
VERTEX
  5
1AEB
  8
0
 10
111.357373087196
 20
94.967400522715025
 30
0.0
  0
VERTEX
  5
1AEC
  8
0
 10
111.3654085873699
 20
94.94629801914671
 30
0.0
  0
VERTEX
  5
1AED
  8
0
 10
111.38076069213361
 20
94.903769743806961
 30
0.0
  0
VERTEX
  5
1AEE
  8
0
 10
111.3951555043536
 20
94.860837264048101
 30
0.0
  0
VERTEX
  5
1AEF
  8
0
 10
111.401994601607
 20
94.839229551331428
 30
0.0
  0
VERTEX
  5
1AF0
  8
0
 10
111.4085953011617
 20
94.817532932452096
 30
0.0
  0
VERTEX
  5
1AF1
  8
0
 10
111.4210832769491
 20
94.773889249393804
 30
0.0
  0
VERTEX
  5
1AF2
  8
0
 10
111.43262354740909
 20
94.729938812584805
 30
0.0
  0
VERTEX
  5
1AF3
  8
0
 10
111.4432211483942
 20
94.685714265947368
 30
0.0
  0
VERTEX
  5
1AF4
  8
0
 10
111.45288203010691
 20
94.641248247471268
 30
0.0
  0
VERTEX
  5
1AF5
  8
0
 10
111.46161304602001
 20
94.596573341053286
 30
0.0
  0
VERTEX
  5
1AF6
  8
0
 10
111.4656322285109
 20
94.574167773541333
 30
0.0
  0
VERTEX
  5
1AF7
  8
0
 10
111.46942188982899
 20
94.551722323887262
 30
0.0
  0
VERTEX
  5
1AF8
  8
0
 10
111.4763170366172
 20
94.506728617309321
 30
0.0
  0
VERTEX
  5
1AF9
  8
0
 10
111.4823077942653
 20
94.461626292666566
 30
0.0
  0
VERTEX
  5
1AFA
  8
0
 10
111.4874043616739
 20
94.4164500021284
 30
0.0
  0
VERTEX
  5
1AFB
  8
0
 10
111.4916178776068
 20
94.371234911776199
 30
0.0
  0
VERTEX
  5
1AFC
  8
0
 10
111.4949604614538
 20
94.326016636862747
 30
0.0
  0
VERTEX
  5
1AFD
  8
0
 10
111.4963092177429
 20
94.303417542294795
 30
0.0
  0
VERTEX
  5
1AFE
  8
0
 10
111.4974452470484
 20
94.280831179021575
 30
0.0
  0
VERTEX
  5
1AFF
  8
0
 10
111.4990864105179
 20
94.235714865113906
 30
0.0
  0
VERTEX
  5
1B00
  8
0
 10
111.4998991929945
 20
94.190704287323229
 30
0.0
  0
VERTEX
  5
1B01
  8
0
 10
111.5
 20
94.168250142521984
 30
0.0
  0
SEQEND
  5
1B02
  8
0
  0
POLYLINE
  5
1823
  8
0
 66
     1
 10
0.0
 20
0.0
 30
0.0
  0
VERTEX
  5
1B03
  8
0
 10
111.5
 20
94.168250142521984
 30
0.0
  0
VERTEX
  5
1B04
  8
0
 10
111.49989771924299
 20
94.145591054944873
 30
0.0
  0
VERTEX
  5
1B05
  8
0
 10
111.4990864397048
 20
94.100415386784576
 30
0.0
  0
VERTEX
  5
1B06
  8
0
 10
111.4974822890088
 20
94.055461622493468
 30
0.0
  0
VERTEX
  5
1B07
  8
0
 10
111.4963891925546
 20
94.033079921398794
 30
0.0
  0
VERTEX
  5
1B08
  8
0
 10
111.4951055911833
 20
94.010768054657277
 30
0.0
  0
VERTEX
  5
1B09
  8
0
 10
111.4919778404541
 20
93.966372938779784
 30
0.0
  0
VERTEX
  5
1B0A
  8
0
 10
111.48812170234589
 20
93.922314425273797
 30
0.0
  0
VERTEX
  5
1B0B
  8
0
 10
111.483561011139
 20
93.878630487807314
 30
0.0
  0
VERTEX
  5
1B0C
  8
0
 10
111.4783124451054
 20
93.835294574420985
 30
0.0
  0
VERTEX
  5
1B0D
  8
0
 10
111.4723008981139
 20
93.79167259687712
 30
0.0
  0
VERTEX
  5
1B0E
  8
0
 10
111.468995924499
 20
93.769700467695387
 30
0.0
  0
VERTEX
  5
1B0F
  8
0
 10
111.4654887611082
 20
93.747628217623415
 30
0.0
  0
VERTEX
  5
1B10
  8
0
 10
111.45786027178529
 20
93.703205433984081
 30
0.0
  0
VERTEX
  5
1B11
  8
0
 10
111.44940118313239
 20
93.65844863567726
 30
0.0
  0
VERTEX
  5
1B12
  8
0
 10
111.4400987184591
 20
93.613402534047694
 30
0.0
  0
VERTEX
  5
1B13
  8
0
 10
111.4299415195141
 20
93.568112096089749
 30
0.0
  0
VERTEX
  5
1B14
  8
0
 10
111.4189195880268
 20
93.522622482191551
 30
0.0
  0
VERTEX
  5
1B15
  8
0
 10
111.41308157915731
 20
93.499817135098965
 30
0.0
  0
VERTEX
  5
1B16
  8
0
 10
111.40702422083891
 20
93.476978986719203
 30
0.0
  0
VERTEX
  5
1B17
  8
0
 10
111.3942479386201
 20
93.431226980735815
 30
0.0
  0
VERTEX
  5
1B18
  8
0
 10
111.3805844079959
 20
93.385411856304245
 30
0.0
  0
VERTEX
  5
1B19
  8
0
 10
111.3734182379828
 20
93.362494801998437
 30
0.0
  0
VERTEX
  5
1B1A
  8
0
 10
111.36602835675851
 20
93.339578971980586
 30
0.0
  0
VERTEX
  5
1B1B
  8
0
 10
111.350575481666
 20
93.293773599261755
 30
0.0
  0
VERTEX
  5
1B1C
  8
0
 10
111.334222348179
 20
93.248040869923926
 30
0.0
  0
VERTEX
  5
1B1D
  8
0
 10
111.3257073221191
 20
93.225215799263424
 30
0.0
  0
VERTEX
  5
1B1E
  8
0
 10
111.3169662813236
 20
93.202425724379964
 30
0.0
  0
VERTEX
  5
1B1F
  8
0
 10
111.29880524670951
 20
93.156972861404824
 30
0.0
  0
VERTEX
  5
1B20
  8
0
 10
111.27973772242591
 20
93.111726694107645
 30
0.0
  0
VERTEX
  5
1B21
  8
0
 10
111.2597627425066
 20
93.066731711106513
 30
0.0
  0
VERTEX
  5
1B22
  8
0
 10
111.2388800551184
 20
93.022032989374694
 30
0.0
  0
VERTEX
  5
1B23
  8
0
 10
111.2170898750235
 20
92.977675765424365
 30
0.0
  0
VERTEX
  5
1B24
  8
0
 10
111.20585463907111
 20
92.955639376806587
 30
0.0
  0
VERTEX
  5
1B25
  8
0
 10
111.19439276038059
 20
92.933705367819087
 30
0.0
  0
VERTEX
  5
1B26
  8
0
 10
111.170789506928
 20
92.890167215428747
 30
0.0
  0
VERTEX
  5
1B27
  8
0
 10
111.1462810356722
 20
92.847106825240985
 30
0.0
  0
VERTEX
  5
1B28
  8
0
 10
111.1208682739957
 20
92.804569831591621
 30
0.0
  0
VERTEX
  5
1B29
  8
0
 10
111.0945520303131
 20
92.762602019127726
 30
0.0
  0
VERTEX
  5
1B2A
  8
0
 10
111.0673328627298
 20
92.721249372331116
 30
0.0
  0
VERTEX
  5
1B2B
  8
0
 10
111.05338475495159
 20
92.700818177476904
 30
0.0
  0
VERTEX
  5
1B2C
  8
0
 10
111.0392109426368
 20
92.680558144995373
 30
0.0
  0
VERTEX
  5
1B2D
  8
0
 10
111.0101859148366
 20
92.640574953665933
 30
0.0
  0
VERTEX
  5
1B2E
  8
0
 10
110.980256756705
 20
92.601346899688053
 30
0.0
  0
VERTEX
  5
1B2F
  8
0
 10
110.949421640105
 20
92.562921725135368
 30
0.0
  0
VERTEX
  5
1B30
  8
0
 10
110.9176778013483
 20
92.525348008437632
 30
0.0
  0
VERTEX
  5
1B31
  8
0
 10
110.8850214265241
 20
92.488675405900167
 30
0.0
  0
VERTEX
  5
1B32
  8
0
 10
110.8683495363393
 20
92.470692905870266
 30
0.0
  0
VERTEX
  5
1B33
  8
0
 10
110.8514324790244
 20
92.452939334098815
 30
0.0
  0
VERTEX
  5
1B34
  8
0
 10
110.8163275245503
 20
92.417630802235593
 30
0.0
  0
VERTEX
  5
1B35
  8
0
 10
110.77943336759451
 20
92.382661000296551
 30
0.0
  0
VERTEX
  5
1B36
  8
0
 10
110.7407896083289
 20
92.348273151766037
 30
0.0
  0
VERTEX
  5
1B37
  8
0
 10
110.7004446973252
 20
92.314708485222368
 30
0.0
  0
VERTEX
  5
1B38
  8
0
 10
110.6584561540722
 20
92.282204694747591
 30
0.0
  0
VERTEX
  5
1B39
  8
0
 10
110.6368659533313
 20
92.266423504753803
 30
0.0
  0
VERTEX
  5
1B3A
  8
0
 10
110.6148904375396
 20
92.250994144274571
 30
0.0
  0
VERTEX
  5
1B3B
  8
0
 10
110.5698222658399
 20
92.221301798497109
 30
0.0
  0
VERTEX
  5
1B3C
  8
0
 10
110.5233331172157
 20
92.193342921208114
 30
0.0
  0
VERTEX
  5
1B3D
  8
0
 10
110.4755085306502
 20
92.167320647584191
 30
0.0
  0
VERTEX
  5
1B3E
  8
0
 10
110.426421025534
 20
92.143417844936508
 30
0.0
  0
VERTEX
  5
1B3F
  8
0
 10
110.3761657969474
 20
92.121815947580231
 30
0.0
  0
VERTEX
  5
1B40
  8
0
 10
110.3506392185471
 20
92.111933843253567
 30
0.0
  0
VERTEX
  5
1B41
  8
0
 10
110.3248690870435
 20
92.102692089743201
 30
0.0
  0
VERTEX
  5
1B42
  8
0
 10
110.2726689565301
 20
92.086205388895465
 30
0.0
  0
VERTEX
  5
1B43
  8
0
 10
110.2197094273583
 20
92.072492816506966
 30
0.0
  0
VERTEX
  5
1B44
  8
0
 10
110.1929903816754
 20
92.066713052781509
 30
0.0
  0
VERTEX
  5
1B45
  8
0
 10
110.1661375798039
 20
92.061667497290046
 30
0.0
  0
VERTEX
  5
1B46
  8
0
 10
110.1121146083901
 20
92.053819540138946
 30
0.0
  0
VERTEX
  5
1B47
  8
0
 10
110.0578150120204
 20
92.049012299766005
 30
0.0
  0
VERTEX
  5
1B48
  8
0
 10
110.0306171763133
 20
92.047760482618173
 30
0.0
  0
VERTEX
  5
1B49
  8
0
 10
110.0034163851907
 20
92.047278799821257
 30
0.0
  0
VERTEX
  5
1B4A
  8
0
 10
109.94901724709131
 20
92.048625360896395
 30
0.0
  0
VERTEX
  5
1B4B
  8
0
 10
109.8946955178433
 20
92.053047619867883
 30
0.0
  0
VERTEX
  5
1B4C
  8
0
 10
109.84062803798849
 20
92.06051644918746
 30
0.0
  0
VERTEX
  5
1B4D
  8
0
 10
109.7869903051141
 20
92.070972171239134
 30
0.0
  0
VERTEX
  5
1B4E
  8
0
 10
109.73394560739941
 20
92.084327759806314
 30
0.0
  0
VERTEX
  5
1B4F
  8
0
 10
109.7076921604845
 20
92.092059472082454
 30
0.0
  0
VERTEX
  5
1B50
  8
0
 10
109.68164212111211
 20
92.100472977344694
 30
0.0
  0
VERTEX
  5
1B51
  8
0
 10
109.6302241426293
 20
92.119273848409776
 30
0.0
  0
VERTEX
  5
1B52
  8
0
 10
109.5798308525427
 20
92.140573832733438
 30
0.0
  0
VERTEX
  5
1B53
  8
0
 10
109.5305902183739
 20
92.164197803989296
 30
0.0
  0
VERTEX
  5
1B54
  8
0
 10
109.48260350542481
 20
92.189963349313715
 30
0.0
  0
VERTEX
  5
1B55
  8
0
 10
109.4359418455961
 20
92.21768981126958
 30
0.0
  0
VERTEX
  5
1B56
  8
0
 10
109.4131346467876
 20
92.232226036336058
 30
0.0
  0
VERTEX
  5
1B57
  8
0
 10
109.39069056609161
 20
92.247175978695921
 30
0.0
  0
VERTEX
  5
1B58
  8
0
 10
109.34693183496719
 20
92.278207976461843
 30
0.0
  0
VERTEX
  5
1B59
  8
0
 10
109.3047413221805
 20
92.310561928390953
 30
0.0
  0
VERTEX
  5
1B5A
  8
0
 10
109.2641865756782
 20
92.344006280978775
 30
0.0
  0
VERTEX
  5
1B5B
  8
0
 10
109.2253262542558
 20
92.37830390549756
 30
0.0
  0
VERTEX
  5
1B5C
  8
0
 10
109.188209941362
 20
92.413213927960115
 30
0.0
  0
VERTEX
  5
1B5D
  8
0
 10
109.1703188416609
 20
92.430822682088959
 30
0.0
  0
VERTEX
  5
1B5E
  8
0
 10
109.1528783289622
 20
92.448493298600127
 30
0.0
  0
VERTEX
  5
1B5F
  8
0
 10
109.1191459417761
 20
92.484134490855254
 30
0.0
  0
VERTEX
  5
1B60
  8
0
 10
109.08637459929319
 20
92.520690310555466
 30
0.0
  0
VERTEX
  5
1B61
  8
0
 10
109.0545163511146
 20
92.558153573035284
 30
0.0
  0
VERTEX
  5
1B62
  8
0
 10
109.023567244418
 20
92.596474466954035
 30
0.0
  0
VERTEX
  5
1B63
  8
0
 10
108.9935243894609
 20
92.635604292748454
 30
0.0
  0
VERTEX
  5
1B64
  8
0
 10
108.9788421668125
 20
92.655457578537565
 30
0.0
  0
VERTEX
  5
1B65
  8
0
 10
108.96438584747879
 20
92.675495214903336
 30
0.0
  0
VERTEX
  5
1B66
  8
0
 10
108.9361505021281
 20
92.716100060902946
 30
0.0
  0
VERTEX
  5
1B67
  8
0
 10
108.9088179220827
 20
92.757372160644721
 30
0.0
  0
VERTEX
  5
1B68
  8
0
 10
108.88238822030929
 20
92.799265220436681
 30
0.0
  0
VERTEX
  5
1B69
  8
0
 10
108.8568619139124
 20
92.841733226231966
 30
0.0
  0
VERTEX
  5
1B6A
  8
0
 10
108.83223978718949
 20
92.884730371374275
 30
0.0
  0
VERTEX
  5
1B6B
  8
0
 10
108.8202680767469
 20
92.906413100212276
 30
0.0
  0
VERTEX
  5
1B6C
  8
0
 10
108.8085227595915
 20
92.928211004766496
 30
0.0
  0
VERTEX
  5
1B6D
  8
0
 10
108.7857117595909
 20
92.972129595993309
 30
0.0
  0
VERTEX
  5
1B6E
  8
0
 10
108.7638076049676
 20
93.016440714503034
 30
0.0
  0
VERTEX
  5
1B6F
  8
0
 10
108.7531957919843
 20
93.038729299292484
 30
0.0
  0
VERTEX
  5
1B70
  8
0
 10
108.74281088967111
 20
93.061099020472454
 30
0.0
  0
VERTEX
  5
1B71
  8
0
 10
108.72272187719859
 20
93.106059265439185
 30
0.0
  0
VERTEX
  5
1B72
  8
0
 10
108.7035403867621
 20
93.151276333910914
 30
0.0
  0
VERTEX
  5
1B73
  8
0
 10
108.6942897158208
 20
93.173967233042006
 30
0.0
  0
VERTEX
  5
1B74
  8
0
 10
108.6852655445488
 20
93.196705662903327
 30
0.0
  0
VERTEX
  5
1B75
  8
0
 10
108.66789588676239
 20
93.242302870426855
 30
0.0
  0
VERTEX
  5
1B76
  8
0
 10
108.65142945054031
 20
93.288023291527637
 30
0.0
  0
VERTEX
  5
1B77
  8
0
 10
108.6358636481342
 20
93.333822013422335
 30
0.0
  0
VERTEX
  5
1B78
  8
0
 10
108.6211951466158
 20
93.379653925562948
 30
0.0
  0
VERTEX
  5
1B79
  8
0
 10
108.6074197575593
 20
93.425473771132161
 30
0.0
  0
VERTEX
  5
1B7A
  8
0
 10
108.6008654122889
 20
93.448364999114133
 30
0.0
  0
VERTEX
  5
1B7B
  8
0
 10
108.59453233571099
 20
93.471236199588276
 30
0.0
  0
VERTEX
  5
1B7C
  8
0
 10
108.5825266858147
 20
93.51689582010529
 30
0.0
  0
VERTEX
  5
1B7D
  8
0
 10
108.57139547692179
 20
93.562407255950646
 30
0.0
  0
VERTEX
  5
1B7E
  8
0
 10
108.56113016367181
 20
93.607725200013832
 30
0.0
  0
VERTEX
  5
1B7F
  8
0
 10
108.5517209141931
 20
93.652804471862183
 30
0.0
  0
VERTEX
  5
1B80
  8
0
 10
108.54315654443199
 20
93.697600076852169
 30
0.0
  0
VERTEX
  5
1B81
  8
0
 10
108.5391873099727
 20
93.719877509403545
 30
0.0
  0
VERTEX
  5
1B82
  8
0
 10
108.5354244588838
 20
93.742067267984467
 30
0.0
  0
VERTEX
  5
1B83
  8
0
 10
108.5285105978686
 20
93.786161611358423
 30
0.0
  0
VERTEX
  5
1B84
  8
0
 10
108.5223993916692
 20
93.829839056271808
 30
0.0
  0
VERTEX
  5
1B85
  8
0
 10
108.5196394960537
 20
93.851507799302297
 30
0.0
  0
SEQEND
  5
1B86
  8
0
  0
LINE
  5
1824
  8
1
 10
105.99866935355389
 20
31.300000000000029
 30
0.0
 11
113.9999999999999
 21
31.300000000000029
 31
0.0
  0
LINE
  5
1825
  8
1
 10
110.0
 20
103.0
 30
0.0
 11
110.0
 21
21.300000000000029
 31
0.0
  0
LINE
  5
182A
  8
1
 10
56.999999999999943
 20
31.30000000000004
 30
0.0
 11
47.360359480361581
 21
31.30000000000004
 31
0.0
  0
LINE
  5
182B
  8
1
 10
50.0
 20
103.0
 30
0.0
 11
49.999999999999972
 21
21.30000000000004
 31
0.0
  0
LINE
  5
183F
  8
0
 10
46.866025403784391
 20
24.30000000000004
 30
0.0
 11
53.133974596215488
 21
24.30000000000004
 31
0.0
  0
LINE
  5
1840
  8
0
 10
45.999999999999943
 20
25.80000000000004
 30
0.0
 11
53.99999999999995
 21
25.80000000000004
 31
0.0
  0
LINE
  5
1844
  8
0
 10
37.499999999999972
 20
98.200000000000017
 30
0.0
 11
62.499999999999972
 21
98.200000000000017
 31
0.0
  0
LINE
  5
1845
  8
0
 10
37.499999999999972
 20
98.500000000000014
 30
0.0
 11
62.499999999999972
 21
98.500000000000014
 31
0.0
  0
LINE
  5
1846
  8
0
 10
38.499999999999972
 20
100.0
 30
0.0
 11
61.499999999999972
 21
100.0
 31
0.0
  0
ARC
  5
184B
  8
2
 10
49.999999999999972
 20
112.6999999999999
 30
0.0
 40
15.99999999999995
 50
233.13010235415589
 51
299.17639585501411
  0
ARC
  5
184D
  8
0
 10
53.739999999999952
 20
31.300000000000011
 30
0.0
 40
1.0099999999999989
 50
284.57944565611808
 51
75.420554343882714
  0
LINE
  5
1851
  8
0
 10
45.999999999999943
 20
25.80000000000004
 30
0.0
 11
46.866025403784391
 21
24.30000000000004
 31
0.0
  0
LINE
  5
1852
  8
0
 10
53.133974596215488
 20
24.30000000000004
 30
0.0
 11
53.99999999999995
 21
25.80000000000004
 31
0.0
  0
LINE
  5
1853
  8
0
 10
45.999999999999957
 20
82.300000000000026
 30
0.0
 11
45.999999999999943
 21
25.80000000000004
 31
0.0
  0
LINE
  5
1854
  8
0
 10
53.99999999999995
 20
25.80000000000004
 30
0.0
 11
53.99999999999995
 21
30.30000000000004
 31
0.0
  0
LINE
  5
1855
  8
0
 10
53.99999999999995
 20
32.30000000000004
 30
0.0
 11
53.999999999999972
 21
82.300000000000026
 31
0.0
  0
LINE
  5
185A
  8
0
 10
37.499999999999972
 20
98.200000000000017
 30
0.0
 11
42.999999999999972
 21
91.0
 31
0.0
  0
LINE
  5
185D
  8
0
 10
37.499999999999972
 20
98.500000000000014
 30
0.0
 11
37.499999999999972
 21
98.200000000000017
 31
0.0
  0
LINE
  5
185E
  8
0
 10
62.499999999999972
 20
98.200000000000017
 30
0.0
 11
62.499999999999972
 21
98.500000000000014
 31
0.0
  0
ARC
  5
185F
  8
0
 10
60.514493093509543
 20
98.259662062339714
 30
0.0
 40
1.9999999999999969
 50
6.9018543471453286
 51
60.478280704814253
  0
ARC
  5
1860
  8
0
 10
39.4855069064904
 20
98.259662062339714
 30
0.0
 40
1.999999999999996
 50
119.5217192951857
 51
173.0981456528547
  0
ARC
  5
1861
  8
2
 10
40.099999999999973
 20
99.500000000000014
 30
0.0
 40
0.5000000000000028
 50
53.130102354156563
 51
90.0
  0
CIRCLE
  5
18A5
  8
0
 10
110.0
 20
31.300000000000029
 30
0.0
 40
0.9999829157504244
  0
LINE
  5
18C7
  8
0
 10
43.504363267749163
 20
82.300000000000026
 30
0.0
 11
56.495636732250773
 21
82.300000000000026
 31
0.0
  0
LINE
  5
18C8
  8
0
 10
42.999999999999993
 20
82.799980961532071
 30
0.0
 11
56.999999999999993
 21
82.799980961532071
 31
0.0
  0
LINE
  5
18C9
  8
0
 10
42.999999999999993
 20
91.0
 30
0.0
 11
56.999999999999993
 21
91.0
 31
0.0
  0
LINE
  5
18CA
  8
0
 10
42.999999999999993
 20
82.799980961532071
 30
0.0
 11
43.504363267749163
 21
82.300000000000026
 31
0.0
  0
LINE
  5
18CB
  8
0
 10
56.495636732250773
 20
82.300000000000026
 30
0.0
 11
56.999999999999993
 21
82.799980961532071
 31
0.0
  0
LINE
  5
18CC
  8
0
 10
56.999999999999993
 20
91.0
 30
0.0
 11
56.999999999999993
 21
82.799980961532071
 31
0.0
  0
LINE
  5
18CD
  8
0
 10
42.999999999999993
 20
91.0
 30
0.0
 11
42.999999999999993
 21
82.799980961532071
 31
0.0
  0
LINE
  5
18CF
  8
0
 10
103.5043632677492
 20
82.300000000000026
 30
0.0
 11
116.4956367322508
 21
82.300000000000026
 31
0.0
  0
LINE
  5
18D0
  8
0
 10
103.0
 20
82.799980961532086
 30
0.0
 11
117.0
 21
82.799980961532086
 31
0.0
  0
LINE
  5
18D1
  8
0
 10
103.0
 20
91.000000000000014
 30
0.0
 11
117.0
 21
91.000000000000014
 31
0.0
  0
LINE
  5
18D2
  8
0
 10
103.0
 20
82.799980961532086
 30
0.0
 11
103.5043632677492
 21
82.300000000000026
 31
0.0
  0
LINE
  5
18D3
  8
0
 10
116.4956367322508
 20
82.300000000000026
 30
0.0
 11
117.0
 21
82.799980961532086
 31
0.0
  0
LINE
  5
18D4
  8
0
 10
117.0
 20
91.000000000000014
 30
0.0
 11
117.0
 21
82.799980961532086
 31
0.0
  0
LINE
  5
18D5
  8
0
 10
103.0
 20
91.000000000000014
 30
0.0
 11
103.0
 21
82.799980961532086
 31
0.0
  0
LINE
  5
18D6
  8
0
 10
56.999999999999993
 20
91.0
 30
0.0
 11
62.499999999999972
 21
98.200000000000017
 31
0.0
  0
CIRCLE
  5
1974
  8
0
 10
59.301398170965342
 20
146.5
 30
0.0
 40
1.499524201689268
  0
ARC
  5
1975
  8
2
 10
30.137251141251259
 20
140.34025705549271
 30
0.0
 40
49.966373552169102
 50
303.61621909374958
 51
305.96758026325227
  0
ARC
  5
1976
  8
2
 10
59.794871848258367
 20
99.466454046450394
 30
0.0
 40
0.5335575334687776
 50
89.62251425882522
 51
125.65347686576349
  0
ARC
  5
1977
  8
0
 10
57.862839400255488
 20
31.30000000000004
 30
0.0
 40
3.9901789724480552
 50
165.4860730734157
 51
194.51392692658391
  0
LINE
  5
1996
  8
1
 10
59.301398170965342
 20
150.9995242016893
 30
0.0
 11
59.301398170965342
 21
142.0004757983107
 31
0.0
  0
LINE
  5
199C
  8
1
 10
59.301398170965342
 20
103.0
 30
0.0
 11
59.301398170965342
 21
91.012739423809194
 31
0.0
  0
TEXT
  5
1A4C
  8
0
 62
     3
 10
0.0
 20
0.0
 30
0.0
 40
10.0
  1
NBLP08050-SUS
  7
STANDARD1
  0
ENDSEC
  0
EOF
