  0
SECTION
  2
HEADER
  9
$ACADVER
  1
AC1009
  9
$INSBASE
 10
0.0
 20
0.0
 30
0.0
  9
$EXTMIN
 10
0.0
 20
-2.960436562073669
 30
0.0
  9
$EXTMAX
 10
126.5000000000001
 20
166.0
 30
0.0
  9
$LIMMIN
 10
0.0
 20
0.0
  9
$LIMMAX
 10
187.5
 20
135.0
  9
$ORTHOMODE
 70
     1
  9
$REGENMODE
 70
     1
  9
$FILLMODE
 70
     1
  9
$QTEXTMODE
 70
     0
  9
$MIRRTEXT
 70
     0
  9
$DRAGMODE
 70
     2
  9
$LTSCALE
 40
5.0
  9
$OSMODE
 70
  3071
  9
$ATTMODE
 70
     1
  9
$TEXTSIZE
 40
4.0
  9
$TRACEWID
 40
0.05
  9
$TEXTSTYLE
  7
STANDARD
  9
$CLAYER
  8
0
  9
$CELTYPE
  6
BYLAYER
  9
$CECOLOR
 62
   256
  9
$DIMSCALE
 40
0.5
  9
$DIMASZ
 40
3.0
  9
$DIMEXO
 40
2.0
  9
$DIMDLI
 40
0.38
  9
$DIMRND
 40
0.0
  9
$DIMDLE
 40
0.0
  9
$DIMEXE
 40
2.0
  9
$DIMTP
 40
0.0
  9
$DIMTM
 40
0.0
  9
$DIMTXT
 40
3.0
  9
$DIMCEN
 40
0.0
  9
$DIMTSZ
 40
0.0
  9
$DIMTOL
 70
     0
  9
$DIMLIM
 70
     0
  9
$DIMTIH
 70
     0
  9
$DIMTOH
 70
     0
  9
$DIMSE1
 70
     0
  9
$DIMSE2
 70
     0
  9
$DIMTAD
 70
     1
  9
$DIMZIN
 70
     0
  9
$DIMBLK
  1

  9
$DIMASO
 70
     0
  9
$DIMSHO
 70
     0
  9
$DIMPOST
  1

  9
$DIMAPOST
  1

  9
$DIMALT
 70
     0
  9
$DIMALTD
 70
     2
  9
$DIMALTF
 40
25.399999999999999
  9
$DIMLFAC
 40
1.0
  9
$DIMTOFL
 70
     0
  9
$DIMTVP
 40
1.6000000000000001
  9
$DIMTIX
 70
     1
  9
$DIMSOXD
 70
     0
  9
$DIMSAH
 70
     0
  9
$DIMBLK1
  1

  9
$DIMBLK2
  1

  9
$DIMSTYLE
  2
STANDARD
  9
$DIMCLRD
 70
     0
  9
$DIMCLRE
 70
     0
  9
$DIMCLRT
 70
     0
  9
$DIMTFAC
 40
1.0
  9
$DIMGAP
 40
0.09
  9
$LUNITS
 70
     2
  9
$LUPREC
 70
     4
  9
$SKETCHINC
 40
0.1
  9
$FILLETRAD
 40
1.0
  9
$AUNITS
 70
     0
  9
$AUPREC
 70
     0
  9
$MENU
  1
E:\r13\win\SUPPORT\ACAD
  9
$ELEVATION
 40
0.0
  9
$PELEVATION
 40
0.0
  9
$THICKNESS
 40
0.0
  9
$LIMCHECK
 70
     0
  9
$BLIPMODE
 70
     0
  9
$CHAMFERA
 40
0.0
  9
$CHAMFERB
 40
0.0
  9
$SKPOLY
 70
     0
  9
$TDCREATE
 40
2449840.6143865739
  9
$TDUPDATE
 40
2456597.6817092942
  9
$TDINDWG
 40
0.323870544
  9
$TDUSRTIMER
 40
0.323870544
  9
$USRTIMER
 70
     1
  9
$ANGBASE
 50
0.0
  9
$ANGDIR
 70
     0
  9
$PDMODE
 70
     0
  9
$PDSIZE
 40
0.0
  9
$PLINEWID
 40
0.0
  9
$COORDS
 70
     1
  9
$SPLFRAME
 70
     0
  9
$SPLINETYPE
 70
     6
  9
$SPLINESEGS
 70
     8
  9
$ATTDIA
 70
     0
  9
$ATTREQ
 70
     1
  9
$HANDLING
 70
     1
  9
$HANDSEED
  5
1BF9
  9
$SURFTAB1
 70
     6
  9
$SURFTAB2
 70
     6
  9
$SURFTYPE
 70
     6
  9
$SURFU
 70
     6
  9
$SURFV
 70
     6
  9
$UCSNAME
  2

  9
$UCSORG
 10
0.0
 20
0.0
 30
0.0
  9
$UCSXDIR
 10
1.0
 20
0.0
 30
0.0
  9
$UCSYDIR
 10
0.0
 20
1.0
 30
0.0
  9
$PUCSNAME
  2

  9
$PUCSORG
 10
0.0
 20
0.0
 30
0.0
  9
$PUCSXDIR
 10
1.0
 20
0.0
 30
0.0
  9
$PUCSYDIR
 10
0.0
 20
1.0
 30
0.0
  9
$USERI1
 70
     0
  9
$USERI2
 70
     1
  9
$USERI3
 70
     1
  9
$USERI4
 70
     0
  9
$USERI5
 70
     0
  9
$USERR1
 40
0.0
  9
$USERR2
 40
0.0
  9
$USERR3
 40
0.0
  9
$USERR4
 40
0.0
  9
$USERR5
 40
0.0
  9
$WORLDVIEW
 70
     1
  9
$SHADEDGE
 70
     3
  9
$SHADEDIF
 70
    70
  9
$TILEMODE
 70
     1
  9
$MAXACTVP
 70
    16
  9
$PLIMCHECK
 70
     0
  9
$PEXTMIN
 10
1.0000000000000000E+020
 20
1.0000000000000000E+020
 30
1.0000000000000000E+020
  9
$PEXTMAX
 10
-1.0000000000000000E+020
 20
-1.0000000000000000E+020
 30
-1.0000000000000000E+020
  9
$PLIMMIN
 10
0.0
 20
0.0
  9
$PLIMMAX
 10
12.0
 20
9.0
  9
$UNITMODE
 70
     0
  9
$VISRETAIN
 70
     0
  9
$PLINEGEN
 70
     0
  9
$PSLTSCALE
 70
     0
  0
ENDSEC
  0
SECTION
  2
TABLES
  0
TABLE
  2
VPORT
 70
     1
  0
VPORT
  2
*ACTIVE
 70
     0
 10
0.0
 20
0.0
 11
1.0
 21
1.0
 12
93.747139195326184
 22
81.884014557112081
 13
0.0
 23
0.0
 14
5.0
 24
5.0
 15
5.0
 25
5.0
 16
0.0
 26
0.0
 36
1.0
 17
0.0
 27
0.0
 37
0.0
 40
171.64751057361821
 41
2.304913294797688
 42
50.0
 43
0.0
 44
0.0
 50
0.0
 51
0.0
 71
     0
 72
   100
 73
     1
 74
     0
 75
     0
 76
     0
 77
     0
 78
     0
  0
ENDTAB
  0
TABLE
  2
LTYPE
 70
     4
  0
LTYPE
  2
CONTINUOUS
 70
     0
  3
Solid Line
 72
    65
 73
     0
 40
0.0
  0
LTYPE
  2
CENTER
 70
     0
  3
____ _ ____ _ ____ _ ____ _ ____ _ ____ _ ____
 72
    65
 73
     4
 40
2.0
 49
1.25
 49
-0.25
 49
0.25
 49
-0.25
  0
LTYPE
  2
HIDDEN
 70
     0
  3
_ _ _ _ _ _ _ _ _ _ _ _ _ _ _ _ _ _ _ _ _ _ _
 72
    65
 73
     2
 40
0.375
 49
0.25
 49
-0.125
  0
LTYPE
  2
PHANTOM2
 70
     0
  3
___ _ _ ___ _ _ ___ _ _ ___ _ _
 72
    65
 73
     6
 40
1.25
 49
0.625
 49
-0.125
 49
0.125
 49
-0.125
 49
0.125
 49
-0.125
  0
ENDTAB
  0
TABLE
  2
LAYER
 70
     3
  0
LAYER
  2
0
 70
     0
 62
     7
  6
CONTINUOUS
  0
LAYER
  2
1
 70
     0
 62
     1
  6
CENTER
  0
LAYER
  2
2
 70
     0
 62
     2
  6
HIDDEN
  0
ENDTAB
  0
TABLE
  2
STYLE
 70
     2
  0
STYLE
  2
STANDARD
 70
     0
 40
0.0
 41
1.0
 50
0.0
 71
     0
 42
4.0
  3
TXT
  4
BIGFONT
  0
STYLE
  2
STANDARD1
 70
     0
 40
0.0
 41
1.0
 50
0.0
 71
     0
 42
3.0
  3
txt
  4

  0
ENDTAB
  0
TABLE
  2
VIEW
 70
     1
  0
VIEW
  2
ALL
 70
     0
 40
179.66152299999999
 10
141.903918
 20
89.830760999999995
 41
0.0
 11
0.0
 21
0.0
 31
1.0
 12
0.0
 22
0.0
 32
0.0
 42
0.0
 43
0.0
 44
0.0
 50
0.0
 71
     0
  0
ENDTAB
  0
TABLE
  2
UCS
 70
     0
  0
ENDTAB
  0
TABLE
  2
APPID
 70
     5
  0
APPID
  2
ACAD
 70
     0
  0
APPID
  2
DCO15
 70
     0
  0
APPID
  2
ACAD_EXEMPT_FROM_CAD_STANDARDS
 70
     0
  0
APPID
  2
ACAD_MLEADERVER
 70
     0
  0
APPID
  2
ACAD_NAV_VCDISPLAY
 70
     0
  0
ENDTAB
  0
TABLE
  2
DIMSTYLE
 70
     1
  0
DIMSTYLE
  2
STANDARD
 70
     0
  3

  4

  5

  6

  7

 40
1.0
 41
0.18
 42
0.0625
 43
0.38
 44
0.18
 45
0.0
 46
0.0
 47
0.0
 48
0.0
140
0.18
141
0.09
142
0.0
143
25.399999999999999
144
1.0
145
0.0
146
1.0
147
0.09
 71
     0
 72
     0
 73
     1
 74
     1
 75
     0
 76
     0
 77
     0
 78
     0
170
     0
171
     2
172
     0
173
     0
174
     0
175
     0
176
     0
177
     0
178
     0
  0
ENDTAB
  0
ENDSEC
  0
SECTION
  2
BLOCKS
  0
BLOCK
  8
0
  2
$MODEL_SPACE
 70
     0
 10
0.0
 20
0.0
 30
0.0
  3
$MODEL_SPACE
  1

  0
ENDBLK
  5
1BD
  8
0
  0
BLOCK
 67
     1
  8
0
  2
$PAPER_SPACE
 70
     0
 10
0.0
 20
0.0
 30
0.0
  3
$PAPER_SPACE
  1

  0
ENDBLK
  5
1BB
 67
     1
  8
0
  0
ENDSEC
  0
SECTION
  2
ENTITIES
  0
LINE
  5
17F6
  8
0
 10
115.0
 20
18.800000000000018
 30
0.0
 11
115.0
 21
76.000000000000014
 31
0.0
  0
LINE
  5
17F7
  8
0
 10
105.0
 20
76.000000000000014
 30
0.0
 11
105.0
 21
18.800000000000018
 31
0.0
  0
LINE
  5
17F8
  8
0
 10
113.96076951545869
 20
17.000000000000011
 30
0.0
 11
115.0
 21
18.800000000000018
 31
0.0
  0
LINE
  5
17F9
  8
0
 10
105.0
 20
18.800000000000018
 30
0.0
 11
106.03923048454131
 21
17.000000000000011
 31
0.0
  0
LINE
  5
17FE
  8
0
 10
119.5
 20
88.400000000000048
 30
0.0
 11
126.5
 21
97.699999999999974
 31
0.0
  0
LINE
  5
17FF
  8
0
 10
93.500000000000057
 20
97.699999999999974
 30
0.0
 11
100.5
 21
88.400000000000048
 31
0.0
  0
LINE
  5
1800
  8
0
 10
126.5
 20
97.699999999999974
 30
0.0
 11
126.5
 21
97.999999999999986
 31
0.0
  0
LINE
  5
1801
  8
0
 10
93.500000000000057
 20
97.999999999999986
 30
0.0
 11
93.500000000000057
 21
97.699999999999974
 31
0.0
  0
ARC
  5
1802
  8
0
 10
96.000000000000114
 20
98.000000000000014
 30
0.0
 40
2.5000000000000169
 50
126.8698976458449
 51
180.0
  0
ARC
  5
1803
  8
0
 10
124.0
 20
98.000000000000014
 30
0.0
 40
2.5000000000000151
 50
0.0
 51
53.130102354154928
  0
ARC
  5
1804
  8
2
 10
96.500370375451112
 20
99.499999999999901
 30
0.0
 40
0.5000000000000959
 50
61.727131828175288
 51
90.0
  0
ARC
  5
1805
  8
2
 10
123.4996296245491
 20
99.499999999999901
 30
0.0
 40
0.5000000000001243
 50
90.0
 51
118.272868171824
  0
ARC
  5
1806
  8
2
 10
110.0
 20
124.59999999999999
 30
0.0
 40
28.00000000000006
 50
241.7271318281723
 51
298.27286817182772
  0
CIRCLE
  5
1809
  8
0
 10
110.0
 20
24.000000000000021
 30
0.0
 40
2.0
  0
LINE
  5
180C
  8
0
 10
106.03923048454131
 20
17.000000000000011
 30
0.0
 11
113.96076951545869
 21
17.000000000000011
 31
0.0
  0
LINE
  5
180D
  8
0
 10
105.0
 20
18.800000000000018
 30
0.0
 11
115.0
 21
18.800000000000018
 31
0.0
  0
LINE
  5
1810
  8
0
 10
100.5
 20
88.400000000000048
 30
0.0
 11
119.5
 21
88.400000000000048
 31
0.0
  0
LINE
  5
1811
  8
0
 10
93.500000000000057
 20
97.699999999999974
 30
0.0
 11
126.5
 21
97.699999999999974
 31
0.0
  0
LINE
  5
1812
  8
0
 10
93.500000000000057
 20
97.999999999999986
 30
0.0
 11
126.5
 21
97.999999999999986
 31
0.0
  0
LINE
  5
1816
  8
0
 10
94.500000000000057
 20
100.0
 30
0.0
 11
125.5
 21
100.0
 31
0.0
  0
POLYLINE
  5
181C
  8
0
 66
     1
 10
0.0
 20
0.0
 30
0.0
  0
VERTEX
  5
1AB3
  8
0
 10
108.5103352886813
 20
92.667113070036805
 30
0.0
  0
VERTEX
  5
1AB4
  8
0
 10
108.50723853661511
 20
92.705326545638698
 30
0.0
  0
VERTEX
  5
1AB5
  8
0
 10
108.5026483651333
 20
92.782684328815094
 30
0.0
  0
VERTEX
  5
1AB6
  8
0
 10
108.50029874599571
 20
92.861109387732071
 30
0.0
  0
VERTEX
  5
1AB7
  8
0
 10
108.5
 20
92.900656522467202
 30
0.0
  0
SEQEND
  5
1AB8
  8
0
  0
POLYLINE
  5
181D
  8
0
 66
     1
 10
0.0
 20
0.0
 30
0.0
  0
VERTEX
  5
1AB9
  8
0
 10
108.5
 20
92.900656522467202
 30
0.0
  0
VERTEX
  5
1ABA
  8
0
 10
108.5000991687491
 20
92.923400983197766
 30
0.0
  0
VERTEX
  5
1ABB
  8
0
 10
108.5008994781016
 20
92.969055145295684
 30
0.0
  0
VERTEX
  5
1ABC
  8
0
 10
108.5025172521464
 20
93.014896583653965
 30
0.0
  0
VERTEX
  5
1ABD
  8
0
 10
108.5036379705101
 20
93.037875157789756
 30
0.0
  0
VERTEX
  5
1ABE
  8
0
 10
108.5049692450481
 20
93.060885717765515
 30
0.0
  0
VERTEX
  5
1ABF
  8
0
 10
108.5082710290189
 20
93.106983107068558
 30
0.0
  0
VERTEX
  5
1AC0
  8
0
 10
108.5124370161129
 20
93.153149513677789
 30
0.0
  0
VERTEX
  5
1AC1
  8
0
 10
108.5174804844121
 20
93.199345965622868
 30
0.0
  0
VERTEX
  5
1AC2
  8
0
 10
108.52341360919741
 20
93.245533821153273
 30
0.0
  0
VERTEX
  5
1AC3
  8
0
 10
108.53024749986309
 20
93.291674834598183
 30
0.0
  0
VERTEX
  5
1AC4
  8
0
 10
108.53400542320389
 20
93.314715948714849
 30
0.0
  0
VERTEX
  5
1AC5
  8
0
 10
108.5379922434948
 20
93.337731224190577
 30
0.0
  0
VERTEX
  5
1AC6
  8
0
 10
108.5466569562107
 20
93.383665742175566
 30
0.0
  0
VERTEX
  5
1AC7
  8
0
 10
108.5562498435421
 20
93.429441747416391
 30
0.0
  0
VERTEX
  5
1AC8
  8
0
 10
108.566778268219
 20
93.475023267769515
 30
0.0
  0
VERTEX
  5
1AC9
  8
0
 10
108.57824874304301
 20
93.520374741703506
 30
0.0
  0
VERTEX
  5
1ACA
  8
0
 10
108.5906668349615
 20
93.565460564466761
 30
0.0
  0
VERTEX
  5
1ACB
  8
0
 10
108.5972327134909
 20
93.587892716564824
 30
0.0
  0
VERTEX
  5
1ACC
  8
0
 10
108.6040371468947
 20
93.610245087246071
 30
0.0
  0
VERTEX
  5
1ACD
  8
0
 10
108.6183633153896
 20
93.654692673438134
 30
0.0
  0
VERTEX
  5
1ACE
  8
0
 10
108.633648012371
 20
93.698767752583976
 30
0.0
  0
VERTEX
  5
1ACF
  8
0
 10
108.6416503817742
 20
93.720654517435989
 30
0.0
  0
VERTEX
  5
1AD0
  8
0
 10
108.649892951753
 20
93.742434873579214
 30
0.0
  0
VERTEX
  5
1AD1
  8
0
 10
108.6670989015562
 20
93.78565875752183
 30
0.0
  0
VERTEX
  5
1AD2
  8
0
 10
108.6852657023246
 20
93.828404350477271
 30
0.0
  0
VERTEX
  5
1AD3
  8
0
 10
108.6947091245337
 20
93.849586908001115
 30
0.0
  0
VERTEX
  5
1AD4
  8
0
 10
108.7043922927905
 20
93.870636876343397
 30
0.0
  0
VERTEX
  5
1AD5
  8
0
 10
108.7244767439028
 20
93.912321889873155
 30
0.0
  0
VERTEX
  5
1AD6
  8
0
 10
108.7455163024994
 20
93.953425329761714
 30
0.0
  0
VERTEX
  5
1AD7
  8
0
 10
108.7675074460693
 20
93.993913571513374
 30
0.0
  0
VERTEX
  5
1AD8
  8
0
 10
108.79044595020839
 20
94.033753479564595
 30
0.0
  0
VERTEX
  5
1AD9
  8
0
 10
108.8143269705067
 20
94.072912457844197
 30
0.0
  0
VERTEX
  5
1ADA
  8
0
 10
108.82661926459581
 20
94.092226571412624
 30
0.0
  0
VERTEX
  5
1ADB
  8
0
 10
108.8391451407029
 20
94.111358497587716
 30
0.0
  0
VERTEX
  5
1ADC
  8
0
 10
108.8648946889809
 20
94.149060220779276
 30
0.0
  0
VERTEX
  5
1ADD
  8
0
 10
108.8916686983132
 20
94.186120341736029
 30
0.0
  0
VERTEX
  5
1ADE
  8
0
 10
108.92013211884741
 20
94.223340237119587
 30
0.0
  0
VERTEX
  5
1ADF
  8
0
 10
108.9503966008154
 20
94.260668203229486
 30
0.0
  0
VERTEX
  5
1AE0
  8
0
 10
108.98243545396829
 20
94.297877354257722
 30
0.0
  0
VERTEX
  5
1AE1
  8
0
 10
108.99910830544481
 20
94.316367912929636
 30
0.0
  0
VERTEX
  5
1AE2
  8
0
 10
109.01620869502121
 20
94.334746254428765
 30
0.0
  0
VERTEX
  5
1AE3
  8
0
 10
109.051662751143
 20
94.371060785140955
 30
0.0
  0
VERTEX
  5
1AE4
  8
0
 10
109.0887306912922
 20
94.406616241562546
 30
0.0
  0
VERTEX
  5
1AE5
  8
0
 10
109.1273332228828
 20
94.441219707262618
 30
0.0
  0
VERTEX
  5
1AE6
  8
0
 10
109.1673800889976
 20
94.474692179555021
 30
0.0
  0
VERTEX
  5
1AE7
  8
0
 10
109.20876430265839
 20
94.506864726822286
 30
0.0
  0
VERTEX
  5
1AE8
  8
0
 10
109.2299182867759
 20
94.522412829240452
 30
0.0
  0
VERTEX
  5
1AE9
  8
0
 10
109.2513562167007
 20
94.537576417296762
 30
0.0
  0
VERTEX
  5
1AEA
  8
0
 10
109.2950038107213
 20
94.566677964246736
 30
0.0
  0
VERTEX
  5
1AEB
  8
0
 10
109.33953420013761
 20
94.594035710516067
 30
0.0
  0
VERTEX
  5
1AEC
  8
0
 10
109.384756383208
 20
94.61953559236089
 30
0.0
  0
VERTEX
  5
1AED
  8
0
 10
109.4304717202894
 20
94.643089948929045
 30
0.0
  0
VERTEX
  5
1AEE
  8
0
 10
109.4778810620723
 20
94.665262659409109
 30
0.0
  0
VERTEX
  5
1AEF
  8
0
 10
109.5025474085601
 20
94.675923051748228
 30
0.0
  0
VERTEX
  5
1AF0
  8
0
 10
109.5278035966973
 20
94.686234040368348
 30
0.0
  0
VERTEX
  5
1AF1
  8
0
 10
109.579915015292
 20
94.705626123345965
 30
0.0
  0
VERTEX
  5
1AF2
  8
0
 10
109.63385091832259
 20
94.723105962224381
 30
0.0
  0
VERTEX
  5
1AF3
  8
0
 10
109.68921908912451
 20
94.738396855245398
 30
0.0
  0
VERTEX
  5
1AF4
  8
0
 10
109.7456185418426
 20
94.751286882352233
 30
0.0
  0
VERTEX
  5
1AF5
  8
0
 10
109.8026335580433
 20
94.761627792133027
 30
0.0
  0
VERTEX
  5
1AF6
  8
0
 10
109.831227517868
 20
94.765812294985935
 30
0.0
  0
VERTEX
  5
1AF7
  8
0
 10
109.85979623731789
 20
94.769332014594227
 30
0.0
  0
VERTEX
  5
1AF8
  8
0
 10
109.9165996475151
 20
94.774383290204554
 30
0.0
  0
VERTEX
  5
1AF9
  8
0
 10
109.97252492921361
 20
94.776843592728497
 30
0.0
  0
VERTEX
  5
1AFA
  8
0
 10
110.0
 20
94.777142857142834
 30
0.0
  0
VERTEX
  5
1AFB
  8
0
 10
110.02747507078649
 20
94.776843592728497
 30
0.0
  0
VERTEX
  5
1AFC
  8
0
 10
110.083400352485
 20
94.774383290204554
 30
0.0
  0
VERTEX
  5
1AFD
  8
0
 10
110.14020376268221
 20
94.769332014594227
 30
0.0
  0
VERTEX
  5
1AFE
  8
0
 10
110.1687724821321
 20
94.765812294985935
 30
0.0
  0
VERTEX
  5
1AFF
  8
0
 10
110.1973664419567
 20
94.761627792133027
 30
0.0
  0
VERTEX
  5
1B00
  8
0
 10
110.2543814581574
 20
94.751286882352233
 30
0.0
  0
VERTEX
  5
1B01
  8
0
 10
110.31078091087549
 20
94.738396855245398
 30
0.0
  0
VERTEX
  5
1B02
  8
0
 10
110.36614908167751
 20
94.723105962224381
 30
0.0
  0
VERTEX
  5
1B03
  8
0
 10
110.4200849847081
 20
94.705626123345965
 30
0.0
  0
VERTEX
  5
1B04
  8
0
 10
110.4721964033028
 20
94.686234040368348
 30
0.0
  0
VERTEX
  5
1B05
  8
0
 10
110.49745259143999
 20
94.675923051748228
 30
0.0
  0
VERTEX
  5
1B06
  8
0
 10
110.5221189379278
 20
94.665262659409109
 30
0.0
  0
VERTEX
  5
1B07
  8
0
 10
110.5695282797107
 20
94.643089948929045
 30
0.0
  0
VERTEX
  5
1B08
  8
0
 10
110.6152436167921
 20
94.61953559236089
 30
0.0
  0
VERTEX
  5
1B09
  8
0
 10
110.66046579986249
 20
94.594035710516067
 30
0.0
  0
VERTEX
  5
1B0A
  8
0
 10
110.7049961892788
 20
94.566677964246736
 30
0.0
  0
VERTEX
  5
1B0B
  8
0
 10
110.7486437832994
 20
94.537576417296762
 30
0.0
  0
VERTEX
  5
1B0C
  8
0
 10
110.7700817132242
 20
94.522412829240466
 30
0.0
  0
VERTEX
  5
1B0D
  8
0
 10
110.7912356973417
 20
94.506864726822286
 30
0.0
  0
VERTEX
  5
1B0E
  8
0
 10
110.8326199110024
 20
94.474692179555021
 30
0.0
  0
VERTEX
  5
1B0F
  8
0
 10
110.8726667771174
 20
94.441219707262647
 30
0.0
  0
VERTEX
  5
1B10
  8
0
 10
110.9112693087079
 20
94.406616241562546
 30
0.0
  0
VERTEX
  5
1B11
  8
0
 10
110.9483372488571
 20
94.371060785140955
 30
0.0
  0
VERTEX
  5
1B12
  8
0
 10
110.98379130497879
 20
94.334746254428765
 30
0.0
  0
VERTEX
  5
1B13
  8
0
 10
111.00089169455541
 20
94.316367912929636
 30
0.0
  0
VERTEX
  5
1B14
  8
0
 10
111.01756454603181
 20
94.297877354257736
 30
0.0
  0
VERTEX
  5
1B15
  8
0
 10
111.0496033991847
 20
94.260668203229486
 30
0.0
  0
VERTEX
  5
1B16
  8
0
 10
111.07986788115269
 20
94.223340237119615
 30
0.0
  0
VERTEX
  5
1B17
  8
0
 10
111.1083313016869
 20
94.186120341736029
 30
0.0
  0
VERTEX
  5
1B18
  8
0
 10
111.1351053110192
 20
94.149060220779276
 30
0.0
  0
VERTEX
  5
1B19
  8
0
 10
111.1608548592972
 20
94.111358497587716
 30
0.0
  0
VERTEX
  5
1B1A
  8
0
 10
111.17338073540419
 20
94.092226571412624
 30
0.0
  0
VERTEX
  5
1B1B
  8
0
 10
111.1856730294935
 20
94.072912457844197
 30
0.0
  0
VERTEX
  5
1B1C
  8
0
 10
111.20955404979171
 20
94.033753479564595
 30
0.0
  0
VERTEX
  5
1B1D
  8
0
 10
111.2324925539308
 20
93.993913571513403
 30
0.0
  0
VERTEX
  5
1B1E
  8
0
 10
111.2544836975007
 20
93.953425329761714
 30
0.0
  0
VERTEX
  5
1B1F
  8
0
 10
111.2755232560973
 20
93.912321889873155
 30
0.0
  0
VERTEX
  5
1B20
  8
0
 10
111.2956077072096
 20
93.870636876343426
 30
0.0
  0
VERTEX
  5
1B21
  8
0
 10
111.3052908754663
 20
93.849586908001115
 30
0.0
  0
VERTEX
  5
1B22
  8
0
 10
111.3147342976754
 20
93.828404350477271
 30
0.0
  0
VERTEX
  5
1B23
  8
0
 10
111.3329010984439
 20
93.78565875752183
 30
0.0
  0
VERTEX
  5
1B24
  8
0
 10
111.3501070482472
 20
93.742434873579214
 30
0.0
  0
VERTEX
  5
1B25
  8
0
 10
111.358349618226
 20
93.720654517435989
 30
0.0
  0
VERTEX
  5
1B26
  8
0
 10
111.3663519876291
 20
93.698767752583976
 30
0.0
  0
VERTEX
  5
1B27
  8
0
 10
111.3816366846105
 20
93.654692673438134
 30
0.0
  0
VERTEX
  5
1B28
  8
0
 10
111.3959628531054
 20
93.610245087246071
 30
0.0
  0
VERTEX
  5
1B29
  8
0
 10
111.4027672865092
 20
93.587892716564824
 30
0.0
  0
VERTEX
  5
1B2A
  8
0
 10
111.4093331650386
 20
93.565460564466761
 30
0.0
  0
VERTEX
  5
1B2B
  8
0
 10
111.42175125695709
 20
93.52037474170352
 30
0.0
  0
VERTEX
  5
1B2C
  8
0
 10
111.433221731781
 20
93.475023267769515
 30
0.0
  0
VERTEX
  5
1B2D
  8
0
 10
111.44375015645799
 20
93.429441747416391
 30
0.0
  0
VERTEX
  5
1B2E
  8
0
 10
111.4533430437893
 20
93.383665742175566
 30
0.0
  0
VERTEX
  5
1B2F
  8
0
 10
111.4620077565052
 20
93.337731224190577
 30
0.0
  0
VERTEX
  5
1B30
  8
0
 10
111.46599457679631
 20
93.314715948714849
 30
0.0
  0
VERTEX
  5
1B31
  8
0
 10
111.46975250013701
 20
93.291674834598183
 30
0.0
  0
VERTEX
  5
1B32
  8
0
 10
111.47658639080269
 20
93.245533821153273
 30
0.0
  0
VERTEX
  5
1B33
  8
0
 10
111.482519515588
 20
93.199345965622868
 30
0.0
  0
VERTEX
  5
1B34
  8
0
 10
111.4875629838872
 20
93.153149513677789
 30
0.0
  0
VERTEX
  5
1B35
  8
0
 10
111.4917289709813
 20
93.106983107068558
 30
0.0
  0
VERTEX
  5
1B36
  8
0
 10
111.495030754952
 20
93.060885717765515
 30
0.0
  0
VERTEX
  5
1B37
  8
0
 10
111.49636202949
 20
93.037875157789756
 30
0.0
  0
VERTEX
  5
1B38
  8
0
 10
111.4974827478537
 20
93.014896583653965
 30
0.0
  0
VERTEX
  5
1B39
  8
0
 10
111.4991005218985
 20
92.969055145295712
 30
0.0
  0
VERTEX
  5
1B3A
  8
0
 10
111.499900831251
 20
92.923400983197794
 30
0.0
  0
VERTEX
  5
1B3B
  8
0
 10
111.5
 20
92.900656522467202
 30
0.0
  0
SEQEND
  5
1B3C
  8
0
  0
POLYLINE
  5
181E
  8
0
 66
     1
 10
0.0
 20
0.0
 30
0.0
  0
VERTEX
  5
1B3D
  8
0
 10
111.5
 20
92.900656522467202
 30
0.0
  0
VERTEX
  5
1B3E
  8
0
 10
111.49989900141129
 20
92.877672518141566
 30
0.0
  0
VERTEX
  5
1B3F
  8
0
 10
111.4990987326194
 20
92.831915178586755
 30
0.0
  0
VERTEX
  5
1B40
  8
0
 10
111.4975185981276
 20
92.786473072900336
 30
0.0
  0
VERTEX
  5
1B41
  8
0
 10
111.4964430718005
 20
92.763883081062588
 30
0.0
  0
VERTEX
  5
1B42
  8
0
 10
111.495181130408
 20
92.741387293145223
 30
0.0
  0
VERTEX
  5
1B43
  8
0
 10
111.4921101636846
 20
92.69669872764517
 30
0.0
  0
VERTEX
  5
1B44
  8
0
 10
111.48832593224139
 20
92.652395690409847
 30
0.0
  0
VERTEX
  5
1B45
  8
0
 10
111.4837770692783
 20
92.607836632015236
 30
0.0
  0
VERTEX
  5
1B46
  8
0
 10
111.4784284313761
 20
92.562853940928264
 30
0.0
  0
VERTEX
  5
1B47
  8
0
 10
111.4722626331129
 20
92.517491245193142
 30
0.0
  0
VERTEX
  5
1B48
  8
0
 10
111.4688682668487
 20
92.494681130521414
 30
0.0
  0
VERTEX
  5
1B49
  8
0
 10
111.46526375156731
 20
92.471792535669991
 30
0.0
  0
VERTEX
  5
1B4A
  8
0
 10
111.4574172864946
 20
92.425802095347194
 30
0.0
  0
VERTEX
  5
1B4B
  8
0
 10
111.4487101141719
 20
92.379564433342736
 30
0.0
  0
VERTEX
  5
1B4C
  8
0
 10
111.4391304352425
 20
92.333124222571527
 30
0.0
  0
VERTEX
  5
1B4D
  8
0
 10
111.4286677167136
 20
92.286526240233783
 30
0.0
  0
VERTEX
  5
1B4E
  8
0
 10
111.41731262809439
 20
92.239815310436413
 30
0.0
  0
VERTEX
  5
1B4F
  8
0
 10
111.4112978409587
 20
92.216431496845487
 30
0.0
  0
VERTEX
  5
1B50
  8
0
 10
111.4050569714973
 20
92.193036248407296
 30
0.0
  0
VERTEX
  5
1B51
  8
0
 10
111.3918936053701
 20
92.146233805903918
 30
0.0
  0
VERTEX
  5
1B52
  8
0
 10
111.37781636136749
 20
92.099452617563955
 30
0.0
  0
VERTEX
  5
1B53
  8
0
 10
111.3704333515285
 20
92.076083896991904
 30
0.0
  0
VERTEX
  5
1B54
  8
0
 10
111.3628199537185
 20
92.052737148101684
 30
0.0
  0
VERTEX
  5
1B55
  8
0
 10
111.3468998802884
 20
92.006131640428336
 30
0.0
  0
VERTEX
  5
1B56
  8
0
 10
111.3300523143841
 20
91.95968006497624
 30
0.0
  0
VERTEX
  5
1B57
  8
0
 10
111.3212796816597
 20
91.936525655992284
 30
0.0
  0
VERTEX
  5
1B58
  8
0
 10
111.3122739861975
 20
91.913426070742659
 30
0.0
  0
VERTEX
  5
1B59
  8
0
 10
111.2935621168247
 20
91.867413092381483
 30
0.0
  0
VERTEX
  5
1B5A
  8
0
 10
111.2739146329028
 20
91.821685077327245
 30
0.0
  0
VERTEX
  5
1B5B
  8
0
 10
111.2533300110111
 20
91.776286210271692
 30
0.0
  0
VERTEX
  5
1B5C
  8
0
 10
111.23180711063431
 20
91.731260701669854
 30
0.0
  0
VERTEX
  5
1B5D
  8
0
 10
111.2093450746452
 20
91.68665278226969
 30
0.0
  0
VERTEX
  5
1B5E
  8
0
 10
111.1977616643584
 20
91.664519246762154
 30
0.0
  0
VERTEX
  5
1B5F
  8
0
 10
111.1859432227413
 20
91.642506706310044
 30
0.0
  0
VERTEX
  5
1B60
  8
0
 10
111.1616009375161
 20
91.598866765031701
 30
0.0
  0
VERTEX
  5
1B61
  8
0
 10
111.1363175430517
 20
91.555777312663579
 30
0.0
  0
VERTEX
  5
1B62
  8
0
 10
111.1100921761778
 20
91.513282807536612
 30
0.0
  0
VERTEX
  5
1B63
  8
0
 10
111.0829236509361
 20
91.471427871528377
 30
0.0
  0
VERTEX
  5
1B64
  8
0
 10
111.054810317343
 20
91.430257371648864
 30
0.0
  0
VERTEX
  5
1B65
  8
0
 10
111.0403986692467
 20
91.409942899224376
 30
0.0
  0
VERTEX
  5
1B66
  8
0
 10
111.0257499163145
 20
91.389816528227087
 30
0.0
  0
VERTEX
  5
1B67
  8
0
 10
110.9957394336481
 20
91.35015105482212
 30
0.0
  0
VERTEX
  5
1B68
  8
0
 10
110.9647749573279
 20
91.311307335618224
 30
0.0
  0
VERTEX
  5
1B69
  8
0
 10
110.93285154417489
 20
91.273332646591214
 30
0.0
  0
VERTEX
  5
1B6A
  8
0
 10
110.89996310409541
 20
91.236275427052263
 30
0.0
  0
VERTEX
  5
1B6B
  8
0
 10
110.8659985895674
 20
91.20007815181846
 30
0.0
  0
VERTEX
  5
1B6C
  8
0
 10
110.8483830728912
 20
91.182095353437731
 30
0.0
  0
VERTEX
  5
1B6D
  8
0
 10
110.8303115555133
 20
91.16418800481911
 30
0.0
  0
VERTEX
  5
1B6E
  8
0
 10
110.7928168954419
 20
91.128719637258101
 30
0.0
  0
VERTEX
  5
1B6F
  8
0
 10
110.7535531296223
 20
91.093911968273133
 30
0.0
  0
VERTEX
  5
1B70
  8
0
 10
110.7125682314845
 20
91.060001234596669
 30
0.0
  0
VERTEX
  5
1B71
  8
0
 10
110.66991974268031
 20
91.027219380541865
 30
0.0
  0
VERTEX
  5
1B72
  8
0
 10
110.6256744776053
 20
90.995792209797585
 30
0.0
  0
VERTEX
  5
1B73
  8
0
 10
110.6029762593021
 20
90.980655006049759
 30
0.0
  0
VERTEX
  5
1B74
  8
0
 10
110.5799076019141
 20
90.965937299726832
 30
0.0
  0
VERTEX
  5
1B75
  8
0
 10
110.5327008111351
 20
90.937861743596414
 30
0.0
  0
VERTEX
  5
1B76
  8
0
 10
110.4841386688676
 20
90.91175956946536
 30
0.0
  0
VERTEX
  5
1B77
  8
0
 10
110.43429141015299
 20
90.887804244852376
 30
0.0
  0
VERTEX
  5
1B78
  8
0
 10
110.3832601895828
 20
90.866171661027195
 30
0.0
  0
VERTEX
  5
1B79
  8
0
 10
110.3311721538125
 20
90.847030662222963
 30
0.0
  0
VERTEX
  5
1B7A
  8
0
 10
110.3047747388414
 20
90.838442543887894
 30
0.0
  0
VERTEX
  5
1B7B
  8
0
 10
110.2781655248574
 20
90.830532412869687
 30
0.0
  0
VERTEX
  5
1B7C
  8
0
 10
110.2243837078674
 20
90.816806787432498
 30
0.0
  0
VERTEX
  5
1B7D
  8
0
 10
110.1699732934777
 20
90.805961304549854
 30
0.0
  0
VERTEX
  5
1B7E
  8
0
 10
110.14258196966929
 20
90.80164645565965
 30
0.0
  0
VERTEX
  5
1B7F
  8
0
 10
110.11509490424341
 20
90.798082096330475
 30
0.0
  0
VERTEX
  5
1B80
  8
0
 10
110.05992155505101
 20
90.793230379954892
 30
0.0
  0
VERTEX
  5
1B81
  8
0
 10
110.0046290211679
 20
90.791439320585212
 30
0.0
  0
VERTEX
  5
1B82
  8
0
 10
109.97698011598879
 20
90.79169441316823
 30
0.0
  0
VERTEX
  5
1B83
  8
0
 10
109.9493328496015
 20
90.792716682874655
 30
0.0
  0
VERTEX
  5
1B84
  8
0
 10
109.8941273760921
 20
90.797057464873959
 30
0.0
  0
VERTEX
  5
1B85
  8
0
 10
109.8391873351997
 20
90.804433289364411
 30
0.0
  0
VERTEX
  5
1B86
  8
0
 10
109.7846869291281
 20
90.814787494007987
 30
0.0
  0
VERTEX
  5
1B87
  8
0
 10
109.7307893976166
 20
90.828037798894286
 30
0.0
  0
VERTEX
  5
1B88
  8
0
 10
109.67764294246921
 20
90.844080243048694
 30
0.0
  0
VERTEX
  5
1B89
  8
0
 10
109.6513963480992
 20
90.853109999628344
 30
0.0
  0
VERTEX
  5
1B8A
  8
0
 10
109.62539124084731
 20
90.862788745982186
 30
0.0
  0
VERTEX
  5
1B8B
  8
0
 10
109.5741738499209
 20
90.884015487629384
 30
0.0
  0
VERTEX
  5
1B8C
  8
0
 10
109.5241200899051
 20
90.907594292629554
 30
0.0
  0
VERTEX
  5
1B8D
  8
0
 10
109.4753380723302
 20
90.93334869967488
 30
0.0
  0
VERTEX
  5
1B8E
  8
0
 10
109.42789847601119
 20
90.961106954575214
 30
0.0
  0
VERTEX
  5
1B8F
  8
0
 10
109.381884671356
 20
90.990678051610814
 30
0.0
  0
VERTEX
  5
1B90
  8
0
 10
109.3594384414381
 20
91.006079769729638
 30
0.0
  0
VERTEX
  5
1B91
  8
0
 10
109.3373791881029
 20
91.021856877682083
 30
0.0
  0
VERTEX
  5
1B92
  8
0
 10
109.2944584411251
 20
91.05442745059436
 30
0.0
  0
VERTEX
  5
1B93
  8
0
 10
109.2531907280602
 20
91.088165192753323
 30
0.0
  0
VERTEX
  5
1B94
  8
0
 10
109.21363517773359
 20
91.122839052469047
 30
0.0
  0
VERTEX
  5
1B95
  8
0
 10
109.17584136650029
 20
91.158213393355211
 30
0.0
  0
VERTEX
  5
1B96
  8
0
 10
109.1398493771008
 20
91.194049642363737
 30
0.0
  0
VERTEX
  5
1B97
  8
0
 10
109.1225390739299
 20
91.212065983066239
 30
0.0
  0
VERTEX
  5
1B98
  8
0
 10
109.10563844711869
 20
91.230163855162587
 30
0.0
  0
VERTEX
  5
1B99
  8
0
 10
109.0725877445926
 20
91.267062622349911
 30
0.0
  0
VERTEX
  5
1B9A
  8
0
 10
109.040503207491
 20
91.304887105546769
 30
0.0
  0
VERTEX
  5
1B9B
  8
0
 10
109.00937854419961
 20
91.343588640190404
 30
0.0
  0
VERTEX
  5
1B9C
  8
0
 10
108.9792086269492
 20
91.383119775910785
 30
0.0
  0
VERTEX
  5
1B9D
  8
0
 10
108.94998938000241
 20
91.423433995904134
 30
0.0
  0
VERTEX
  5
1B9E
  8
0
 10
108.93573523988751
 20
91.443870423936005
 30
0.0
  0
VERTEX
  5
1B9F
  8
0
 10
108.9217176486079
 20
91.464485487795244
 30
0.0
  0
VERTEX
  5
1BA0
  8
0
 10
108.89439105739569
 20
91.506228959364037
 30
0.0
  0
VERTEX
  5
1BA1
  8
0
 10
108.8680078645765
 20
91.548619492775984
 30
0.0
  0
VERTEX
  5
1BA2
  8
0
 10
108.84256681647329
 20
91.59161243145833
 30
0.0
  0
VERTEX
  5
1BA3
  8
0
 10
108.8180670054881
 20
91.635163294389599
 30
0.0
  0
VERTEX
  5
1BA4
  8
0
 10
108.79450773351689
 20
91.679227713230318
 30
0.0
  0
VERTEX
  5
1BA5
  8
0
 10
108.783080606665
 20
91.701438660674583
 30
0.0
  0
VERTEX
  5
1BA6
  8
0
 10
108.7718883820209
 20
91.723761388378946
 30
0.0
  0
VERTEX
  5
1BA7
  8
0
 10
108.7502082893722
 20
91.768720060651916
 30
0.0
  0
VERTEX
  5
1BA8
  8
0
 10
108.729466635675
 20
91.814059495846834
 30
0.0
  0
VERTEX
  5
1BA9
  8
0
 10
108.7194473972675
 20
91.836858181815174
 30
0.0
  0
VERTEX
  5
1BAA
  8
0
 10
108.7096623349854
 20
91.859735479949975
 30
0.0
  0
VERTEX
  5
1BAB
  8
0
 10
108.6907939346674
 20
91.905703823185604
 30
0.0
  0
VERTEX
  5
1BAC
  8
0
 10
108.6728594752598
 20
91.951920494184961
 30
0.0
  0
VERTEX
  5
1BAD
  8
0
 10
108.6642416579006
 20
91.975108366475567
 30
0.0
  0
VERTEX
  5
1BAE
  8
0
 10
108.6558562801544
 20
91.998342020226616
 30
0.0
  0
VERTEX
  5
1BAF
  8
0
 10
108.63978116044559
 20
92.044924810637923
 30
0.0
  0
VERTEX
  5
1BB0
  8
0
 10
108.6246303912453
 20
92.091624945451187
 30
0.0
  0
VERTEX
  5
1BB1
  8
0
 10
108.6103995913205
 20
92.138398223884721
 30
0.0
  0
VERTEX
  5
1BB2
  8
0
 10
108.59708361324419
 20
92.18520021477427
 30
0.0
  0
VERTEX
  5
1BB3
  8
0
 10
108.58467644297821
 20
92.231986308276177
 30
0.0
  0
VERTEX
  5
1BB4
  8
0
 10
108.57881152163191
 20
92.255359417014901
 30
0.0
  0
VERTEX
  5
1BB5
  8
0
 10
108.5731711079098
 20
92.278711768526975
 30
0.0
  0
VERTEX
  5
1BB6
  8
0
 10
108.5625595925158
 20
92.325331787148897
 30
0.0
  0
VERTEX
  5
1BB7
  8
0
 10
108.5528327609846
 20
92.371801537669896
 30
0.0
  0
VERTEX
  5
1BB8
  8
0
 10
108.5439802862785
 20
92.418076231085763
 30
0.0
  0
VERTEX
  5
1BB9
  8
0
 10
108.5359905852774
 20
92.464111172937905
 30
0.0
  0
VERTEX
  5
1BBA
  8
0
 10
108.5288507598009
 20
92.509861822424256
 30
0.0
  0
VERTEX
  5
1BBB
  8
0
 10
108.5255951469173
 20
92.532616675687095
 30
0.0
  0
VERTEX
  5
1BBC
  8
0
 10
108.5225465434675
 20
92.555283854204944
 30
0.0
  0
VERTEX
  5
1BBD
  8
0
 10
108.5170622545172
 20
92.600333223721051
 30
0.0
  0
VERTEX
  5
1BBE
  8
0
 10
108.5123807548964
 20
92.644966237017613
 30
0.0
  0
VERTEX
  5
1BBF
  8
0
 10
108.5103352886813
 20
92.667113070036805
 30
0.0
  0
SEQEND
  5
1BC0
  8
0
  0
LINE
  5
181F
  8
1
 10
105.0
 20
24.000000000000021
 30
0.0
 11
115.0
 21
24.000000000000021
 31
0.0
  0
LINE
  5
1820
  8
1
 10
110.0
 20
103.0
 30
0.0
 11
110.0
 21
14.000000000000011
 31
0.0
  0
CIRCLE
  5
1839
  8
0
 10
50.0
 20
146.5
 30
0.0
 40
16.5
  0
ARC
  5
183B
  8
0
 10
50.0
 20
146.5
 30
0.0
 40
13.499629624548961
 50
5.7857750260735479
 51
354.21422497392649
  0
CIRCLE
  5
183C
  8
0
 10
50.0
 20
146.5
 30
0.0
 40
15.5
  0
LINE
  5
183E
  8
1
 10
50.000000000000057
 20
166.0
 30
0.0
 11
50.000000000000057
 21
127.0
 31
0.0
  0
LINE
  5
183F
  8
1
 10
30.5
 20
146.5
 30
0.0
 11
69.5
 21
146.5
 31
0.0
  0
LINE
  5
1844
  8
1
 10
40.999999999999943
 20
23.999999999999961
 30
0.0
 11
58.99999999999995
 21
23.999999999999961
 31
0.0
  0
LINE
  5
1847
  8
1
 10
62.800000000000011
 20
103.0
 30
0.0
 11
62.800000000000011
 21
87.124846287227456
 31
0.0
  0
LINE
  5
1848
  8
1
 10
50.000000000000028
 20
103.0
 30
0.0
 11
50.0
 21
13.999999999999959
 31
0.0
  0
LINE
  5
1855
  8
0
 10
34.5
 20
100.0
 30
0.0
 11
65.5
 21
100.0
 31
0.0
  0
LINE
  5
1857
  8
0
 10
33.5
 20
97.999999999999986
 30
0.0
 11
66.5
 21
97.999999999999986
 31
0.0
  0
LINE
  5
1858
  8
0
 10
33.5
 20
97.699999999999974
 30
0.0
 11
66.5
 21
97.699999999999974
 31
0.0
  0
LINE
  5
1859
  8
0
 10
40.499999999999993
 20
88.399999999999991
 30
0.0
 11
59.5
 21
88.399999999999991
 31
0.0
  0
LINE
  5
185A
  8
0
 10
40.499999999999993
 20
76.799969538451265
 30
0.0
 11
59.5
 21
76.799969538451265
 31
0.0
  0
LINE
  5
185B
  8
0
 10
41.306981228398683
 20
75.999999999999957
 30
0.0
 11
58.693018771601309
 21
75.999999999999957
 31
0.0
  0
LINE
  5
185C
  8
0
 10
45.0
 20
18.799999999999969
 30
0.0
 11
55.0
 21
18.799999999999969
 31
0.0
  0
LINE
  5
185D
  8
0
 10
46.039230484541292
 20
16.99999999999995
 30
0.0
 11
53.960769515458708
 21
16.99999999999995
 31
0.0
  0
ARC
  5
186C
  8
2
 10
50.0
 20
124.59999999999999
 30
0.0
 40
28.000000000000021
 50
241.7271318281723
 51
293.8016364385702
  0
ARC
  5
186D
  8
2
 10
36.500370375451041
 20
99.499999999999901
 30
0.0
 40
0.5000000000000959
 50
61.727131828175288
 51
90.0
  0
ARC
  5
186E
  8
0
 10
64.0
 20
97.999999999999986
 30
0.0
 40
2.5000000000000151
 50
0.0
 51
53.130102354154928
  0
ARC
  5
186F
  8
0
 10
36.000000000000057
 20
98.000000000000014
 30
0.0
 40
2.5000000000000169
 50
126.8698976458449
 51
180.0
  0
LINE
  5
1870
  8
0
 10
33.5
 20
97.999999999999986
 30
0.0
 11
33.5
 21
97.699999999999974
 31
0.0
  0
LINE
  5
1871
  8
0
 10
66.5
 20
97.699999999999974
 30
0.0
 11
66.5
 21
97.999999999999986
 31
0.0
  0
LINE
  5
1872
  8
0
 10
33.5
 20
97.699999999999974
 30
0.0
 11
40.499999999999993
 21
88.399999999999991
 31
0.0
  0
LINE
  5
1877
  8
0
 10
40.499999999999993
 20
76.799969538451265
 30
0.0
 11
41.306981228398683
 21
75.999999999999957
 31
0.0
  0
LINE
  5
1878
  8
0
 10
58.693018771601317
 20
75.999999999999957
 30
0.0
 11
59.5
 21
76.799969538451265
 31
0.0
  0
LINE
  5
1879
  8
0
 10
45.0
 20
18.799999999999969
 30
0.0
 11
46.039230484541292
 21
16.99999999999995
 31
0.0
  0
LINE
  5
187A
  8
0
 10
53.960769515458708
 20
16.99999999999995
 30
0.0
 11
55.0
 21
18.799999999999969
 31
0.0
  0
LINE
  5
187B
  8
0
 10
45.0
 20
75.999999999999957
 30
0.0
 11
45.0
 21
25.999999999999961
 31
0.0
  0
LINE
  5
187C
  8
0
 10
45.0
 20
21.999999999999961
 30
0.0
 11
45.0
 21
18.799999999999969
 31
0.0
  0
LINE
  5
187D
  8
0
 10
55.0
 20
18.799999999999969
 30
0.0
 11
55.0
 21
21.999999999999961
 31
0.0
  0
LINE
  5
187E
  8
0
 10
55.0
 20
25.999999999999961
 30
0.0
 11
55.0
 21
75.999999999999957
 31
0.0
  0
ARC
  5
1882
  8
0
 10
53.989999999999952
 20
24.0
 30
0.0
 40
2.0099999999999971
 50
297.3171409462077
 51
62.684086945234156
  0
ARC
  5
1887
  8
0
 10
46.009999999999927
 20
24.0
 30
0.0
 40
2.010000000000002
 50
117.31591305476231
 51
242.68285905379551
  0
LINE
  5
1899
  8
1
 10
62.80052529593916
 20
151.0001139097991
 30
0.0
 11
62.80052529593916
 21
142.0003874281816
 31
0.0
  0
LINE
  5
18D3
  8
0
 10
40.499999999999993
 20
76.799969538451265
 30
0.0
 11
40.499999999999993
 21
88.399999999999991
 31
0.0
  0
LINE
  5
18D4
  8
0
 10
59.5
 20
76.799969538451265
 30
0.0
 11
59.5
 21
88.399999999999991
 31
0.0
  0
LINE
  5
18D5
  8
0
 10
100.5
 20
76.799969538451322
 30
0.0
 11
100.5
 21
88.400000000000048
 31
0.0
  0
LINE
  5
18D6
  8
0
 10
100.5
 20
76.799969538451322
 30
0.0
 11
101.3069812283987
 21
76.000000000000014
 31
0.0
  0
LINE
  5
18D7
  8
0
 10
101.3069812283987
 20
76.000000000000014
 30
0.0
 11
118.6930187716013
 21
76.000000000000014
 31
0.0
  0
LINE
  5
18D8
  8
0
 10
100.5
 20
76.799969538451322
 30
0.0
 11
119.5
 21
76.799969538451322
 31
0.0
  0
LINE
  5
18D9
  8
0
 10
119.5
 20
76.799969538451322
 30
0.0
 11
119.5
 21
88.400000000000048
 31
0.0
  0
LINE
  5
18DA
  8
0
 10
118.6930187716013
 20
76.000000000000014
 30
0.0
 11
119.5
 21
76.799969538451322
 31
0.0
  0
LINE
  5
18DB
  8
0
 10
66.5
 20
97.699999999999974
 30
0.0
 11
59.5
 21
88.399999999999991
 31
0.0
  0
CIRCLE
  5
19A4
  8
0
 10
62.80052529593916
 20
146.5002506689903
 30
0.0
 40
1.499273896540062
  0
ARC
  5
19A5
  8
2
 10
0.0438039669617808
 20
221.61694835202599
 30
0.0
 40
137.08313722026909
 50
296.54204064461811
 51
297.4253474716466
  0
ARC
  5
19A6
  8
2
 10
63.429344517166179
 20
99.46261973421494
 30
0.0
 40
0.5373824009487767
 50
89.83848545236863
 51
117.25256669426621
  0
ARC
  5
19AE
  8
0
 10
59.582288584385203
 20
24.000059923465152
 30
0.0
 40
4.9997128897884711
 50
156.42113481003551
 51
203.57886518996449
  0
ARC
  5
19AF
  8
0
 10
40.417711415614811
 20
24.000059923465152
 30
0.0
 40
4.9997128897884711
 50
336.42113481003548
 51
23.578865189964471
  0
TEXT
  5
1A86
  8
0
 62
     3
 10
0.0
 20
0.0
 30
0.0
 40
10.0
  1
NBLP10050-SUS
  7
STANDARD1
  0
ENDSEC
  0
EOF
