  0
SECTION
  2
HEADER
  9
$ACADVER
  1
AC1009
  9
$INSBASE
 10
0.0
 20
0.0
 30
0.0
  9
$EXTMIN
 10
0.0
 20
-2.960436562073669
 30
0.0
  9
$EXTMAX
 10
126.5
 20
166.00000000000011
 30
0.0
  9
$LIMMIN
 10
0.0
 20
0.0
  9
$LIMMAX
 10
187.5
 20
135.0
  9
$ORTHOMODE
 70
     1
  9
$REGENMODE
 70
     1
  9
$FILLMODE
 70
     1
  9
$QTEXTMODE
 70
     0
  9
$MIRRTEXT
 70
     0
  9
$DRAGMODE
 70
     2
  9
$LTSCALE
 40
5.0
  9
$OSMODE
 70
  3071
  9
$ATTMODE
 70
     1
  9
$TEXTSIZE
 40
4.0
  9
$TRACEWID
 40
0.05
  9
$TEXTSTYLE
  7
STANDARD
  9
$CLAYER
  8
0
  9
$CELTYPE
  6
BYLAYER
  9
$CECOLOR
 62
   256
  9
$DIMSCALE
 40
0.5
  9
$DIMASZ
 40
3.0
  9
$DIMEXO
 40
2.0
  9
$DIMDLI
 40
0.38
  9
$DIMRND
 40
0.0
  9
$DIMDLE
 40
0.0
  9
$DIMEXE
 40
2.0
  9
$DIMTP
 40
0.0
  9
$DIMTM
 40
0.0
  9
$DIMTXT
 40
3.0
  9
$DIMCEN
 40
0.0
  9
$DIMTSZ
 40
0.0
  9
$DIMTOL
 70
     0
  9
$DIMLIM
 70
     0
  9
$DIMTIH
 70
     0
  9
$DIMTOH
 70
     0
  9
$DIMSE1
 70
     0
  9
$DIMSE2
 70
     0
  9
$DIMTAD
 70
     1
  9
$DIMZIN
 70
     0
  9
$DIMBLK
  1

  9
$DIMASO
 70
     0
  9
$DIMSHO
 70
     0
  9
$DIMPOST
  1

  9
$DIMAPOST
  1

  9
$DIMALT
 70
     0
  9
$DIMALTD
 70
     2
  9
$DIMALTF
 40
25.399999999999999
  9
$DIMLFAC
 40
1.0
  9
$DIMTOFL
 70
     0
  9
$DIMTVP
 40
1.6000000000000001
  9
$DIMTIX
 70
     1
  9
$DIMSOXD
 70
     0
  9
$DIMSAH
 70
     0
  9
$DIMBLK1
  1

  9
$DIMBLK2
  1

  9
$DIMSTYLE
  2
STANDARD
  9
$DIMCLRD
 70
     0
  9
$DIMCLRE
 70
     0
  9
$DIMCLRT
 70
     0
  9
$DIMTFAC
 40
1.0
  9
$DIMGAP
 40
0.09
  9
$LUNITS
 70
     2
  9
$LUPREC
 70
     4
  9
$SKETCHINC
 40
0.1
  9
$FILLETRAD
 40
1.0
  9
$AUNITS
 70
     0
  9
$AUPREC
 70
     0
  9
$MENU
  1
E:\r13\win\SUPPORT\ACAD
  9
$ELEVATION
 40
0.0
  9
$PELEVATION
 40
0.0
  9
$THICKNESS
 40
0.0
  9
$LIMCHECK
 70
     0
  9
$BLIPMODE
 70
     0
  9
$CHAMFERA
 40
0.0
  9
$CHAMFERB
 40
0.0
  9
$SKPOLY
 70
     0
  9
$TDCREATE
 40
2449840.6143865739
  9
$TDUPDATE
 40
2456597.6817250121
  9
$TDINDWG
 40
0.3155896644
  9
$TDUSRTIMER
 40
0.3155896644
  9
$USRTIMER
 70
     1
  9
$ANGBASE
 50
0.0
  9
$ANGDIR
 70
     0
  9
$PDMODE
 70
     0
  9
$PDSIZE
 40
0.0
  9
$PLINEWID
 40
0.0
  9
$COORDS
 70
     1
  9
$SPLFRAME
 70
     0
  9
$SPLINETYPE
 70
     6
  9
$SPLINESEGS
 70
     8
  9
$ATTDIA
 70
     0
  9
$ATTREQ
 70
     1
  9
$HANDLING
 70
     1
  9
$HANDSEED
  5
1D27
  9
$SURFTAB1
 70
     6
  9
$SURFTAB2
 70
     6
  9
$SURFTYPE
 70
     6
  9
$SURFU
 70
     6
  9
$SURFV
 70
     6
  9
$UCSNAME
  2

  9
$UCSORG
 10
0.0
 20
0.0
 30
0.0
  9
$UCSXDIR
 10
1.0
 20
0.0
 30
0.0
  9
$UCSYDIR
 10
0.0
 20
1.0
 30
0.0
  9
$PUCSNAME
  2

  9
$PUCSORG
 10
0.0
 20
0.0
 30
0.0
  9
$PUCSXDIR
 10
1.0
 20
0.0
 30
0.0
  9
$PUCSYDIR
 10
0.0
 20
1.0
 30
0.0
  9
$USERI1
 70
     0
  9
$USERI2
 70
     1
  9
$USERI3
 70
     1
  9
$USERI4
 70
     0
  9
$USERI5
 70
     0
  9
$USERR1
 40
0.0
  9
$USERR2
 40
0.0
  9
$USERR3
 40
0.0
  9
$USERR4
 40
0.0
  9
$USERR5
 40
0.0
  9
$WORLDVIEW
 70
     1
  9
$SHADEDGE
 70
     3
  9
$SHADEDIF
 70
    70
  9
$TILEMODE
 70
     1
  9
$MAXACTVP
 70
    16
  9
$PLIMCHECK
 70
     0
  9
$PEXTMIN
 10
1.0000000000000000E+020
 20
1.0000000000000000E+020
 30
1.0000000000000000E+020
  9
$PEXTMAX
 10
-1.0000000000000000E+020
 20
-1.0000000000000000E+020
 30
-1.0000000000000000E+020
  9
$PLIMMIN
 10
0.0
 20
0.0
  9
$PLIMMAX
 10
12.0
 20
9.0
  9
$UNITMODE
 70
     0
  9
$VISRETAIN
 70
     0
  9
$PLINEGEN
 70
     0
  9
$PSLTSCALE
 70
     0
  0
ENDSEC
  0
SECTION
  2
TABLES
  0
TABLE
  2
VPORT
 70
     1
  0
VPORT
  2
*ACTIVE
 70
     0
 10
0.0
 20
0.0
 11
1.0
 21
1.0
 12
93.74713919532617
 22
81.884014557112167
 13
0.0
 23
0.0
 14
5.0
 24
5.0
 15
5.0
 25
5.0
 16
0.0
 26
0.0
 36
1.0
 17
0.0
 27
0.0
 37
0.0
 40
171.64751057361821
 41
2.304913294797688
 42
50.0
 43
0.0
 44
0.0
 50
0.0
 51
0.0
 71
     0
 72
   100
 73
     1
 74
     0
 75
     0
 76
     0
 77
     0
 78
     0
  0
ENDTAB
  0
TABLE
  2
LTYPE
 70
     4
  0
LTYPE
  2
CONTINUOUS
 70
     0
  3
Solid Line
 72
    65
 73
     0
 40
0.0
  0
LTYPE
  2
CENTER
 70
     0
  3
____ _ ____ _ ____ _ ____ _ ____ _ ____ _ ____
 72
    65
 73
     4
 40
2.0
 49
1.25
 49
-0.25
 49
0.25
 49
-0.25
  0
LTYPE
  2
HIDDEN
 70
     0
  3
_ _ _ _ _ _ _ _ _ _ _ _ _ _ _ _ _ _ _ _ _ _ _
 72
    65
 73
     2
 40
0.375
 49
0.25
 49
-0.125
  0
LTYPE
  2
PHANTOM2
 70
     0
  3
___ _ _ ___ _ _ ___ _ _ ___ _ _
 72
    65
 73
     6
 40
1.25
 49
0.625
 49
-0.125
 49
0.125
 49
-0.125
 49
0.125
 49
-0.125
  0
ENDTAB
  0
TABLE
  2
LAYER
 70
     3
  0
LAYER
  2
0
 70
     0
 62
     7
  6
CONTINUOUS
  0
LAYER
  2
1
 70
     0
 62
     1
  6
CENTER
  0
LAYER
  2
2
 70
     0
 62
     2
  6
HIDDEN
  0
ENDTAB
  0
TABLE
  2
STYLE
 70
     2
  0
STYLE
  2
STANDARD
 70
     0
 40
0.0
 41
1.0
 50
0.0
 71
     0
 42
4.0
  3
TXT
  4
BIGFONT
  0
STYLE
  2
STANDARD1
 70
     0
 40
0.0
 41
1.0
 50
0.0
 71
     0
 42
3.0
  3
txt
  4

  0
ENDTAB
  0
TABLE
  2
VIEW
 70
     1
  0
VIEW
  2
ALL
 70
     0
 40
179.66152299999999
 10
141.903918
 20
89.830760999999995
 41
0.0
 11
0.0
 21
0.0
 31
1.0
 12
0.0
 22
0.0
 32
0.0
 42
0.0
 43
0.0
 44
0.0
 50
0.0
 71
     0
  0
ENDTAB
  0
TABLE
  2
UCS
 70
     0
  0
ENDTAB
  0
TABLE
  2
APPID
 70
     5
  0
APPID
  2
ACAD
 70
     0
  0
APPID
  2
DCO15
 70
     0
  0
APPID
  2
ACAD_EXEMPT_FROM_CAD_STANDARDS
 70
     0
  0
APPID
  2
ACAD_MLEADERVER
 70
     0
  0
APPID
  2
ACAD_NAV_VCDISPLAY
 70
     0
  0
ENDTAB
  0
TABLE
  2
DIMSTYLE
 70
     1
  0
DIMSTYLE
  2
STANDARD
 70
     0
  3

  4

  5

  6

  7

 40
1.0
 41
0.18
 42
0.0625
 43
0.38
 44
0.18
 45
0.0
 46
0.0
 47
0.0
 48
0.0
140
0.18
141
0.09
142
0.0
143
25.399999999999999
144
1.0
145
0.0
146
1.0
147
0.09
 71
     0
 72
     0
 73
     1
 74
     1
 75
     0
 76
     0
 77
     0
 78
     0
170
     0
171
     2
172
     0
173
     0
174
     0
175
     0
176
     0
177
     0
178
     0
  0
ENDTAB
  0
ENDSEC
  0
SECTION
  2
BLOCKS
  0
BLOCK
  8
0
  2
$MODEL_SPACE
 70
     0
 10
0.0
 20
0.0
 30
0.0
  3
$MODEL_SPACE
  1

  0
ENDBLK
  5
1BD
  8
0
  0
BLOCK
 67
     1
  8
0
  2
$PAPER_SPACE
 70
     0
 10
0.0
 20
0.0
 30
0.0
  3
$PAPER_SPACE
  1

  0
ENDBLK
  5
1BB
 67
     1
  8
0
  0
ENDSEC
  0
SECTION
  2
ENTITIES
  0
LINE
  5
196E
  8
0
 10
116.0
 20
27.799999999999979
 30
0.0
 11
116.0
 21
76.0
 31
0.0
  0
LINE
  5
196F
  8
0
 10
104.0
 20
76.0
 30
0.0
 11
104.0
 21
27.799999999999979
 31
0.0
  0
LINE
  5
1970
  8
0
 10
114.96076951545859
 20
26.000000000000028
 30
0.0
 11
116.0
 21
27.799999999999979
 31
0.0
  0
LINE
  5
1971
  8
0
 10
104.0
 20
27.799999999999979
 30
0.0
 11
105.03923048454131
 21
26.000000000000028
 31
0.0
  0
LINE
  5
1976
  8
0
 10
119.5
 20
88.400000000000006
 30
0.0
 11
126.5
 21
97.699999999999989
 31
0.0
  0
LINE
  5
1977
  8
0
 10
93.499999999999986
 20
97.699999999999989
 30
0.0
 11
100.5
 21
88.400000000000006
 31
0.0
  0
LINE
  5
1978
  8
0
 10
126.5
 20
97.699999999999989
 30
0.0
 11
126.5
 21
98.0
 31
0.0
  0
LINE
  5
1979
  8
0
 10
93.499999999999986
 20
98.0
 30
0.0
 11
93.499999999999986
 21
97.699999999999989
 31
0.0
  0
ARC
  5
197A
  8
0
 10
96.0
 20
98.0
 30
0.0
 40
2.5000000000000169
 50
126.86989764584391
 51
180.0
  0
ARC
  5
197B
  8
0
 10
124.0
 20
97.999999999999972
 30
0.0
 40
2.5000000000000151
 50
0.0
 51
53.130102354156023
  0
ARC
  5
197C
  8
2
 10
96.500370375450984
 20
99.499999999999915
 30
0.0
 40
0.5000000000000959
 50
61.727131828175288
 51
90.0
  0
ARC
  5
197D
  8
2
 10
123.499629624549
 20
99.499999999999858
 30
0.0
 40
0.5000000000001243
 50
90.0
 51
118.272868171824
  0
ARC
  5
197E
  8
2
 10
110.0
 20
124.60000000000009
 30
0.0
 40
28.00000000000006
 50
241.72713182817239
 51
298.2728681718275
  0
CIRCLE
  5
1981
  8
0
 10
110.0
 20
33.750000000000057
 30
0.0
 40
2.25
  0
LINE
  5
1984
  8
0
 10
105.03923048454131
 20
26.000000000000028
 30
0.0
 11
114.96076951545859
 21
26.000000000000028
 31
0.0
  0
LINE
  5
1985
  8
0
 10
104.0
 20
27.799999999999979
 30
0.0
 11
116.0
 21
27.799999999999979
 31
0.0
  0
LINE
  5
1989
  8
0
 10
93.499999999999986
 20
97.699999999999989
 30
0.0
 11
126.5
 21
97.699999999999989
 31
0.0
  0
LINE
  5
198A
  8
0
 10
93.499999999999986
 20
98.0
 30
0.0
 11
126.5
 21
98.0
 31
0.0
  0
LINE
  5
198E
  8
0
 10
94.500000000000014
 20
100.0
 30
0.0
 11
125.5
 21
100.0
 31
0.0
  0
POLYLINE
  5
1994
  8
0
 66
     1
 10
0.0
 20
0.0
 30
0.0
  0
VERTEX
  5
1BE1
  8
0
 10
108.5103352886812
 20
92.667113070036805
 30
0.0
  0
VERTEX
  5
1BE2
  8
0
 10
108.50723853661511
 20
92.705326545638698
 30
0.0
  0
VERTEX
  5
1BE3
  8
0
 10
108.5026483651333
 20
92.782684328815066
 30
0.0
  0
VERTEX
  5
1BE4
  8
0
 10
108.50029874599559
 20
92.861109387732085
 30
0.0
  0
VERTEX
  5
1BE5
  8
0
 10
108.5
 20
92.900656522467216
 30
0.0
  0
SEQEND
  5
1BE6
  8
0
  0
POLYLINE
  5
1995
  8
0
 66
     1
 10
0.0
 20
0.0
 30
0.0
  0
VERTEX
  5
1BE7
  8
0
 10
108.5
 20
92.900656522467216
 30
0.0
  0
VERTEX
  5
1BE8
  8
0
 10
108.500099168749
 20
92.92340098319778
 30
0.0
  0
VERTEX
  5
1BE9
  8
0
 10
108.5008994781015
 20
92.969055145295684
 30
0.0
  0
VERTEX
  5
1BEA
  8
0
 10
108.5025172521464
 20
93.014896583653965
 30
0.0
  0
VERTEX
  5
1BEB
  8
0
 10
108.50363797051
 20
93.037875157789784
 30
0.0
  0
VERTEX
  5
1BEC
  8
0
 10
108.504969245048
 20
93.060885717765501
 30
0.0
  0
VERTEX
  5
1BED
  8
0
 10
108.5082710290188
 20
93.106983107068544
 30
0.0
  0
VERTEX
  5
1BEE
  8
0
 10
108.5124370161128
 20
93.153149513677803
 30
0.0
  0
VERTEX
  5
1BEF
  8
0
 10
108.517480484412
 20
93.199345965622896
 30
0.0
  0
VERTEX
  5
1BF0
  8
0
 10
108.52341360919741
 20
93.245533821153245
 30
0.0
  0
VERTEX
  5
1BF1
  8
0
 10
108.53024749986309
 20
93.291674834598169
 30
0.0
  0
VERTEX
  5
1BF2
  8
0
 10
108.53400542320369
 20
93.314715948714849
 30
0.0
  0
VERTEX
  5
1BF3
  8
0
 10
108.5379922434948
 20
93.337731224190605
 30
0.0
  0
VERTEX
  5
1BF4
  8
0
 10
108.5466569562107
 20
93.383665742175594
 30
0.0
  0
VERTEX
  5
1BF5
  8
0
 10
108.55624984354201
 20
93.429441747416405
 30
0.0
  0
VERTEX
  5
1BF6
  8
0
 10
108.566778268219
 20
93.475023267769515
 30
0.0
  0
VERTEX
  5
1BF7
  8
0
 10
108.57824874304291
 20
93.520374741703506
 30
0.0
  0
VERTEX
  5
1BF8
  8
0
 10
108.5906668349614
 20
93.565460564466747
 30
0.0
  0
VERTEX
  5
1BF9
  8
0
 10
108.5972327134908
 20
93.587892716564852
 30
0.0
  0
VERTEX
  5
1BFA
  8
0
 10
108.6040371468947
 20
93.610245087246085
 30
0.0
  0
VERTEX
  5
1BFB
  8
0
 10
108.6183633153896
 20
93.654692673438149
 30
0.0
  0
VERTEX
  5
1BFC
  8
0
 10
108.633648012371
 20
93.698767752583947
 30
0.0
  0
VERTEX
  5
1BFD
  8
0
 10
108.6416503817741
 20
93.720654517435975
 30
0.0
  0
VERTEX
  5
1BFE
  8
0
 10
108.6498929517529
 20
93.742434873579242
 30
0.0
  0
VERTEX
  5
1BFF
  8
0
 10
108.6670989015562
 20
93.785658757521816
 30
0.0
  0
VERTEX
  5
1C00
  8
0
 10
108.6852657023246
 20
93.828404350477257
 30
0.0
  0
VERTEX
  5
1C01
  8
0
 10
108.6947091245337
 20
93.849586908001129
 30
0.0
  0
VERTEX
  5
1C02
  8
0
 10
108.7043922927904
 20
93.870636876343411
 30
0.0
  0
VERTEX
  5
1C03
  8
0
 10
108.7244767439027
 20
93.912321889873155
 30
0.0
  0
VERTEX
  5
1C04
  8
0
 10
108.7455163024993
 20
93.953425329761714
 30
0.0
  0
VERTEX
  5
1C05
  8
0
 10
108.7675074460692
 20
93.993913571513389
 30
0.0
  0
VERTEX
  5
1C06
  8
0
 10
108.79044595020829
 20
94.033753479564595
 30
0.0
  0
VERTEX
  5
1C07
  8
0
 10
108.8143269705066
 20
94.072912457844197
 30
0.0
  0
VERTEX
  5
1C08
  8
0
 10
108.82661926459581
 20
94.092226571412652
 30
0.0
  0
VERTEX
  5
1C09
  8
0
 10
108.8391451407028
 20
94.11135849758773
 30
0.0
  0
VERTEX
  5
1C0A
  8
0
 10
108.8648946889808
 20
94.14906022077929
 30
0.0
  0
VERTEX
  5
1C0B
  8
0
 10
108.8916686983132
 20
94.186120341736029
 30
0.0
  0
VERTEX
  5
1C0C
  8
0
 10
108.92013211884741
 20
94.223340237119587
 30
0.0
  0
VERTEX
  5
1C0D
  8
0
 10
108.9503966008153
 20
94.260668203229486
 30
0.0
  0
VERTEX
  5
1C0E
  8
0
 10
108.98243545396819
 20
94.297877354257736
 30
0.0
  0
VERTEX
  5
1C0F
  8
0
 10
108.99910830544469
 20
94.316367912929636
 30
0.0
  0
VERTEX
  5
1C10
  8
0
 10
109.01620869502121
 20
94.334746254428779
 30
0.0
  0
VERTEX
  5
1C11
  8
0
 10
109.0516627511429
 20
94.371060785140955
 30
0.0
  0
VERTEX
  5
1C12
  8
0
 10
109.0887306912921
 20
94.406616241562546
 30
0.0
  0
VERTEX
  5
1C13
  8
0
 10
109.1273332228827
 20
94.441219707262618
 30
0.0
  0
VERTEX
  5
1C14
  8
0
 10
109.1673800889976
 20
94.474692179555035
 30
0.0
  0
VERTEX
  5
1C15
  8
0
 10
109.20876430265839
 20
94.5068647268223
 30
0.0
  0
VERTEX
  5
1C16
  8
0
 10
109.2299182867758
 20
94.522412829240466
 30
0.0
  0
VERTEX
  5
1C17
  8
0
 10
109.2513562167006
 20
94.537576417296776
 30
0.0
  0
VERTEX
  5
1C18
  8
0
 10
109.2950038107212
 20
94.566677964246736
 30
0.0
  0
VERTEX
  5
1C19
  8
0
 10
109.33953420013751
 20
94.594035710516096
 30
0.0
  0
VERTEX
  5
1C1A
  8
0
 10
109.3847563832079
 20
94.619535592360904
 30
0.0
  0
VERTEX
  5
1C1B
  8
0
 10
109.4304717202893
 20
94.64308994892906
 30
0.0
  0
VERTEX
  5
1C1C
  8
0
 10
109.4778810620722
 20
94.665262659409123
 30
0.0
  0
VERTEX
  5
1C1D
  8
0
 10
109.50254740856001
 20
94.675923051748228
 30
0.0
  0
VERTEX
  5
1C1E
  8
0
 10
109.5278035966972
 20
94.686234040368362
 30
0.0
  0
VERTEX
  5
1C1F
  8
0
 10
109.5799150152919
 20
94.705626123345979
 30
0.0
  0
VERTEX
  5
1C20
  8
0
 10
109.63385091832249
 20
94.723105962224395
 30
0.0
  0
VERTEX
  5
1C21
  8
0
 10
109.68921908912451
 20
94.738396855245384
 30
0.0
  0
VERTEX
  5
1C22
  8
0
 10
109.7456185418426
 20
94.751286882352247
 30
0.0
  0
VERTEX
  5
1C23
  8
0
 10
109.8026335580433
 20
94.761627792132998
 30
0.0
  0
VERTEX
  5
1C24
  8
0
 10
109.831227517868
 20
94.765812294985949
 30
0.0
  0
VERTEX
  5
1C25
  8
0
 10
109.85979623731779
 20
94.769332014594227
 30
0.0
  0
VERTEX
  5
1C26
  8
0
 10
109.9165996475151
 20
94.774383290204582
 30
0.0
  0
VERTEX
  5
1C27
  8
0
 10
109.97252492921361
 20
94.776843592728511
 30
0.0
  0
VERTEX
  5
1C28
  8
0
 10
110.0
 20
94.777142857142834
 30
0.0
  0
VERTEX
  5
1C29
  8
0
 10
110.02747507078639
 20
94.776843592728511
 30
0.0
  0
VERTEX
  5
1C2A
  8
0
 10
110.0834003524849
 20
94.774383290204582
 30
0.0
  0
VERTEX
  5
1C2B
  8
0
 10
110.14020376268211
 20
94.769332014594227
 30
0.0
  0
VERTEX
  5
1C2C
  8
0
 10
110.168772482132
 20
94.765812294985949
 30
0.0
  0
VERTEX
  5
1C2D
  8
0
 10
110.1973664419567
 20
94.761627792132998
 30
0.0
  0
VERTEX
  5
1C2E
  8
0
 10
110.2543814581574
 20
94.751286882352247
 30
0.0
  0
VERTEX
  5
1C2F
  8
0
 10
110.31078091087549
 20
94.738396855245384
 30
0.0
  0
VERTEX
  5
1C30
  8
0
 10
110.36614908167741
 20
94.723105962224395
 30
0.0
  0
VERTEX
  5
1C31
  8
0
 10
110.4200849847081
 20
94.705626123345979
 30
0.0
  0
VERTEX
  5
1C32
  8
0
 10
110.4721964033028
 20
94.686234040368362
 30
0.0
  0
VERTEX
  5
1C33
  8
0
 10
110.4974525914399
 20
94.675923051748228
 30
0.0
  0
VERTEX
  5
1C34
  8
0
 10
110.5221189379277
 20
94.665262659409123
 30
0.0
  0
VERTEX
  5
1C35
  8
0
 10
110.5695282797106
 20
94.64308994892906
 30
0.0
  0
VERTEX
  5
1C36
  8
0
 10
110.6152436167921
 20
94.619535592360904
 30
0.0
  0
VERTEX
  5
1C37
  8
0
 10
110.66046579986239
 20
94.594035710516096
 30
0.0
  0
VERTEX
  5
1C38
  8
0
 10
110.7049961892787
 20
94.566677964246736
 30
0.0
  0
VERTEX
  5
1C39
  8
0
 10
110.7486437832994
 20
94.537576417296776
 30
0.0
  0
VERTEX
  5
1C3A
  8
0
 10
110.7700817132241
 20
94.522412829240494
 30
0.0
  0
VERTEX
  5
1C3B
  8
0
 10
110.7912356973417
 20
94.5068647268223
 30
0.0
  0
VERTEX
  5
1C3C
  8
0
 10
110.8326199110024
 20
94.474692179555035
 30
0.0
  0
VERTEX
  5
1C3D
  8
0
 10
110.8726667771172
 20
94.441219707262661
 30
0.0
  0
VERTEX
  5
1C3E
  8
0
 10
110.9112693087078
 20
94.406616241562546
 30
0.0
  0
VERTEX
  5
1C3F
  8
0
 10
110.948337248857
 20
94.371060785140955
 30
0.0
  0
VERTEX
  5
1C40
  8
0
 10
110.98379130497879
 20
94.334746254428779
 30
0.0
  0
VERTEX
  5
1C41
  8
0
 10
111.00089169455531
 20
94.316367912929636
 30
0.0
  0
VERTEX
  5
1C42
  8
0
 10
111.01756454603171
 20
94.297877354257736
 30
0.0
  0
VERTEX
  5
1C43
  8
0
 10
111.0496033991846
 20
94.260668203229486
 30
0.0
  0
VERTEX
  5
1C44
  8
0
 10
111.07986788115259
 20
94.223340237119629
 30
0.0
  0
VERTEX
  5
1C45
  8
0
 10
111.1083313016868
 20
94.186120341736029
 30
0.0
  0
VERTEX
  5
1C46
  8
0
 10
111.1351053110191
 20
94.14906022077929
 30
0.0
  0
VERTEX
  5
1C47
  8
0
 10
111.1608548592971
 20
94.11135849758773
 30
0.0
  0
VERTEX
  5
1C48
  8
0
 10
111.17338073540419
 20
94.092226571412652
 30
0.0
  0
VERTEX
  5
1C49
  8
0
 10
111.1856730294934
 20
94.072912457844211
 30
0.0
  0
VERTEX
  5
1C4A
  8
0
 10
111.20955404979161
 20
94.033753479564595
 30
0.0
  0
VERTEX
  5
1C4B
  8
0
 10
111.2324925539308
 20
93.993913571513389
 30
0.0
  0
VERTEX
  5
1C4C
  8
0
 10
111.2544836975007
 20
93.953425329761714
 30
0.0
  0
VERTEX
  5
1C4D
  8
0
 10
111.2755232560972
 20
93.912321889873155
 30
0.0
  0
VERTEX
  5
1C4E
  8
0
 10
111.2956077072095
 20
93.870636876343411
 30
0.0
  0
VERTEX
  5
1C4F
  8
0
 10
111.3052908754663
 20
93.849586908001129
 30
0.0
  0
VERTEX
  5
1C50
  8
0
 10
111.3147342976754
 20
93.828404350477285
 30
0.0
  0
VERTEX
  5
1C51
  8
0
 10
111.3329010984438
 20
93.785658757521816
 30
0.0
  0
VERTEX
  5
1C52
  8
0
 10
111.3501070482471
 20
93.742434873579242
 30
0.0
  0
VERTEX
  5
1C53
  8
0
 10
111.3583496182259
 20
93.720654517435975
 30
0.0
  0
VERTEX
  5
1C54
  8
0
 10
111.366351987629
 20
93.698767752583947
 30
0.0
  0
VERTEX
  5
1C55
  8
0
 10
111.3816366846104
 20
93.654692673438149
 30
0.0
  0
VERTEX
  5
1C56
  8
0
 10
111.3959628531053
 20
93.610245087246085
 30
0.0
  0
VERTEX
  5
1C57
  8
0
 10
111.4027672865091
 20
93.587892716564852
 30
0.0
  0
VERTEX
  5
1C58
  8
0
 10
111.4093331650385
 20
93.565460564466775
 30
0.0
  0
VERTEX
  5
1C59
  8
0
 10
111.42175125695709
 20
93.520374741703534
 30
0.0
  0
VERTEX
  5
1C5A
  8
0
 10
111.433221731781
 20
93.475023267769515
 30
0.0
  0
VERTEX
  5
1C5B
  8
0
 10
111.44375015645799
 20
93.429441747416405
 30
0.0
  0
VERTEX
  5
1C5C
  8
0
 10
111.4533430437893
 20
93.383665742175594
 30
0.0
  0
VERTEX
  5
1C5D
  8
0
 10
111.4620077565052
 20
93.337731224190605
 30
0.0
  0
VERTEX
  5
1C5E
  8
0
 10
111.46599457679621
 20
93.314715948714849
 30
0.0
  0
VERTEX
  5
1C5F
  8
0
 10
111.46975250013691
 20
93.291674834598211
 30
0.0
  0
VERTEX
  5
1C60
  8
0
 10
111.47658639080259
 20
93.245533821153288
 30
0.0
  0
VERTEX
  5
1C61
  8
0
 10
111.482519515588
 20
93.199345965622896
 30
0.0
  0
VERTEX
  5
1C62
  8
0
 10
111.4875629838872
 20
93.153149513677803
 30
0.0
  0
VERTEX
  5
1C63
  8
0
 10
111.4917289709812
 20
93.106983107068544
 30
0.0
  0
VERTEX
  5
1C64
  8
0
 10
111.495030754952
 20
93.060885717765501
 30
0.0
  0
VERTEX
  5
1C65
  8
0
 10
111.49636202949
 20
93.037875157789784
 30
0.0
  0
VERTEX
  5
1C66
  8
0
 10
111.4974827478536
 20
93.014896583653965
 30
0.0
  0
VERTEX
  5
1C67
  8
0
 10
111.4991005218985
 20
92.969055145295684
 30
0.0
  0
VERTEX
  5
1C68
  8
0
 10
111.499900831251
 20
92.923400983197809
 30
0.0
  0
VERTEX
  5
1C69
  8
0
 10
111.5
 20
92.900656522467216
 30
0.0
  0
SEQEND
  5
1C6A
  8
0
  0
POLYLINE
  5
1996
  8
0
 66
     1
 10
0.0
 20
0.0
 30
0.0
  0
VERTEX
  5
1C6B
  8
0
 10
111.5
 20
92.900656522467216
 30
0.0
  0
VERTEX
  5
1C6C
  8
0
 10
111.49989900141119
 20
92.877672518141594
 30
0.0
  0
VERTEX
  5
1C6D
  8
0
 10
111.4990987326193
 20
92.831915178586769
 30
0.0
  0
VERTEX
  5
1C6E
  8
0
 10
111.4975185981276
 20
92.786473072900336
 30
0.0
  0
VERTEX
  5
1C6F
  8
0
 10
111.4964430718004
 20
92.763883081062616
 30
0.0
  0
VERTEX
  5
1C70
  8
0
 10
111.4951811304079
 20
92.741387293145237
 30
0.0
  0
VERTEX
  5
1C71
  8
0
 10
111.4921101636845
 20
92.696698727645156
 30
0.0
  0
VERTEX
  5
1C72
  8
0
 10
111.48832593224139
 20
92.652395690409861
 30
0.0
  0
VERTEX
  5
1C73
  8
0
 10
111.4837770692783
 20
92.60783663201525
 30
0.0
  0
VERTEX
  5
1C74
  8
0
 10
111.478428431376
 20
92.562853940928264
 30
0.0
  0
VERTEX
  5
1C75
  8
0
 10
111.4722626331129
 20
92.517491245193156
 30
0.0
  0
VERTEX
  5
1C76
  8
0
 10
111.4688682668487
 20
92.494681130521457
 30
0.0
  0
VERTEX
  5
1C77
  8
0
 10
111.46526375156721
 20
92.471792535670005
 30
0.0
  0
VERTEX
  5
1C78
  8
0
 10
111.4574172864945
 20
92.425802095347223
 30
0.0
  0
VERTEX
  5
1C79
  8
0
 10
111.4487101141718
 20
92.379564433342722
 30
0.0
  0
VERTEX
  5
1C7A
  8
0
 10
111.4391304352424
 20
92.333124222571556
 30
0.0
  0
VERTEX
  5
1C7B
  8
0
 10
111.42866771671351
 20
92.286526240233798
 30
0.0
  0
VERTEX
  5
1C7C
  8
0
 10
111.41731262809429
 20
92.239815310436384
 30
0.0
  0
VERTEX
  5
1C7D
  8
0
 10
111.4112978409587
 20
92.216431496845516
 30
0.0
  0
VERTEX
  5
1C7E
  8
0
 10
111.4050569714973
 20
92.193036248407324
 30
0.0
  0
VERTEX
  5
1C7F
  8
0
 10
111.39189360537
 20
92.146233805903947
 30
0.0
  0
VERTEX
  5
1C80
  8
0
 10
111.37781636136739
 20
92.099452617563969
 30
0.0
  0
VERTEX
  5
1C81
  8
0
 10
111.3704333515284
 20
92.076083896991946
 30
0.0
  0
VERTEX
  5
1C82
  8
0
 10
111.3628199537183
 20
92.052737148101656
 30
0.0
  0
VERTEX
  5
1C83
  8
0
 10
111.3468998802883
 20
92.00613164042835
 30
0.0
  0
VERTEX
  5
1C84
  8
0
 10
111.3300523143841
 20
91.959680064976254
 30
0.0
  0
VERTEX
  5
1C85
  8
0
 10
111.3212796816596
 20
91.936525655992313
 30
0.0
  0
VERTEX
  5
1C86
  8
0
 10
111.3122739861974
 20
91.913426070742659
 30
0.0
  0
VERTEX
  5
1C87
  8
0
 10
111.2935621168246
 20
91.86741309238144
 30
0.0
  0
VERTEX
  5
1C88
  8
0
 10
111.2739146329027
 20
91.821685077327203
 30
0.0
  0
VERTEX
  5
1C89
  8
0
 10
111.253330011011
 20
91.776286210271664
 30
0.0
  0
VERTEX
  5
1C8A
  8
0
 10
111.23180711063419
 20
91.731260701669854
 30
0.0
  0
VERTEX
  5
1C8B
  8
0
 10
111.2093450746451
 20
91.686652782269675
 30
0.0
  0
VERTEX
  5
1C8C
  8
0
 10
111.1977616643583
 20
91.664519246762183
 30
0.0
  0
VERTEX
  5
1C8D
  8
0
 10
111.1859432227412
 20
91.642506706310044
 30
0.0
  0
VERTEX
  5
1C8E
  8
0
 10
111.1616009375161
 20
91.598866765031659
 30
0.0
  0
VERTEX
  5
1C8F
  8
0
 10
111.1363175430517
 20
91.555777312663537
 30
0.0
  0
VERTEX
  5
1C90
  8
0
 10
111.1100921761777
 20
91.513282807536584
 30
0.0
  0
VERTEX
  5
1C91
  8
0
 10
111.082923650936
 20
91.471427871528334
 30
0.0
  0
VERTEX
  5
1C92
  8
0
 10
111.054810317343
 20
91.43025737164885
 30
0.0
  0
VERTEX
  5
1C93
  8
0
 10
111.0403986692466
 20
91.409942899224305
 30
0.0
  0
VERTEX
  5
1C94
  8
0
 10
111.0257499163144
 20
91.389816528227044
 30
0.0
  0
VERTEX
  5
1C95
  8
0
 10
110.995739433648
 20
91.350151054822135
 30
0.0
  0
VERTEX
  5
1C96
  8
0
 10
110.9647749573278
 20
91.31130733561821
 30
0.0
  0
VERTEX
  5
1C97
  8
0
 10
110.9328515441748
 20
91.273332646591228
 30
0.0
  0
VERTEX
  5
1C98
  8
0
 10
110.89996310409541
 20
91.23627542705222
 30
0.0
  0
VERTEX
  5
1C99
  8
0
 10
110.8659985895673
 20
91.200078151818417
 30
0.0
  0
VERTEX
  5
1C9A
  8
0
 10
110.8483830728912
 20
91.182095353437688
 30
0.0
  0
VERTEX
  5
1C9B
  8
0
 10
110.8303115555133
 20
91.164188004819067
 30
0.0
  0
VERTEX
  5
1C9C
  8
0
 10
110.7928168954418
 20
91.128719637258058
 30
0.0
  0
VERTEX
  5
1C9D
  8
0
 10
110.7535531296222
 20
91.093911968273119
 30
0.0
  0
VERTEX
  5
1C9E
  8
0
 10
110.7125682314845
 20
91.060001234596683
 30
0.0
  0
VERTEX
  5
1C9F
  8
0
 10
110.66991974268019
 20
91.027219380541865
 30
0.0
  0
VERTEX
  5
1CA0
  8
0
 10
110.6256744776052
 20
90.995792209797528
 30
0.0
  0
VERTEX
  5
1CA1
  8
0
 10
110.6029762593021
 20
90.980655006049716
 30
0.0
  0
VERTEX
  5
1CA2
  8
0
 10
110.5799076019141
 20
90.965937299726846
 30
0.0
  0
VERTEX
  5
1CA3
  8
0
 10
110.5327008111351
 20
90.937861743596343
 30
0.0
  0
VERTEX
  5
1CA4
  8
0
 10
110.4841386688675
 20
90.911759569465346
 30
0.0
  0
VERTEX
  5
1CA5
  8
0
 10
110.43429141015289
 20
90.887804244852333
 30
0.0
  0
VERTEX
  5
1CA6
  8
0
 10
110.3832601895828
 20
90.866171661027209
 30
0.0
  0
VERTEX
  5
1CA7
  8
0
 10
110.3311721538125
 20
90.847030662222977
 30
0.0
  0
VERTEX
  5
1CA8
  8
0
 10
110.3047747388413
 20
90.838442543887837
 30
0.0
  0
VERTEX
  5
1CA9
  8
0
 10
110.2781655248573
 20
90.830532412869658
 30
0.0
  0
VERTEX
  5
1CAA
  8
0
 10
110.2243837078674
 20
90.816806787432526
 30
0.0
  0
VERTEX
  5
1CAB
  8
0
 10
110.1699732934776
 20
90.805961304549811
 30
0.0
  0
VERTEX
  5
1CAC
  8
0
 10
110.14258196966919
 20
90.801646455659608
 30
0.0
  0
VERTEX
  5
1CAD
  8
0
 10
110.11509490424341
 20
90.798082096330475
 30
0.0
  0
VERTEX
  5
1CAE
  8
0
 10
110.05992155505091
 20
90.793230379954835
 30
0.0
  0
VERTEX
  5
1CAF
  8
0
 10
110.0046290211679
 20
90.791439320585226
 30
0.0
  0
VERTEX
  5
1CB0
  8
0
 10
109.9769801159887
 20
90.791694413168187
 30
0.0
  0
VERTEX
  5
1CB1
  8
0
 10
109.9493328496015
 20
90.792716682874641
 30
0.0
  0
VERTEX
  5
1CB2
  8
0
 10
109.8941273760921
 20
90.797057464873944
 30
0.0
  0
VERTEX
  5
1CB3
  8
0
 10
109.8391873351997
 20
90.804433289364368
 30
0.0
  0
VERTEX
  5
1CB4
  8
0
 10
109.784686929128
 20
90.814787494007987
 30
0.0
  0
VERTEX
  5
1CB5
  8
0
 10
109.7307893976165
 20
90.828037798894258
 30
0.0
  0
VERTEX
  5
1CB6
  8
0
 10
109.67764294246911
 20
90.844080243048666
 30
0.0
  0
VERTEX
  5
1CB7
  8
0
 10
109.6513963480992
 20
90.853109999628344
 30
0.0
  0
VERTEX
  5
1CB8
  8
0
 10
109.62539124084731
 20
90.862788745982158
 30
0.0
  0
VERTEX
  5
1CB9
  8
0
 10
109.5741738499209
 20
90.884015487629341
 30
0.0
  0
VERTEX
  5
1CBA
  8
0
 10
109.524120089905
 20
90.90759429262954
 30
0.0
  0
VERTEX
  5
1CBB
  8
0
 10
109.4753380723301
 20
90.933348699674866
 30
0.0
  0
VERTEX
  5
1CBC
  8
0
 10
109.42789847601119
 20
90.961106954575158
 30
0.0
  0
VERTEX
  5
1CBD
  8
0
 10
109.38188467135591
 20
90.990678051610786
 30
0.0
  0
VERTEX
  5
1CBE
  8
0
 10
109.359438441438
 20
91.00607976972961
 30
0.0
  0
VERTEX
  5
1CBF
  8
0
 10
109.3373791881029
 20
91.021856877682097
 30
0.0
  0
VERTEX
  5
1CC0
  8
0
 10
109.2944584411251
 20
91.054427450594375
 30
0.0
  0
VERTEX
  5
1CC1
  8
0
 10
109.2531907280601
 20
91.088165192753308
 30
0.0
  0
VERTEX
  5
1CC2
  8
0
 10
109.21363517773349
 20
91.122839052469018
 30
0.0
  0
VERTEX
  5
1CC3
  8
0
 10
109.17584136650019
 20
91.158213393355155
 30
0.0
  0
VERTEX
  5
1CC4
  8
0
 10
109.1398493771007
 20
91.194049642363694
 30
0.0
  0
VERTEX
  5
1CC5
  8
0
 10
109.1225390739299
 20
91.212065983066253
 30
0.0
  0
VERTEX
  5
1CC6
  8
0
 10
109.10563844711869
 20
91.230163855162559
 30
0.0
  0
VERTEX
  5
1CC7
  8
0
 10
109.0725877445925
 20
91.267062622349869
 30
0.0
  0
VERTEX
  5
1CC8
  8
0
 10
109.0405032074909
 20
91.304887105546726
 30
0.0
  0
VERTEX
  5
1CC9
  8
0
 10
109.00937854419951
 20
91.343588640190333
 30
0.0
  0
VERTEX
  5
1CCA
  8
0
 10
108.9792086269491
 20
91.383119775910785
 30
0.0
  0
VERTEX
  5
1CCB
  8
0
 10
108.94998938000229
 20
91.423433995904105
 30
0.0
  0
VERTEX
  5
1CCC
  8
0
 10
108.93573523988751
 20
91.443870423936005
 30
0.0
  0
VERTEX
  5
1CCD
  8
0
 10
108.9217176486078
 20
91.464485487795201
 30
0.0
  0
VERTEX
  5
1CCE
  8
0
 10
108.89439105739559
 20
91.506228959364066
 30
0.0
  0
VERTEX
  5
1CCF
  8
0
 10
108.8680078645763
 20
91.548619492775927
 30
0.0
  0
VERTEX
  5
1CD0
  8
0
 10
108.84256681647319
 20
91.591612431458316
 30
0.0
  0
VERTEX
  5
1CD1
  8
0
 10
108.8180670054881
 20
91.635163294389599
 30
0.0
  0
VERTEX
  5
1CD2
  8
0
 10
108.7945077335168
 20
91.679227713230318
 30
0.0
  0
VERTEX
  5
1CD3
  8
0
 10
108.783080606665
 20
91.701438660674569
 30
0.0
  0
VERTEX
  5
1CD4
  8
0
 10
108.7718883820209
 20
91.723761388378932
 30
0.0
  0
VERTEX
  5
1CD5
  8
0
 10
108.7502082893721
 20
91.768720060651859
 30
0.0
  0
VERTEX
  5
1CD6
  8
0
 10
108.729466635675
 20
91.814059495846863
 30
0.0
  0
VERTEX
  5
1CD7
  8
0
 10
108.7194473972675
 20
91.836858181815145
 30
0.0
  0
VERTEX
  5
1CD8
  8
0
 10
108.7096623349854
 20
91.859735479949933
 30
0.0
  0
VERTEX
  5
1CD9
  8
0
 10
108.6907939346673
 20
91.905703823185604
 30
0.0
  0
VERTEX
  5
1CDA
  8
0
 10
108.6728594752597
 20
91.951920494184975
 30
0.0
  0
VERTEX
  5
1CDB
  8
0
 10
108.6642416579005
 20
91.975108366475567
 30
0.0
  0
VERTEX
  5
1CDC
  8
0
 10
108.6558562801543
 20
91.998342020226616
 30
0.0
  0
VERTEX
  5
1CDD
  8
0
 10
108.63978116044549
 20
92.044924810637951
 30
0.0
  0
VERTEX
  5
1CDE
  8
0
 10
108.6246303912452
 20
92.091624945451159
 30
0.0
  0
VERTEX
  5
1CDF
  8
0
 10
108.6103995913204
 20
92.138398223884735
 30
0.0
  0
VERTEX
  5
1CE0
  8
0
 10
108.5970836132441
 20
92.185200214774255
 30
0.0
  0
VERTEX
  5
1CE1
  8
0
 10
108.58467644297821
 20
92.231986308276149
 30
0.0
  0
VERTEX
  5
1CE2
  8
0
 10
108.57881152163191
 20
92.255359417014887
 30
0.0
  0
VERTEX
  5
1CE3
  8
0
 10
108.5731711079097
 20
92.278711768526961
 30
0.0
  0
VERTEX
  5
1CE4
  8
0
 10
108.5625595925157
 20
92.325331787148883
 30
0.0
  0
VERTEX
  5
1CE5
  8
0
 10
108.5528327609846
 20
92.371801537669896
 30
0.0
  0
VERTEX
  5
1CE6
  8
0
 10
108.5439802862785
 20
92.418076231085792
 30
0.0
  0
VERTEX
  5
1CE7
  8
0
 10
108.5359905852774
 20
92.464111172937933
 30
0.0
  0
VERTEX
  5
1CE8
  8
0
 10
108.5288507598008
 20
92.509861822424256
 30
0.0
  0
VERTEX
  5
1CE9
  8
0
 10
108.5255951469173
 20
92.532616675687109
 30
0.0
  0
VERTEX
  5
1CEA
  8
0
 10
108.5225465434674
 20
92.55528385420493
 30
0.0
  0
VERTEX
  5
1CEB
  8
0
 10
108.5170622545172
 20
92.600333223721066
 30
0.0
  0
VERTEX
  5
1CEC
  8
0
 10
108.5123807548963
 20
92.644966237017627
 30
0.0
  0
VERTEX
  5
1CED
  8
0
 10
108.5103352886812
 20
92.667113070036805
 30
0.0
  0
SEQEND
  5
1CEE
  8
0
  0
LINE
  5
1997
  8
1
 10
104.75
 20
33.750000000000028
 30
0.0
 11
115.25
 21
33.750000000000028
 31
0.0
  0
LINE
  5
1998
  8
1
 10
110.0
 20
103.0
 30
0.0
 11
110.0
 21
23.00000000000006
 31
0.0
  0
CIRCLE
  5
19B1
  8
0
 10
50.000000000000057
 20
146.50000000000011
 30
0.0
 40
16.5
  0
ARC
  5
19B3
  8
0
 10
50.000000000000057
 20
146.50000000000011
 30
0.0
 40
13.499629624548961
 50
5.7857750260735381
 51
354.21422497392649
  0
CIRCLE
  5
19B4
  8
0
 10
50.000000000000057
 20
146.50000000000011
 30
0.0
 40
15.5
  0
LINE
  5
19B6
  8
1
 10
50.0
 20
166.00000000000011
 30
0.0
 11
50.0
 21
127.0000000000001
 31
0.0
  0
LINE
  5
19B7
  8
1
 10
30.50000000000006
 20
146.5
 30
0.0
 11
69.500000000000057
 21
146.50000000000011
 31
0.0
  0
LINE
  5
19BC
  8
1
 10
39.75
 20
33.750000000000028
 30
0.0
 11
60.25
 21
33.750000000000028
 31
0.0
  0
LINE
  5
19BF
  8
1
 10
62.800000000000118
 20
103.0
 30
0.0
 11
62.800000000000011
 21
87.061604666580507
 31
0.0
  0
LINE
  5
19C0
  8
1
 10
50.0
 20
103.0
 30
0.0
 11
49.999999999999943
 21
23.000000000000028
 31
0.0
  0
LINE
  5
19CD
  8
0
 10
34.5
 20
100.0
 30
0.0
 11
65.5
 21
100.0
 31
0.0
  0
LINE
  5
19CF
  8
0
 10
33.5
 20
98.0
 30
0.0
 11
66.5
 21
98.0
 31
0.0
  0
LINE
  5
19D0
  8
0
 10
33.5
 20
97.699999999999989
 30
0.0
 11
66.5
 21
97.699999999999989
 31
0.0
  0
LINE
  5
19D4
  8
0
 10
44.0
 20
27.80000000000004
 30
0.0
 11
56.0
 21
27.80000000000004
 31
0.0
  0
LINE
  5
19D5
  8
0
 10
45.039230484541349
 20
26.000000000000028
 30
0.0
 11
54.960769515458651
 21
26.000000000000028
 31
0.0
  0
ARC
  5
19E2
  8
2
 10
50.000000000000057
 20
124.59999999999999
 30
0.0
 40
28.000000000000021
 50
241.72713182817239
 51
293.80163643856997
  0
ARC
  5
19E3
  8
2
 10
36.500370375451041
 20
99.499999999999943
 30
0.0
 40
0.5000000000000959
 50
61.727131828175288
 51
90.0
  0
ARC
  5
19E4
  8
0
 10
64.0
 20
98.000000000000043
 30
0.0
 40
2.5000000000000151
 50
0.0
 51
53.130102354156023
  0
ARC
  5
19E5
  8
0
 10
36.000000000000057
 20
98.000000000000043
 30
0.0
 40
2.5000000000000169
 50
126.86989764584391
 51
180.0
  0
LINE
  5
19E6
  8
0
 10
33.5
 20
98.0
 30
0.0
 11
33.5
 21
97.699999999999989
 31
0.0
  0
LINE
  5
19E7
  8
0
 10
66.5
 20
97.699999999999989
 30
0.0
 11
66.5
 21
98.0
 31
0.0
  0
LINE
  5
19E8
  8
0
 10
33.5
 20
97.699999999999989
 30
0.0
 11
40.499999999999993
 21
88.400000000000006
 31
0.0
  0
LINE
  5
19EF
  8
0
 10
44.0
 20
27.80000000000004
 30
0.0
 11
45.039230484541349
 21
26.000000000000028
 31
0.0
  0
LINE
  5
19F0
  8
0
 10
54.960769515458651
 20
26.000000000000028
 30
0.0
 11
56.0
 21
27.80000000000004
 31
0.0
  0
LINE
  5
19F1
  8
0
 10
44.0
 20
76.0
 30
0.0
 11
44.0
 21
36.000000000000028
 31
0.0
  0
LINE
  5
19F2
  8
0
 10
44.0
 20
31.500000000000028
 30
0.0
 11
44.0
 21
27.80000000000004
 31
0.0
  0
LINE
  5
19F3
  8
0
 10
56.0
 20
27.80000000000004
 30
0.0
 11
56.0
 21
31.500000000000028
 31
0.0
  0
LINE
  5
19F4
  8
0
 10
56.0
 20
36.000000000000028
 30
0.0
 11
56.0
 21
76.0
 31
0.0
  0
ARC
  5
19F8
  8
0
 10
54.990000000000009
 20
33.750000000000028
 30
0.0
 40
2.2599999999999971
 50
294.4614640191005
 51
65.538535980899482
  0
ARC
  5
19FD
  8
0
 10
45.009999999999991
 20
33.750000000000028
 30
0.0
 40
2.2599999999999958
 50
114.46146401910291
 51
245.53853598089711
  0
LINE
  5
1A11
  8
1
 10
62.800000000000097
 20
142.0000349050363
 30
0.0
 11
62.800000000000097
 21
150.99996509496381
 31
0.0
  0
LINE
  5
1A58
  8
0
 10
58.693018771601302
 20
75.999999999999972
 30
0.0
 11
59.499999999999993
 21
76.799969538451279
 31
0.0
  0
LINE
  5
1A59
  8
0
 10
40.499999999999993
 20
76.799969538451279
 30
0.0
 11
41.306981228398683
 21
75.999999999999972
 31
0.0
  0
LINE
  5
1A5A
  8
0
 10
41.306981228398691
 20
75.999999999999972
 30
0.0
 11
58.693018771601288
 21
75.999999999999957
 31
0.0
  0
LINE
  5
1A5B
  8
0
 10
40.499999999999979
 20
76.799969538451279
 30
0.0
 11
59.499999999999993
 21
76.799969538451279
 31
0.0
  0
LINE
  5
1A5C
  8
0
 10
40.499999999999979
 20
88.400000000000006
 30
0.0
 11
59.499999999999993
 21
88.400000000000006
 31
0.0
  0
LINE
  5
1A5E
  8
0
 10
40.499999999999979
 20
88.400000000000006
 30
0.0
 11
40.499999999999979
 21
76.799969538451265
 31
0.0
  0
LINE
  5
1A5F
  8
0
 10
59.499999999999993
 20
88.400000000000006
 30
0.0
 11
59.499999999999993
 21
76.799969538451265
 31
0.0
  0
LINE
  5
1A6C
  8
0
 10
118.6930187716013
 20
76.000000000000014
 30
0.0
 11
119.5
 21
76.799969538451322
 31
0.0
  0
LINE
  5
1A6D
  8
0
 10
100.5
 20
76.799969538451322
 30
0.0
 11
101.3069812283987
 21
76.000000000000014
 31
0.0
  0
LINE
  5
1A6E
  8
0
 10
101.3069812283987
 20
76.000000000000014
 30
0.0
 11
118.6930187716013
 21
76.0
 31
0.0
  0
LINE
  5
1A6F
  8
0
 10
100.5
 20
76.799969538451322
 30
0.0
 11
119.5
 21
76.799969538451322
 31
0.0
  0
LINE
  5
1A70
  8
0
 10
100.5
 20
88.400000000000048
 30
0.0
 11
119.5
 21
88.400000000000048
 31
0.0
  0
LINE
  5
1A72
  8
0
 10
100.5
 20
88.400000000000048
 30
0.0
 11
100.5
 21
76.799969538451293
 31
0.0
  0
LINE
  5
1A73
  8
0
 10
119.5
 20
88.400000000000048
 30
0.0
 11
119.5
 21
76.799969538451293
 31
0.0
  0
LINE
  5
1A74
  8
0
 10
59.499999999999993
 20
88.400000000000006
 30
0.0
 11
66.5
 21
97.699999999999989
 31
0.0
  0
CIRCLE
  5
1B02
  8
0
 10
62.800000000000097
 20
146.50000000000011
 30
0.0
 40
1.4999650949637831
  0
ARC
  5
1B0D
  8
2
 10
0.0683862090963743
 20
221.5686690233253
 30
0.0
 40
137.02896152700939
 50
296.54186602931031
 51
297.42552208695082
  0
ARC
  5
1B0E
  8
2
 10
63.42939773454767
 20
99.462398841235299
 30
0.0
 40
0.5376031457292282
 50
89.844223507753981
 51
117.24682863887961
  0
ARC
  5
1B0F
  8
0
 10
61.562148865322108
 20
33.750000000000028
 30
0.0
 40
6.0000000000003393
 50
157.9756871629591
 51
202.0243128370409
  0
ARC
  5
1B10
  8
0
 10
38.437851134677793
 20
33.750000000000028
 30
0.0
 40
6.0000000000003393
 50
337.9756871629591
 51
22.024312837040959
  0
TEXT
  5
1BB4
  8
0
 62
     3
 10
0.0
 20
0.0
 30
0.0
 40
10.0
  1
NBLP12040-SUS
  7
STANDARD1
  0
ENDSEC
  0
EOF
