  0
SECTION
  2
HEADER
  9
$ACADVER
  1
AC1009
  9
$INSBASE
 10
0.0
 20
0.0
 30
0.0
  9
$EXTMIN
 10
0.0
 20
-1.4802182810368341
 30
0.0
  9
$EXTMAX
 10
186.98560284954749
 20
134.08601475931999
 30
0.0
  9
$LIMMIN
 10
0.0
 20
0.0
  9
$LIMMAX
 10
385.0
 20
270.0
  9
$ORTHOMODE
 70
     1
  9
$REGENMODE
 70
     1
  9
$FILLMODE
 70
     1
  9
$QTEXTMODE
 70
     0
  9
$MIRRTEXT
 70
     0
  9
$DRAGMODE
 70
     2
  9
$LTSCALE
 40
10.0
  9
$OSMODE
 70
  3071
  9
$ATTMODE
 70
     1
  9
$TEXTSIZE
 40
4.000000000000048
  9
$TRACEWID
 40
0.05
  9
$TEXTSTYLE
  7
STANDARD
  9
$CLAYER
  8
0
  9
$CELTYPE
  6
BYLAYER
  9
$CECOLOR
 62
   256
  9
$DIMSCALE
 40
1.0
  9
$DIMASZ
 40
3.0
  9
$DIMEXO
 40
2.0
  9
$DIMDLI
 40
0.38
  9
$DIMRND
 40
0.0
  9
$DIMDLE
 40
0.0
  9
$DIMEXE
 40
2.0
  9
$DIMTP
 40
0.0
  9
$DIMTM
 40
0.0
  9
$DIMTXT
 40
3.0
  9
$DIMCEN
 40
0.0
  9
$DIMTSZ
 40
0.0
  9
$DIMTOL
 70
     0
  9
$DIMLIM
 70
     0
  9
$DIMTIH
 70
     0
  9
$DIMTOH
 70
     0
  9
$DIMSE1
 70
     0
  9
$DIMSE2
 70
     0
  9
$DIMTAD
 70
     1
  9
$DIMZIN
 70
     0
  9
$DIMBLK
  1

  9
$DIMASO
 70
     1
  9
$DIMSHO
 70
     0
  9
$DIMPOST
  1

  9
$DIMAPOST
  1

  9
$DIMALT
 70
     0
  9
$DIMALTD
 70
     2
  9
$DIMALTF
 40
25.399999999999999
  9
$DIMLFAC
 40
1.0
  9
$DIMTOFL
 70
     1
  9
$DIMTVP
 40
1.6000000000000001
  9
$DIMTIX
 70
     1
  9
$DIMSOXD
 70
     0
  9
$DIMSAH
 70
     0
  9
$DIMBLK1
  1

  9
$DIMBLK2
  1

  9
$DIMSTYLE
  2
STANDARD
  9
$DIMCLRD
 70
     0
  9
$DIMCLRE
 70
     0
  9
$DIMCLRT
 70
     0
  9
$DIMTFAC
 40
1.0
  9
$DIMGAP
 40
1.0
  9
$LUNITS
 70
     2
  9
$LUPREC
 70
     4
  9
$SKETCHINC
 40
0.1
  9
$FILLETRAD
 40
0.0
  9
$AUNITS
 70
     0
  9
$AUPREC
 70
     4
  9
$MENU
  1
E:\r13\win\SUPPORT\ACAD
  9
$ELEVATION
 40
0.0
  9
$PELEVATION
 40
0.0
  9
$THICKNESS
 40
0.0
  9
$LIMCHECK
 70
     0
  9
$BLIPMODE
 70
     0
  9
$CHAMFERA
 40
0.0
  9
$CHAMFERB
 40
0.0
  9
$SKPOLY
 70
     0
  9
$TDCREATE
 40
2450280.598206134
  9
$TDUPDATE
 40
2456597.6881256248
  9
$TDINDWG
 40
0.0648934838
  9
$TDUSRTIMER
 40
0.0648934838
  9
$USRTIMER
 70
     1
  9
$ANGBASE
 50
0.0
  9
$ANGDIR
 70
     0
  9
$PDMODE
 70
     0
  9
$PDSIZE
 40
0.0
  9
$PLINEWID
 40
0.0
  9
$COORDS
 70
     1
  9
$SPLFRAME
 70
     0
  9
$SPLINETYPE
 70
     6
  9
$SPLINESEGS
 70
     8
  9
$ATTDIA
 70
     0
  9
$ATTREQ
 70
     1
  9
$HANDLING
 70
     1
  9
$HANDSEED
  5
82C
  9
$SURFTAB1
 70
     6
  9
$SURFTAB2
 70
     6
  9
$SURFTYPE
 70
     6
  9
$SURFU
 70
     6
  9
$SURFV
 70
     6
  9
$UCSNAME
  2

  9
$UCSORG
 10
0.0
 20
0.0
 30
0.0
  9
$UCSXDIR
 10
1.0
 20
0.0
 30
0.0
  9
$UCSYDIR
 10
0.0
 20
1.0
 30
0.0
  9
$PUCSNAME
  2

  9
$PUCSORG
 10
0.0
 20
0.0
 30
0.0
  9
$PUCSXDIR
 10
1.0
 20
0.0
 30
0.0
  9
$PUCSYDIR
 10
0.0
 20
1.0
 30
0.0
  9
$USERI1
 70
     3
  9
$USERI2
 70
     1
  9
$USERI3
 70
     1
  9
$USERI4
 70
     0
  9
$USERI5
 70
     0
  9
$USERR1
 40
1.0
  9
$USERR2
 40
3.0
  9
$USERR3
 40
3.0
  9
$USERR4
 40
3.0
  9
$USERR5
 40
10.0
  9
$WORLDVIEW
 70
     1
  9
$SHADEDGE
 70
     3
  9
$SHADEDIF
 70
    70
  9
$TILEMODE
 70
     1
  9
$MAXACTVP
 70
    16
  9
$PLIMCHECK
 70
     0
  9
$PEXTMIN
 10
1.0000000000000000E+020
 20
1.0000000000000000E+020
 30
1.0000000000000000E+020
  9
$PEXTMAX
 10
-1.0000000000000000E+020
 20
-1.0000000000000000E+020
 30
-1.0000000000000000E+020
  9
$PLIMMIN
 10
0.0
 20
0.0
  9
$PLIMMAX
 10
12.0
 20
9.0
  9
$UNITMODE
 70
     0
  9
$VISRETAIN
 70
     0
  9
$PLINEGEN
 70
     0
  9
$PSLTSCALE
 70
     0
  0
ENDSEC
  0
SECTION
  2
TABLES
  0
TABLE
  2
VPORT
 70
     1
  0
VPORT
  2
*ACTIVE
 70
     0
 10
0.0
 20
0.0
 11
1.0
 21
1.0
 12
192.49412581440311
 22
134.84202934784381
 13
0.0
 23
0.0
 14
5.0
 24
5.0
 15
10.0
 25
10.0
 16
0.0
 26
0.0
 36
1.0
 17
0.0
 27
0.0
 37
0.0
 40
275.78743625673241
 41
2.304913294797688
 42
50.0
 43
0.0
 44
0.0
 50
0.0
 51
0.0
 71
     0
 72
   500
 73
     1
 74
     0
 75
     0
 76
     0
 77
     0
 78
     2
  0
ENDTAB
  0
TABLE
  2
LTYPE
 70
     4
  0
LTYPE
  2
CONTINUOUS
 70
     0
  3
Solid Line
 72
    65
 73
     0
 40
0.0
  0
LTYPE
  2
CENTER
 70
     0
  3
____ _ ____ _ ____ _ ____ _ ____ _ ____ _ ____
 72
    65
 73
     4
 40
2.0
 49
1.25
 49
-0.25
 49
0.25
 49
-0.25
  0
LTYPE
  2
HIDDEN
 70
     0
  3
_ _ _ _ _ _ _ _ _ _ _ _ _ _ _ _ _ _ _ _ _ _ _
 72
    65
 73
     2
 40
0.375
 49
0.25
 49
-0.125
  0
LTYPE
  2
PHANTOM2
 70
     0
  3
___ _ _ ___ _ _ ___ _ _ ___ _ _
 72
    65
 73
     6
 40
1.25
 49
0.625
 49
-0.125
 49
0.125
 49
-0.125
 49
0.125
 49
-0.125
  0
ENDTAB
  0
TABLE
  2
LAYER
 70
     4
  0
LAYER
  2
0
 70
     0
 62
     7
  6
CONTINUOUS
  0
LAYER
  2
1
 70
     0
 62
     1
  6
CENTER
  0
LAYER
  2
3
 70
     0
 62
     3
  6
CONTINUOUS
  0
LAYER
  2
2
 70
     0
 62
     2
  6
HIDDEN
  0
ENDTAB
  0
TABLE
  2
STYLE
 70
     2
  0
STYLE
  2
STANDARD
 70
     0
 40
0.0
 41
1.0
 50
0.0
 71
     0
 42
4.000000000000048
  3
SIMPLEX
  4
BIGFONT
  0
STYLE
  2
STANDARD1
 70
     0
 40
0.0
 41
1.0
 50
0.0
 71
     0
 42
3.0
  3
txt
  4

  0
ENDTAB
  0
TABLE
  2
VIEW
 70
     0
  0
ENDTAB
  0
TABLE
  2
UCS
 70
     0
  0
ENDTAB
  0
TABLE
  2
APPID
 70
     3
  0
APPID
  2
ACAD
 70
     0
  0
APPID
  2
ACAD_MLEADERVER
 70
     0
  0
APPID
  2
ACAD_NAV_VCDISPLAY
 70
     0
  0
ENDTAB
  0
TABLE
  2
DIMSTYLE
 70
     1
  0
DIMSTYLE
  2
STANDARD
 70
     0
  3

  4

  5

  6

  7

 40
1.0
 41
0.18
 42
0.0625
 43
0.38
 44
0.18
 45
0.0
 46
0.0
 47
0.0
 48
0.0
140
0.18
141
0.09
142
0.0
143
25.399999999999999
144
1.0
145
0.0
146
1.0
147
0.09
 71
     0
 72
     0
 73
     1
 74
     1
 75
     0
 76
     0
 77
     0
 78
     0
170
     0
171
     2
172
     0
173
     0
174
     0
175
     0
176
     0
177
     0
178
     0
  0
ENDTAB
  0
ENDSEC
  0
SECTION
  2
BLOCKS
  0
BLOCK
  8
0
  2
$MODEL_SPACE
 70
     0
 10
0.0
 20
0.0
 30
0.0
  3
$MODEL_SPACE
  1

  0
ENDBLK
  5
4E4
  8
0
  0
BLOCK
 67
     1
  8
0
  2
$PAPER_SPACE
 70
     0
 10
0.0
 20
0.0
 30
0.0
  3
$PAPER_SPACE
  1

  0
ENDBLK
  5
4E2
 67
     1
  8
0
  0
ENDSEC
  0
SECTION
  2
ENTITIES
  0
LINE
  5
1C0
  8
1
 10
76.451871558182333
 20
72.75029907109564
 30
0.0
 11
123.45187155818159
 21
72.75029907109564
 31
0.0
  0
CIRCLE
  5
1C3
  8
0
 10
23.451871558182351
 20
72.75029907109564
 30
0.0
 40
2.5
  0
CIRCLE
  5
1C4
  8
0
 10
23.451871558182351
 20
72.75029907109564
 30
0.0
 40
5.0000000003133627
  0
CIRCLE
  5
1C5
  8
3
 10
23.451871558182351
 20
72.75029907109564
 30
0.0
 40
4.4585000000079162
  0
LINE
  5
1C6
  8
2
 10
16.95187155818326
 20
68.997522321363419
 30
0.0
 11
23.45187155818326
 21
65.244745571631199
 31
0.0
  0
LINE
  5
1C7
  8
2
 10
23.45187155818326
 20
65.244745571631199
 30
0.0
 11
29.951871558182351
 21
68.997522321363419
 31
0.0
  0
LINE
  5
1C8
  8
2
 10
29.951871558182351
 20
68.997522321363419
 30
0.0
 11
29.951871558182351
 21
76.503075820829679
 31
0.0
  0
LINE
  5
1C9
  8
2
 10
29.951871558182351
 20
76.503075820829679
 30
0.0
 11
23.451871558182351
 21
80.255852570561046
 31
0.0
  0
LINE
  5
1CA
  8
2
 10
23.451871558182351
 20
80.255852570561046
 30
0.0
 11
16.951871558181441
 21
76.50307582082786
 31
0.0
  0
LINE
  5
1CB
  8
2
 10
16.951871558181441
 20
76.50307582082786
 30
0.0
 11
16.95187155818326
 21
68.997522321363419
 31
0.0
  0
LINE
  5
1CC
  8
1
 10
10.94631805871694
 20
72.75029907109564
 30
0.0
 11
35.957425057647868
 21
72.75029907109564
 31
0.0
  0
LINE
  5
1CD
  8
1
 10
23.451871558182351
 20
85.255852570561046
 30
0.0
 11
23.451871558182351
 21
60.244745571630261
 31
0.0
  0
LINE
  5
1CE
  8
0
 10
110.45187155818159
 20
79.250299065797094
 30
0.0
 11
109.8713149714424
 21
80.255852570698266
 31
0.0
  0
ARC
  5
1CF
  8
0
 10
103.6615933252594
 20
79.250299065797321
 30
0.0
 40
6.7902782329225202
 50
336.13507441350453
 51
0.0000000000246811
  0
ARC
  5
1D0
  8
0
 10
103.6615933252594
 20
66.250299076393958
 30
0.0
 40
6.7902782329225202
 50
359.99999999997527
 51
23.864925586495559
  0
ARC
  5
1D1
  8
0
 10
98.032428205471263
 20
72.75029907109581
 30
0.0
 40
12.41944335271058
 50
342.41204613263187
 51
17.587953867366089
  0
LINE
  5
1D2
  8
0
 10
110.45187155818159
 20
66.250299076394185
 30
0.0
 11
109.8713149714424
 21
65.24474557149307
 31
0.0
  0
LINE
  5
1D3
  8
3
 10
86.910371558141151
 20
68.29179907108778
 30
0.0
 11
93.744112159889383
 21
68.291799071087752
 31
0.0
  0
LINE
  5
1D4
  8
3
 10
86.910371558141264
 20
77.208799071103613
 30
0.0
 11
93.744112159889383
 21
77.208799071103613
 31
0.0
  0
LINE
  5
1D7
  8
0
 10
82.751871558181676
 20
70.250299071095583
 30
0.0
 11
81.863749025887785
 21
70.76305685418879
 31
0.0
  0
LINE
  5
1D8
  8
0
 10
82.751871558181676
 20
75.250299071095583
 30
0.0
 11
81.863749025887671
 21
74.737541288002234
 31
0.0
  0
LINE
  5
1D9
  8
0
 10
110.45187155818159
 20
79.250299065797094
 30
0.0
 11
110.45187155818159
 21
66.250299076394242
 31
0.0
  0
LINE
  5
1DA
  8
0
 10
103.45187155818159
 20
80.255852570698153
 30
0.0
 11
103.45187155818159
 21
65.24474557149307
 31
0.0
  0
LINE
  5
1DB
  8
0
 10
87.451871558181665
 20
77.750299071144013
 30
0.0
 11
87.451871558181665
 21
67.750299071047209
 31
0.0
  0
LINE
  5
1DC
  8
0
 10
86.451871558181665
 20
76.750299071143957
 30
0.0
 11
86.451871558181665
 21
68.750299071047209
 31
0.0
  0
LINE
  5
1DD
  8
0
 10
82.751871558181676
 20
75.250299071095583
 30
0.0
 11
82.751871558181676
 21
70.250299071095583
 31
0.0
  0
LINE
  5
1DE
  8
0
 10
109.8713149714424
 20
65.24474557149307
 30
0.0
 11
103.4518715581997
 21
65.24474557149307
 31
0.0
  0
LINE
  5
1DF
  8
0
 10
103.45187155818159
 20
68.997522321314307
 30
0.0
 11
109.8713149714424
 21
68.997522321314307
 31
0.0
  0
LINE
  5
1E0
  8
0
 10
103.45187155818159
 20
67.75029907110445
 30
0.0
 11
98.744112159889497
 21
67.750299071087696
 31
0.0
  0
LINE
  5
1E1
  8
0
 10
87.451871558181665
 20
67.750299071047209
 30
0.0
 11
86.451871558181665
 21
68.750299071047209
 31
0.0
  0
LINE
  5
1E2
  8
0
 10
86.451871558181665
 20
70.25029907109564
 30
0.0
 11
82.751871558181705
 21
70.25029907109564
 31
0.0
  0
LINE
  5
1E3
  8
0
 10
86.451871558181665
 20
75.25029907109564
 30
0.0
 11
82.751871558181705
 21
75.25029907109564
 31
0.0
  0
LINE
  5
1E4
  8
0
 10
87.451871558181665
 20
77.750299071144013
 30
0.0
 11
86.451871558181665
 21
76.750299071143957
 31
0.0
  0
LINE
  5
1E5
  8
0
 10
103.45187155818159
 20
77.7502990710868
 30
0.0
 11
98.744112159889497
 21
77.750299071103527
 31
0.0
  0
LINE
  5
1E6
  8
0
 10
103.45187155818159
 20
76.503075820876859
 30
0.0
 11
109.8713149714424
 21
76.503075820876859
 31
0.0
  0
LINE
  5
1E7
  8
0
 10
109.8713149714424
 20
80.255852570698153
 30
0.0
 11
103.4518715581997
 21
80.255852570698153
 31
0.0
  0
LINE
  5
1E8
  8
1
 10
174.48004935008279
 20
85.255852570560307
 30
0.0
 11
174.48004935008279
 21
60.244745571630972
 31
0.0
  0
LINE
  5
1E9
  8
1
 10
161.97449585061781
 20
72.75029907109564
 30
0.0
 11
186.98560284954749
 21
72.75029907109564
 31
0.0
  0
LINE
  5
21C
  8
0
 10
167.98004935008299
 20
76.50307582082803
 30
0.0
 11
167.98004935008299
 21
68.997522321363249
 31
0.0
  0
LINE
  5
21D
  8
0
 10
167.98004935008299
 20
68.997522321363249
 30
0.0
 11
174.48004935008279
 21
65.244745571630844
 31
0.0
  0
LINE
  5
21E
  8
0
 10
174.48004935008279
 20
65.244745571630844
 30
0.0
 11
180.9800493500826
 21
68.997522321363249
 31
0.0
  0
LINE
  5
21F
  8
0
 10
180.9800493500826
 20
68.997522321363249
 30
0.0
 11
180.9800493500826
 21
76.50307582082803
 31
0.0
  0
LINE
  5
220
  8
0
 10
180.9800493500826
 20
76.50307582082803
 30
0.0
 11
174.48004935008279
 21
80.255852570560407
 31
0.0
  0
LINE
  5
221
  8
0
 10
174.48004935008279
 20
80.255852570560407
 30
0.0
 11
167.98004935008299
 21
76.50307582082803
 31
0.0
  0
CIRCLE
  5
222
  8
0
 10
174.48004935008279
 20
72.75029907109564
 30
0.0
 40
6.25
  0
LINE
  5
26C
  8
0
 10
101.45187155818159
 20
77.750299071093906
 30
0.0
 11
101.45187155818159
 21
67.750299071097317
 31
0.0
  0
LINE
  5
26D
  8
3
 10
101.45187155818159
 20
77.208799071103613
 30
0.0
 11
102.3897770704576
 21
77.750299071090581
 31
0.0
  0
LINE
  5
26E
  8
3
 10
101.45187155818159
 20
68.291799071087624
 30
0.0
 11
102.3897770704576
 21
67.750299071100699
 31
0.0
  0
LINE
  5
27B
  8
1
 10
76.451871558182333
 20
19.914583382871282
 30
0.0
 11
123.45187155818159
 21
19.914583382871282
 31
0.0
  0
LINE
  5
280
  8
3
 10
86.910371558141264
 20
24.373083382879258
 30
0.0
 11
93.744112159889383
 21
24.373083382879269
 31
0.0
  0
LINE
  5
281
  8
0
 10
103.45187155818159
 20
24.91458338286245
 30
0.0
 11
98.744112159889497
 21
24.914583382879179
 31
0.0
  0
LINE
  5
282
  8
3
 10
86.910371558141151
 20
15.456083382863421
 30
0.0
 11
93.744112159889383
 21
15.456083382863399
 31
0.0
  0
LINE
  5
283
  8
0
 10
103.45187155818159
 20
14.914583382880091
 30
0.0
 11
98.744112159889497
 21
14.91458338286334
 31
0.0
  0
LINE
  5
284
  8
0
 10
87.451871558181665
 20
24.914583382919659
 30
0.0
 11
86.451871558181665
 21
23.914583382919599
 31
0.0
  0
LINE
  5
285
  8
0
 10
87.451871558181665
 20
24.914583382919659
 30
0.0
 11
87.451871558181665
 21
14.914583382822849
 31
0.0
  0
LINE
  5
286
  8
0
 10
86.451871558181665
 20
23.914583382919599
 30
0.0
 11
86.451871558181665
 21
15.914583382822849
 31
0.0
  0
LINE
  5
28C
  8
0
 10
87.451871558181665
 20
14.914583382822849
 30
0.0
 11
86.451871558181665
 21
15.914583382822849
 31
0.0
  0
LINE
  5
290
  8
0
 10
101.45187155818159
 20
24.914583382869552
 30
0.0
 11
101.45187155818159
 21
14.91458338287296
 31
0.0
  0
LINE
  5
293
  8
3
 10
101.45187155818159
 20
15.45608338286328
 30
0.0
 11
102.3897770704576
 21
14.914583382876341
 31
0.0
  0
LINE
  5
299
  8
3
 10
101.45187155818159
 20
24.373083382879258
 30
0.0
 11
102.3897770704576
 21
24.91458338286623
 31
0.0
  0
LINE
  5
29C
  8
0
 10
110.3075339908836
 20
13.414583382871511
 30
0.0
 11
103.45187155818159
 21
13.414583382871511
 31
0.0
  0
LINE
  5
29D
  8
0
 10
109.7269774072824
 20
19.914583382871282
 30
0.0
 11
103.45187155818159
 21
19.914583382871282
 31
0.0
  0
LINE
  5
29E
  8
0
 10
110.3075339908836
 20
26.414583382871061
 30
0.0
 11
103.45187155818159
 21
26.414583382871061
 31
0.0
  0
LINE
  5
29F
  8
0
 10
103.45187155818159
 20
26.414583382871061
 30
0.0
 11
103.45187155818159
 21
13.414583382871511
 31
0.0
  0
ARC
  5
2A0
  8
0
 10
100.9203818556349
 20
23.164583382871061
 30
0.0
 40
9.3871521352487513
 50
339.7438419995828
 51
20.25615800041717
  0
LINE
  5
2A1
  8
0
 10
110.45187155818159
 20
26.164583382869921
 30
0.0
 11
110.45187155818159
 21
13.66458338287265
 31
0.0
  0
ARC
  5
2A2
  8
0
 10
100.9203818556349
 20
16.664583382871509
 30
0.0
 40
9.3871521352487513
 50
339.7438419995828
 51
20.25615800041717
  0
LINE
  5
2A3
  8
0
 10
110.3075339908836
 20
13.414583382871511
 30
0.0
 11
110.45187155818159
 21
13.66458338287265
 31
0.0
  0
LINE
  5
2A4
  8
0
 10
110.3075339908836
 20
26.414583382871061
 30
0.0
 11
110.45187155818159
 21
26.164583382869921
 31
0.0
  0
LINE
  5
2A5
  8
1
 10
76.451871558182333
 20
125.58601475931989
 30
0.0
 11
123.45187155818159
 21
125.58601475931989
 31
0.0
  0
LINE
  5
2A6
  8
0
 10
110.3075339908836
 20
132.08601475931971
 30
0.0
 11
103.45187155818159
 21
132.08601475931971
 31
0.0
  0
LINE
  5
2A7
  8
0
 10
109.7269774072824
 20
125.58601475931989
 30
0.0
 11
103.45187155818159
 21
125.58601475931989
 31
0.0
  0
LINE
  5
2A8
  8
0
 10
110.3075339908836
 20
119.08601475932009
 30
0.0
 11
103.45187155818159
 21
119.08601475932009
 31
0.0
  0
LINE
  5
2A9
  8
0
 10
87.451871558181665
 20
120.58601475927151
 30
0.0
 11
86.451871558181665
 21
121.58601475927161
 31
0.0
  0
LINE
  5
2AA
  8
0
 10
87.451871558181665
 20
120.58601475927151
 30
0.0
 11
87.451871558181665
 21
130.58601475936831
 31
0.0
  0
LINE
  5
2AB
  8
0
 10
101.45187155818159
 20
120.5860147593216
 30
0.0
 11
101.45187155818159
 21
130.5860147593182
 31
0.0
  0
LINE
  5
2AC
  8
0
 10
103.45187155818159
 20
119.08601475932009
 30
0.0
 11
103.45187155818159
 21
132.08601475931971
 31
0.0
  0
LINE
  5
2AD
  8
3
 10
86.910371558141151
 20
130.0445147593278
 30
0.0
 11
93.744112159889383
 21
130.0445147593278
 31
0.0
  0
LINE
  5
2AE
  8
0
 10
103.45187155818159
 20
130.5860147593111
 30
0.0
 11
98.744112159889497
 21
130.58601475932781
 31
0.0
  0
LINE
  5
2B4
  8
0
 10
86.451871558181665
 20
121.58601475927161
 30
0.0
 11
86.451871558181665
 21
129.58601475936831
 31
0.0
  0
LINE
  5
2B6
  8
0
 10
87.451871558181665
 20
130.58601475936831
 30
0.0
 11
86.451871558181665
 21
129.58601475936831
 31
0.0
  0
LINE
  5
2B8
  8
3
 10
101.45187155818159
 20
130.04451475932791
 30
0.0
 11
102.3897770704576
 21
130.58601475931491
 31
0.0
  0
LINE
  5
2B9
  8
3
 10
86.910371558141264
 20
121.12751475931189
 30
0.0
 11
93.744112159889383
 21
121.12751475931189
 31
0.0
  0
LINE
  5
2BA
  8
0
 10
103.45187155818159
 20
120.58601475932871
 30
0.0
 11
98.744112159889497
 21
120.58601475931199
 31
0.0
  0
LINE
  5
2BB
  8
3
 10
101.45187155818159
 20
121.12751475931189
 30
0.0
 11
102.3897770704576
 21
120.586014759325
 31
0.0
  0
ARC
  5
2BC
  8
0
 10
100.9203818556349
 20
122.33601475932009
 30
0.0
 40
9.3871521352487513
 50
339.7438419995828
 51
20.256158000417141
  0
LINE
  5
2BD
  8
0
 10
110.45187155818159
 20
119.3360147593213
 30
0.0
 11
110.45187155818159
 21
131.83601475931849
 31
0.0
  0
LINE
  5
2BE
  8
0
 10
110.3075339908836
 20
132.08601475931971
 30
0.0
 11
110.45187155818159
 21
131.83601475931849
 31
0.0
  0
ARC
  5
2BF
  8
0
 10
100.9203818556349
 20
128.83601475931971
 30
0.0
 40
9.3871521352487513
 50
339.7438419995828
 51
20.256158000417141
  0
LINE
  5
2C8
  8
0
 10
110.3075339908836
 20
119.08601475932009
 30
0.0
 11
110.45187155818159
 21
119.3360147593213
 31
0.0
  0
LINE
  5
3F2
  8
0
 10
111.1518715581818
 20
70.75029907109564
 30
0.0
 11
117.6518715581816
 21
70.75029907109564
 31
0.0
  0
LINE
  5
3F3
  8
0
 10
117.6518715581817
 20
70.75029907109564
 30
0.0
 11
118.45187155818159
 21
71.550299071095651
 31
0.0
  0
LINE
  5
3F4
  8
3
 10
110.45187155818159
 20
71.129299071097023
 30
0.0
 11
118.03087155818299
 21
71.129299071097051
 31
0.0
  0
LINE
  5
3F7
  8
3
 10
110.45187155818159
 20
74.371299071094214
 30
0.0
 11
118.03087155818299
 21
74.371299071094256
 31
0.0
  0
LINE
  5
3F9
  8
0
 10
117.6518715581817
 20
70.750299071095696
 30
0.0
 11
117.6518715581816
 21
74.75029907109564
 31
0.0
  0
LINE
  5
3FA
  8
0
 10
117.6518715581817
 20
74.75029907109564
 30
0.0
 11
118.45187155818159
 21
73.950299071095657
 31
0.0
  0
LINE
  5
3FB
  8
0
 10
118.45187155818159
 20
73.950299071095657
 30
0.0
 11
118.45187155818159
 21
71.550299071095651
 31
0.0
  0
LINE
  5
3FC
  8
0
 10
111.1518715581818
 20
74.750299071095654
 30
0.0
 11
117.6518715581816
 21
74.75029907109564
 31
0.0
  0
CIRCLE
  5
41D
  8
3
 10
174.48004935008279
 20
72.75029907109564
 30
0.0
 40
1.6209999999999991
  0
CIRCLE
  5
41E
  8
0
 10
174.48004935008279
 20
72.75029907109564
 30
0.0
 40
2.0
  0
LINE
  5
420
  8
0
 10
117.6518715581817
 20
123.58601475931999
 30
0.0
 11
117.6518715581816
 21
127.58601475931989
 31
0.0
  0
LINE
  5
421
  8
0
 10
117.6518715581817
 20
123.58601475931989
 30
0.0
 11
118.45187155818159
 21
124.38601475932001
 31
0.0
  0
LINE
  5
422
  8
0
 10
118.45187155818159
 20
126.78601475932
 30
0.0
 11
118.45187155818159
 21
124.38601475932001
 31
0.0
  0
LINE
  5
423
  8
0
 10
117.6518715581817
 20
127.58601475931989
 30
0.0
 11
118.45187155818159
 21
126.78601475932
 31
0.0
  0
LINE
  5
424
  8
3
 10
111.1518715581818
 20
123.96501475932131
 30
0.0
 11
118.03087155818299
 21
123.96501475932141
 31
0.0
  0
LINE
  5
425
  8
0
 10
111.1518715581818
 20
123.58601475931999
 30
0.0
 11
117.6518715581816
 21
123.58601475931989
 31
0.0
  0
LINE
  5
426
  8
0
 10
111.1518715581818
 20
127.58601475931989
 30
0.0
 11
117.6518715581816
 21
127.58601475931989
 31
0.0
  0
LINE
  5
427
  8
3
 10
111.1518715581818
 20
127.2070147593185
 30
0.0
 11
118.03087155818299
 21
127.2070147593186
 31
0.0
  0
LINE
  5
428
  8
0
 10
117.6518715581817
 20
17.914583382871339
 30
0.0
 11
117.6518715581816
 21
21.914583382871282
 31
0.0
  0
LINE
  5
429
  8
0
 10
117.6518715581817
 20
17.914583382871282
 30
0.0
 11
118.45187155818159
 21
18.7145833828713
 31
0.0
  0
LINE
  5
42A
  8
0
 10
118.45187155818159
 20
21.114583382871299
 30
0.0
 11
118.45187155818159
 21
18.7145833828713
 31
0.0
  0
LINE
  5
42B
  8
0
 10
117.6518715581817
 20
21.914583382871282
 30
0.0
 11
118.45187155818159
 21
21.114583382871299
 31
0.0
  0
LINE
  5
42C
  8
3
 10
111.1518715581818
 20
18.293583382872669
 30
0.0
 11
118.03087155818299
 21
18.293583382872701
 31
0.0
  0
LINE
  5
42D
  8
0
 10
111.1518715581818
 20
17.91458338287131
 30
0.0
 11
117.6518715581816
 21
17.914583382871282
 31
0.0
  0
LINE
  5
42E
  8
0
 10
111.1518715581818
 20
21.914583382871289
 30
0.0
 11
117.6518715581816
 21
21.914583382871282
 31
0.0
  0
LINE
  5
42F
  8
3
 10
111.1518715581818
 20
21.535583382869881
 30
0.0
 11
118.03087155818299
 21
21.535583382869898
 31
0.0
  0
ARC
  5
533
  8
0
 10
86.451871558181665
 20
72.750299071095583
 30
0.0
 40
5.0
 50
156.5812350446366
 51
203.41876495536511
  0
LINE
  5
534
  8
0
 10
81.863749025887671
 20
74.737541288002234
 30
0.0
 11
81.863749025887714
 21
70.76305685418879
 31
0.0
  0
LINE
  5
535
  8
0
 10
81.863749025887671
 20
21.901825599777879
 30
0.0
 11
81.863749025887714
 21
17.927341165964432
 31
0.0
  0
ARC
  5
536
  8
0
 10
86.451871558181665
 20
19.914583382871228
 30
0.0
 40
5.0
 50
156.5812350446366
 51
203.41876495536511
  0
LINE
  5
537
  8
0
 10
86.451871558181665
 20
22.414583382871289
 30
0.0
 11
82.751871558181705
 21
22.414583382871289
 31
0.0
  0
LINE
  5
538
  8
0
 10
86.451871558181665
 20
17.414583382871282
 30
0.0
 11
82.751871558181705
 21
17.414583382871282
 31
0.0
  0
LINE
  5
539
  8
0
 10
82.751871558181676
 20
22.414583382871228
 30
0.0
 11
82.751871558181676
 21
17.414583382871228
 31
0.0
  0
LINE
  5
53A
  8
0
 10
82.751871558181676
 20
22.414583382871228
 30
0.0
 11
81.863749025887671
 21
21.901825599777879
 31
0.0
  0
LINE
  5
53B
  8
0
 10
82.751871558181676
 20
17.414583382871228
 30
0.0
 11
81.863749025887785
 21
17.927341165964432
 31
0.0
  0
LINE
  5
53C
  8
0
 10
82.751871558181676
 20
123.08601475931999
 30
0.0
 11
81.863749025887785
 21
123.5987725424132
 31
0.0
  0
LINE
  5
53D
  8
0
 10
82.751871558181676
 20
128.08601475931999
 30
0.0
 11
81.863749025887671
 21
127.5732569762266
 31
0.0
  0
LINE
  5
53E
  8
0
 10
82.751871558181676
 20
128.08601475931999
 30
0.0
 11
82.751871558181676
 21
123.08601475931999
 31
0.0
  0
LINE
  5
53F
  8
0
 10
86.451871558181665
 20
123.08601475931999
 30
0.0
 11
82.751871558181705
 21
123.08601475931999
 31
0.0
  0
LINE
  5
540
  8
0
 10
86.451871558181665
 20
128.08601475931999
 30
0.0
 11
82.751871558181705
 21
128.08601475931999
 31
0.0
  0
ARC
  5
541
  8
0
 10
86.451871558181665
 20
125.58601475931999
 30
0.0
 40
5.0
 50
156.5812350446366
 51
203.41876495536511
  0
LINE
  5
542
  8
0
 10
81.863749025887671
 20
127.5732569762266
 30
0.0
 11
81.863749025887714
 21
123.5987725424132
 31
0.0
  0
CIRCLE
  5
546
  8
0
 10
23.451871558182351
 20
72.75029907109564
 30
0.0
 40
1.9872422169066219
  0
LINE
  5
55F
  8
0
 10
14.95187155818223
 20
77.657776359207546
 30
0.0
 11
14.95187155818223
 21
67.842821782983833
 31
0.0
  0
LINE
  5
560
  8
0
 10
14.95187155818223
 20
67.842821782983833
 30
0.0
 11
23.45187155818223
 21
62.935344494871963
 31
0.0
  0
LINE
  5
561
  8
0
 10
23.45187155818223
 20
62.935344494871963
 30
0.0
 11
31.95187155818223
 21
67.842821782983833
 31
0.0
  0
LINE
  5
562
  8
0
 10
31.95187155818223
 20
67.842821782983833
 30
0.0
 11
31.95187155818223
 21
77.657776359207446
 31
0.0
  0
LINE
  5
563
  8
0
 10
31.95187155818223
 20
77.657776359207446
 30
0.0
 11
23.45187155818223
 21
82.565253647319196
 31
0.0
  0
LINE
  5
564
  8
0
 10
23.45187155818223
 20
82.565253647319196
 30
0.0
 11
14.95187155818223
 21
77.657776359207546
 31
0.0
  0
CIRCLE
  5
565
  8
0
 10
23.45187155818223
 20
72.750299071095696
 30
0.0
 40
8.5
  0
LINE
  5
584
  8
0
 10
93.744112159889355
 20
81.250299071095711
 30
0.0
 11
94.503301533831603
 21
82.565253639330038
 31
0.0
  0
ARC
  5
585
  8
0
 10
98.08901084754369
 20
80.111506467350765
 30
0.0
 40
4.344898687654096
 50
179.9999999999996
 51
214.3842472977615
  0
ARC
  5
586
  8
0
 10
109.9849228495614
 20
72.75029907109699
 30
0.0
 40
16.240810689671989
 50
162.41204631709601
 51
197.58795368291021
  0
ARC
  5
587
  8
0
 10
98.08901084754369
 20
65.389083144920832
 30
0.0
 40
4.344898687654096
 50
145.6157527022385
 51
180.0000000000004
  0
LINE
  5
588
  8
0
 10
93.744112159889355
 20
64.250299071095625
 30
0.0
 11
94.503301533831603
 21
62.935344502861298
 31
0.0
  0
LINE
  5
589
  8
0
 10
97.984922785946296
 20
67.842821786980281
 30
0.0
 11
94.503301533831603
 21
67.842821786980281
 31
0.0
  0
LINE
  5
58A
  8
0
 10
94.503301533831603
 20
62.935344502861298
 30
0.0
 11
97.984922785947319
 21
62.935344502861327
 31
0.0
  0
LINE
  5
58B
  8
0
 10
97.98492278594675
 20
77.657776355211936
 30
0.0
 11
94.503301533831603
 21
77.657776355211936
 31
0.0
  0
LINE
  5
58C
  8
0
 10
94.503301533831603
 20
82.565253639329953
 30
0.0
 11
97.984922785947319
 21
82.565253639329995
 31
0.0
  0
LINE
  5
58D
  8
0
 10
93.744112159889355
 20
81.250299071095654
 30
0.0
 11
93.744112159889355
 21
64.250299071095625
 31
0.0
  0
LINE
  5
58E
  8
0
 10
98.744112159889468
 20
81.250299071095654
 30
0.0
 11
98.744112159889468
 21
64.250299071095625
 31
0.0
  0
LINE
  5
58F
  8
0
 10
98.744112159889468
 20
64.250299071095625
 30
0.0
 11
97.984922785947205
 21
62.935344502861298
 31
0.0
  0
ARC
  5
590
  8
0
 10
94.399213472235132
 20
65.389083144920832
 30
0.0
 40
4.344898687654096
 50
359.9999999999996
 51
34.38424729776149
  0
ARC
  5
591
  8
0
 10
82.503301470217465
 20
72.75029907109699
 30
0.0
 40
16.240810689671989
 50
342.41204631708979
 51
17.587953682903908
  0
ARC
  5
592
  8
0
 10
94.399213472235132
 20
80.111506467350765
 30
0.0
 40
4.344898687654096
 50
325.61575270223852
 51
0.0000000000004071
  0
LINE
  5
593
  8
0
 10
98.744112159889468
 20
81.250299071095711
 30
0.0
 11
97.984922785947205
 21
82.565253639330038
 31
0.0
  0
ARC
  5
5C6
  8
0
 10
86.324267954174957
 20
15.6645833828712
 30
0.0
 40
12.275506638416489
 50
339.74384199960662
 51
20.25615800039348
  0
ARC
  5
5C7
  8
0
 10
106.1639563656032
 20
15.6645833828712
 30
0.0
 40
12.275506638416489
 50
159.7438419996065
 51
200.2561580003935
  0
LINE
  5
5C8
  8
0
 10
98.744112159889497
 20
11.66458338287228
 30
0.0
 11
98.744112159889497
 21
28.16458338287018
 31
0.0
  0
LINE
  5
5C9
  8
0
 10
93.744112159889369
 20
28.16458338287126
 30
0.0
 11
93.744112159889369
 21
11.6645833828712
 31
0.0
  0
LINE
  5
5CA
  8
0
 10
98.599774592591416
 20
11.41458338287114
 30
0.0
 11
93.888449727186753
 21
11.4145833828712
 31
0.0
  0
LINE
  5
5CB
  8
0
 10
93.888449727186753
 20
11.41458338287114
 30
0.0
 11
93.744112159888743
 21
11.66458338287222
 31
0.0
  0
LINE
  5
5CC
  8
0
 10
98.599774592591416
 20
11.41458338287114
 30
0.0
 11
98.744112159889497
 21
11.66458338287222
 31
0.0
  0
LINE
  5
5CD
  8
0
 10
98.599774592591416
 20
28.41458338287126
 30
0.0
 11
93.888449727186753
 21
28.4145833828712
 31
0.0
  0
LINE
  5
5CE
  8
0
 10
97.840585214037105
 20
19.9145833828712
 30
0.0
 11
94.647639105740836
 21
19.9145833828712
 31
0.0
  0
ARC
  5
5CF
  8
0
 10
106.1639563656032
 20
24.1645833828712
 30
0.0
 40
12.275506638416489
 50
159.7438419996065
 51
200.2561580003935
  0
LINE
  5
5D0
  8
0
 10
93.888449727186753
 20
28.41458338287126
 30
0.0
 11
93.744112159888743
 21
28.16458338287018
 31
0.0
  0
ARC
  5
5D1
  8
0
 10
86.324267954174957
 20
24.1645833828712
 30
0.0
 40
12.275506638416489
 50
339.74384199960662
 51
20.25615800039348
  0
LINE
  5
5D2
  8
0
 10
98.599774592591416
 20
28.41458338287126
 30
0.0
 11
98.744112159889497
 21
28.16458338287018
 31
0.0
  0
LINE
  5
5D4
  8
0
 10
93.744112159889369
 20
117.3360147593198
 30
0.0
 11
93.744112159889369
 21
133.83601475931991
 31
0.0
  0
LINE
  5
5D5
  8
0
 10
98.744112159889497
 20
133.8360147593188
 30
0.0
 11
98.744112159889497
 21
117.3360147593209
 31
0.0
  0
ARC
  5
5D6
  8
0
 10
106.1639563656032
 20
129.83601475931991
 30
0.0
 40
12.275506638416489
 50
159.7438419996065
 51
200.2561580003935
  0
ARC
  5
5D7
  8
0
 10
86.324267954174957
 20
129.83601475931991
 30
0.0
 40
12.275506638416489
 50
339.74384199960662
 51
20.25615800039348
  0
LINE
  5
5DC
  8
0
 10
98.599774592591416
 20
134.08601475931999
 30
0.0
 11
93.888449727186753
 21
134.08601475931991
 31
0.0
  0
LINE
  5
5DD
  8
0
 10
93.888449727186753
 20
134.08601475931999
 30
0.0
 11
93.744112159888743
 21
133.83601475931891
 31
0.0
  0
LINE
  5
5DE
  8
0
 10
98.599774592591416
 20
134.08601475931999
 30
0.0
 11
98.744112159889497
 21
133.83601475931891
 31
0.0
  0
ARC
  5
5F1
  8
0
 10
86.324267954174957
 20
121.33601475931989
 30
0.0
 40
12.275506638416489
 50
339.74384199960662
 51
20.25615800039348
  0
ARC
  5
5F2
  8
0
 10
106.1639563656032
 20
121.33601475931989
 30
0.0
 40
12.275506638416489
 50
159.7438419996065
 51
200.2561580003935
  0
LINE
  5
5F3
  8
0
 10
97.840585214037105
 20
125.58601475931989
 30
0.0
 11
94.647639105740836
 21
125.58601475931989
 31
0.0
  0
LINE
  5
5FB
  8
0
 10
98.599774592591416
 20
117.08601475931989
 30
0.0
 11
93.888449727186753
 21
117.08601475931989
 31
0.0
  0
LINE
  5
5FC
  8
0
 10
93.888449727186753
 20
117.08601475931989
 30
0.0
 11
93.744112159888743
 21
117.3360147593209
 31
0.0
  0
LINE
  5
5FD
  8
0
 10
98.599774592591416
 20
117.08601475931989
 30
0.0
 11
98.744112159889497
 21
117.3360147593209
 31
0.0
  0
CIRCLE
  5
62F
  8
0
 10
174.4800493500826
 20
72.750299071095696
 30
0.0
 40
8.5
  0
LINE
  5
630
  8
0
 10
182.9800493500826
 20
67.842821782983833
 30
0.0
 11
182.9800493500826
 21
77.657776359207446
 31
0.0
  0
LINE
  5
631
  8
0
 10
174.4800493500826
 20
62.935344494871963
 30
0.0
 11
182.9800493500826
 21
67.842821782983833
 31
0.0
  0
LINE
  5
634
  8
0
 10
165.9800493500826
 20
67.842821782983833
 30
0.0
 11
174.4800493500826
 21
62.935344494871963
 31
0.0
  0
LINE
  5
635
  8
0
 10
174.4800493500826
 20
82.565253647319196
 30
0.0
 11
165.9800493500826
 21
77.657776359207546
 31
0.0
  0
LINE
  5
636
  8
0
 10
182.9800493500826
 20
77.657776359207446
 30
0.0
 11
174.4800493500826
 21
82.565253647319196
 31
0.0
  0
LINE
  5
637
  8
0
 10
165.9800493500826
 20
77.657776359207546
 30
0.0
 11
165.9800493500826
 21
67.842821782983833
 31
0.0
  0
LINE
  5
638
  8
3
 10
98.744112159889497
 20
121.12751475931201
 30
0.0
 11
101.45187155818159
 21
121.12751475931189
 31
0.0
  0
LINE
  5
639
  8
0
 10
93.744112159889383
 20
120.5860147592942
 30
0.0
 11
87.451871558181423
 21
120.5860147592719
 31
0.0
  0
LINE
  5
63A
  8
3
 10
98.744112159889497
 20
130.0445147593278
 30
0.0
 11
101.45187155818159
 21
130.0445147593278
 31
0.0
  0
LINE
  5
63B
  8
0
 10
93.744112159889383
 20
130.5860147593456
 30
0.0
 11
87.451871558181423
 21
130.58601475936811
 31
0.0
  0
LINE
  5
63C
  8
3
 10
98.744112159889497
 20
68.291799071087723
 30
0.0
 11
101.45187155818159
 21
68.291799071087723
 31
0.0
  0
LINE
  5
63D
  8
0
 10
93.744112159889383
 20
67.750299071069904
 30
0.0
 11
87.451871558181423
 21
67.750299071047493
 31
0.0
  0
LINE
  5
63E
  8
3
 10
98.744112159889497
 20
77.208799071103613
 30
0.0
 11
101.45187155818159
 21
77.208799071103613
 31
0.0
  0
LINE
  5
63F
  8
0
 10
93.744112159889383
 20
77.750299071121319
 30
0.0
 11
87.451871558181423
 21
77.750299071143672
 31
0.0
  0
LINE
  5
640
  8
0
 10
93.744112159889383
 20
24.914583382896961
 30
0.0
 11
87.451871558181423
 21
24.914583382919322
 31
0.0
  0
LINE
  5
641
  8
3
 10
98.744112159889497
 20
24.373083382879269
 30
0.0
 11
101.45187155818159
 21
24.373083382879258
 31
0.0
  0
LINE
  5
642
  8
0
 10
93.744112159889383
 20
14.914583382845541
 30
0.0
 11
87.451871558181423
 21
14.914583382823141
 31
0.0
  0
LINE
  5
643
  8
3
 10
98.744112159889497
 20
15.456083382863371
 30
0.0
 11
101.45187155818159
 21
15.456083382863371
 31
0.0
  0
ARC
  5
680
  8
0
 10
171.06483340559919
 20
75.363017971501051
 30
0.0
 40
0.2
 50
142.5831784690335
 51
254.99999999999881
  0
ARC
  5
681
  8
0
 10
171.0648334055993
 20
70.137580170690185
 30
0.0
 40
0.2
 50
105.00000000000109
 51
217.4168215309717
  0
LINE
  5
683
  8
0
 10
171.01306959657879
 20
70.330765335948001
 30
0.0
 11
173.51180351353091
 21
71.00029907109564
 31
0.0
  0
LINE
  5
684
  8
0
 10
171.0130695965787
 20
75.169832806243221
 30
0.0
 11
173.51180351353091
 21
74.50029907109564
 31
0.0
  0
ARC
  5
685
  8
0
 10
174.48004935008279
 20
72.75029907109564
 30
0.0
 40
4.5
 50
217.41682153096411
 51
142.5831784690358
  0
LINE
  5
686
  8
0
 10
110.45187155818179
 20
71.00029907109581
 30
0.0
 11
111.1518715581818
 21
71.00029907109581
 31
0.0
  0
LINE
  5
687
  8
0
 10
110.45187155818179
 20
74.50029907109581
 30
0.0
 11
111.1518715581818
 21
74.50029907109581
 31
0.0
  0
LINE
  5
688
  8
0
 10
110.45187155818179
 20
75.244473634708982
 30
0.0
 11
111.1518715581818
 21
75.244473634708982
 31
0.0
  0
LINE
  5
689
  8
0
 10
110.45187155818179
 20
70.256124507482639
 30
0.0
 11
111.1518715581818
 21
70.256124507482639
 31
0.0
  0
LINE
  5
68A
  8
0
 10
111.1518715581818
 20
77.25029907109581
 30
0.0
 11
111.1518715581818
 21
74.50029907109581
 31
0.0
  0
LINE
  5
68B
  8
0
 10
111.1518715581818
 20
77.250299071095867
 30
0.0
 11
110.45187155818179
 21
77.25029907109581
 31
0.0
  0
LINE
  5
68D
  8
0
 10
110.45187155818179
 20
68.25029907109581
 30
0.0
 11
111.1518715581818
 21
68.25029907109581
 31
0.0
  0
LINE
  5
6AB
  8
0
 10
111.1518715581818
 20
130.08601475932011
 30
0.0
 11
110.45187155818179
 21
130.08601475932011
 31
0.0
  0
LINE
  5
6AC
  8
0
 10
111.1518715581818
 20
130.08601475932011
 30
0.0
 11
111.1518715581818
 21
121.9707988148365
 31
0.0
  0
LINE
  5
6AD
  8
0
 10
111.1518715581818
 20
121.9707988148365
 30
0.0
 11
110.45187155818179
 21
121.9707988148365
 31
0.0
  0
LINE
  5
6C5
  8
0
 10
111.1518715581818
 20
15.41458338287117
 30
0.0
 11
111.1518715581818
 21
23.529799327354741
 31
0.0
  0
LINE
  5
6C6
  8
0
 10
111.1518715581818
 20
15.414583382871109
 30
0.0
 11
110.45187155818179
 21
15.41458338287117
 31
0.0
  0
LINE
  5
6C7
  8
0
 10
111.1518715581818
 20
23.529799327354741
 30
0.0
 11
110.45187155818179
 21
23.529799327354791
 31
0.0
  0
LINE
  5
6EE
  8
0
 10
111.1518715581818
 20
71.00029907109581
 30
0.0
 11
111.1518715581818
 21
68.25029907109581
 31
0.0
  0
TEXT
  5
7A0
  8
0
 62
     3
 10
0.0
 20
0.0
 30
0.0
 40
5.0
  1
NDX10WN-M4
  7
STANDARD1
  0
ENDSEC
  0
EOF
