  0
SECTION
  2
HEADER
  9
$ACADVER
  1
AC1009
  9
$INSBASE
 10
0.0
 20
0.0
 30
0.0
  9
$EXTMIN
 10
0.0
 20
-1.4802182810368341
 30
0.0
  9
$EXTMAX
 10
297.58937251936447
 20
180.96422607125689
 30
0.0
  9
$LIMMIN
 10
0.0
 20
0.0
  9
$LIMMAX
 10
385.0
 20
270.0
  9
$ORTHOMODE
 70
     1
  9
$REGENMODE
 70
     1
  9
$FILLMODE
 70
     1
  9
$QTEXTMODE
 70
     0
  9
$MIRRTEXT
 70
     0
  9
$DRAGMODE
 70
     2
  9
$LTSCALE
 40
10.0
  9
$OSMODE
 70
  3071
  9
$ATTMODE
 70
     1
  9
$TEXTSIZE
 40
4.000000000000048
  9
$TRACEWID
 40
0.05
  9
$TEXTSTYLE
  7
STANDARD
  9
$CLAYER
  8
0
  9
$CELTYPE
  6
BYLAYER
  9
$CECOLOR
 62
   256
  9
$DIMSCALE
 40
1.0
  9
$DIMASZ
 40
3.0
  9
$DIMEXO
 40
2.0
  9
$DIMDLI
 40
0.38
  9
$DIMRND
 40
0.0
  9
$DIMDLE
 40
0.0
  9
$DIMEXE
 40
2.0
  9
$DIMTP
 40
0.0
  9
$DIMTM
 40
0.0
  9
$DIMTXT
 40
3.0
  9
$DIMCEN
 40
0.0
  9
$DIMTSZ
 40
0.0
  9
$DIMTOL
 70
     0
  9
$DIMLIM
 70
     0
  9
$DIMTIH
 70
     0
  9
$DIMTOH
 70
     0
  9
$DIMSE1
 70
     0
  9
$DIMSE2
 70
     0
  9
$DIMTAD
 70
     1
  9
$DIMZIN
 70
     0
  9
$DIMBLK
  1

  9
$DIMASO
 70
     0
  9
$DIMSHO
 70
     0
  9
$DIMPOST
  1

  9
$DIMAPOST
  1

  9
$DIMALT
 70
     0
  9
$DIMALTD
 70
     2
  9
$DIMALTF
 40
25.399999999999999
  9
$DIMLFAC
 40
1.0
  9
$DIMTOFL
 70
     1
  9
$DIMTVP
 40
1.6000000000000001
  9
$DIMTIX
 70
     1
  9
$DIMSOXD
 70
     0
  9
$DIMSAH
 70
     0
  9
$DIMBLK1
  1

  9
$DIMBLK2
  1

  9
$DIMSTYLE
  2
STANDARD
  9
$DIMCLRD
 70
     0
  9
$DIMCLRE
 70
     0
  9
$DIMCLRT
 70
     0
  9
$DIMTFAC
 40
1.0
  9
$DIMGAP
 40
1.0
  9
$LUNITS
 70
     2
  9
$LUPREC
 70
     4
  9
$SKETCHINC
 40
0.1
  9
$FILLETRAD
 40
0.0
  9
$AUNITS
 70
     0
  9
$AUPREC
 70
     4
  9
$MENU
  1
E:\r13\win\SUPPORT\ACAD
  9
$ELEVATION
 40
0.0
  9
$PELEVATION
 40
0.0
  9
$THICKNESS
 40
0.0
  9
$LIMCHECK
 70
     0
  9
$BLIPMODE
 70
     0
  9
$CHAMFERA
 40
0.0
  9
$CHAMFERB
 40
0.0
  9
$SKPOLY
 70
     0
  9
$TDCREATE
 40
2450280.598206134
  9
$TDUPDATE
 40
2456597.6891448731
  9
$TDINDWG
 40
0.0688551273
  9
$TDUSRTIMER
 40
0.0688551273
  9
$USRTIMER
 70
     1
  9
$ANGBASE
 50
0.0
  9
$ANGDIR
 70
     0
  9
$PDMODE
 70
     0
  9
$PDSIZE
 40
0.0
  9
$PLINEWID
 40
0.0
  9
$COORDS
 70
     1
  9
$SPLFRAME
 70
     0
  9
$SPLINETYPE
 70
     6
  9
$SPLINESEGS
 70
     8
  9
$ATTDIA
 70
     0
  9
$ATTREQ
 70
     1
  9
$HANDLING
 70
     1
  9
$HANDSEED
  5
8C9
  9
$SURFTAB1
 70
     6
  9
$SURFTAB2
 70
     6
  9
$SURFTYPE
 70
     6
  9
$SURFU
 70
     6
  9
$SURFV
 70
     6
  9
$UCSNAME
  2

  9
$UCSORG
 10
0.0
 20
0.0
 30
0.0
  9
$UCSXDIR
 10
1.0
 20
0.0
 30
0.0
  9
$UCSYDIR
 10
0.0
 20
1.0
 30
0.0
  9
$PUCSNAME
  2

  9
$PUCSORG
 10
0.0
 20
0.0
 30
0.0
  9
$PUCSXDIR
 10
1.0
 20
0.0
 30
0.0
  9
$PUCSYDIR
 10
0.0
 20
1.0
 30
0.0
  9
$USERI1
 70
     3
  9
$USERI2
 70
     1
  9
$USERI3
 70
     0
  9
$USERI4
 70
     0
  9
$USERI5
 70
     0
  9
$USERR1
 40
1.0
  9
$USERR2
 40
3.0
  9
$USERR3
 40
3.0
  9
$USERR4
 40
3.0
  9
$USERR5
 40
10.0
  9
$WORLDVIEW
 70
     1
  9
$SHADEDGE
 70
     3
  9
$SHADEDIF
 70
    70
  9
$TILEMODE
 70
     1
  9
$MAXACTVP
 70
    16
  9
$PLIMCHECK
 70
     0
  9
$PEXTMIN
 10
1.0000000000000000E+020
 20
1.0000000000000000E+020
 30
1.0000000000000000E+020
  9
$PEXTMAX
 10
-1.0000000000000000E+020
 20
-1.0000000000000000E+020
 30
-1.0000000000000000E+020
  9
$PLIMMIN
 10
0.0
 20
0.0
  9
$PLIMMAX
 10
12.0
 20
9.0
  9
$UNITMODE
 70
     0
  9
$VISRETAIN
 70
     0
  9
$PLINEGEN
 70
     0
  9
$PSLTSCALE
 70
     0
  0
ENDSEC
  0
SECTION
  2
TABLES
  0
TABLE
  2
VPORT
 70
     1
  0
VPORT
  2
*ACTIVE
 70
     0
 10
0.0
 20
0.0
 11
1.0
 21
1.0
 12
192.49412581440311
 22
134.84202934784381
 13
0.0
 23
0.0
 14
5.0
 24
5.0
 15
10.0
 25
10.0
 16
0.0
 26
0.0
 36
1.0
 17
0.0
 27
0.0
 37
0.0
 40
275.78743625673241
 41
2.304913294797688
 42
50.0
 43
0.0
 44
0.0
 50
0.0
 51
0.0
 71
     0
 72
   500
 73
     1
 74
     0
 75
     0
 76
     0
 77
     0
 78
     2
  0
ENDTAB
  0
TABLE
  2
LTYPE
 70
     3
  0
LTYPE
  2
CONTINUOUS
 70
     0
  3
Solid Line
 72
    65
 73
     0
 40
0.0
  0
LTYPE
  2
CENTER
 70
     0
  3
____ _ ____ _ ____ _ ____ _ ____ _ ____ _ ____
 72
    65
 73
     4
 40
2.0
 49
1.25
 49
-0.25
 49
0.25
 49
-0.25
  0
LTYPE
  2
PHANTOM2
 70
     0
  3
___ _ _ ___ _ _ ___ _ _ ___ _ _
 72
    65
 73
     6
 40
1.25
 49
0.625
 49
-0.125
 49
0.125
 49
-0.125
 49
0.125
 49
-0.125
  0
ENDTAB
  0
TABLE
  2
LAYER
 70
     3
  0
LAYER
  2
0
 70
     0
 62
     7
  6
CONTINUOUS
  0
LAYER
  2
1
 70
     0
 62
     1
  6
CENTER
  0
LAYER
  2
3
 70
     0
 62
     3
  6
CONTINUOUS
  0
ENDTAB
  0
TABLE
  2
STYLE
 70
     2
  0
STYLE
  2
STANDARD
 70
     0
 40
0.0
 41
1.0
 50
0.0
 71
     0
 42
4.000000000000048
  3
SIMPLEX
  4
BIGFONT
  0
STYLE
  2
STANDARD1
 70
     0
 40
0.0
 41
1.0
 50
0.0
 71
     0
 42
3.0
  3
txt
  4

  0
ENDTAB
  0
TABLE
  2
VIEW
 70
     0
  0
ENDTAB
  0
TABLE
  2
UCS
 70
     0
  0
ENDTAB
  0
TABLE
  2
APPID
 70
     3
  0
APPID
  2
ACAD
 70
     0
  0
APPID
  2
ACAD_MLEADERVER
 70
     0
  0
APPID
  2
ACAD_NAV_VCDISPLAY
 70
     0
  0
ENDTAB
  0
TABLE
  2
DIMSTYLE
 70
     1
  0
DIMSTYLE
  2
STANDARD
 70
     0
  3

  4

  5

  6

  7

 40
1.0
 41
0.18
 42
0.0625
 43
0.38
 44
0.18
 45
0.0
 46
0.0
 47
0.0
 48
0.0
140
0.18
141
0.09
142
0.0
143
25.399999999999999
144
1.0
145
0.0
146
1.0
147
0.09
 71
     0
 72
     0
 73
     1
 74
     1
 75
     0
 76
     0
 77
     0
 78
     0
170
     0
171
     2
172
     0
173
     0
174
     0
175
     0
176
     0
177
     0
178
     0
  0
ENDTAB
  0
ENDSEC
  0
SECTION
  2
BLOCKS
  0
BLOCK
  8
0
  2
$MODEL_SPACE
 70
     0
 10
0.0
 20
0.0
 30
0.0
  3
$MODEL_SPACE
  1

  0
ENDBLK
  5
697
  8
0
  0
BLOCK
 67
     1
  8
0
  2
$PAPER_SPACE
 70
     0
 10
0.0
 20
0.0
 30
0.0
  3
$PAPER_SPACE
  1

  0
ENDBLK
  5
695
 67
     1
  8
0
  0
ENDSEC
  0
SECTION
  2
ENTITIES
  0
LINE
  5
40B
  8
0
 10
206.1150073974965
 20
114.7186466178415
 30
0.0
 11
206.1150073974965
 21
83.718646617840477
 31
0.0
  0
LINE
  5
40C
  8
0
 10
204.1150107011226
 20
115.71864661784009
 30
0.0
 11
203.8678435596496
 21
115.71864661784009
 31
0.0
  0
LINE
  5
40D
  8
0
 10
204.1150107011226
 20
82.718646617840065
 30
0.0
 11
203.8678435596496
 21
82.718646617840065
 31
0.0
  0
LINE
  5
40E
  8
1
 10
211.11500739749641
 20
99.218646617840065
 30
0.0
 11
127.1150073974964
 21
99.218646617840108
 31
0.0
  0
LINE
  5
40F
  8
0
 10
195.11500739749641
 20
108.21864661784009
 30
0.0
 11
195.11500739749641
 21
90.218646617840136
 31
0.0
  0
LINE
  5
410
  8
0
 10
195.11500739749641
 20
108.21864661784009
 30
0.0
 11
182.8150073974964
 21
108.21864661784009
 31
0.0
  0
LINE
  5
411
  8
0
 10
195.11500739749641
 20
90.218646617840065
 30
0.0
 11
182.8150073974964
 21
90.218646617840108
 31
0.0
  0
ARC
  5
417
  8
0
 10
204.11500739749781
 20
113.2186466178469
 30
0.0
 40
2.4999999999958362
 50
36.86989764571765
 51
89.999999999999986
  0
ARC
  5
418
  8
0
 10
204.11500739749781
 20
85.218646617833201
 30
0.0
 40
2.4999999999958362
 50
270.0
 51
323.13010235428231
  0
LINE
  5
419
  8
0
 10
203.8678435596496
 20
115.71864661784009
 30
0.0
 11
203.8678435596496
 21
82.718646617840022
 31
0.0
  0
LINE
  5
41A
  8
0
 10
142.11500739749641
 20
104.21864661783999
 30
0.0
 11
134.9150073974964
 21
104.21864661783999
 31
0.0
  0
LINE
  5
41B
  8
0
 10
142.1150073974963
 20
94.218646617840108
 30
0.0
 11
134.9150073974964
 21
94.218646617840108
 31
0.0
  0
LINE
  5
41C
  8
0
 10
134.9150073974964
 20
104.21864661783999
 30
0.0
 11
134.9150073974964
 21
94.218646617840108
 31
0.0
  0
LINE
  5
41D
  8
0
 10
142.11500739749621
 20
90.218646617840164
 30
0.0
 11
142.1150073974965
 21
108.21864661783999
 31
0.0
  0
LINE
  5
41E
  8
0
 10
170.11500739749641
 20
109.21864661783999
 30
0.0
 11
143.1150073974965
 21
109.21864661783999
 31
0.0
  0
LINE
  5
41F
  8
3
 10
167.1150073974965
 20
107.86564661784
 30
0.0
 11
142.1150073974965
 21
107.86564661784
 31
0.0
  0
LINE
  5
420
  8
3
 10
167.1150073974965
 20
90.571646617840116
 30
0.0
 11
142.11500739749621
 21
90.571646617840116
 31
0.0
  0
LINE
  5
421
  8
0
 10
170.11500739749641
 20
89.218646617840079
 30
0.0
 11
143.11500739749621
 21
89.218646617840164
 31
0.0
  0
LINE
  5
422
  8
0
 10
143.11500739749621
 20
89.218646617840164
 30
0.0
 11
142.11500739749621
 21
90.218646617840164
 31
0.0
  0
LINE
  5
423
  8
0
 10
142.1150073974965
 20
108.21864661783999
 30
0.0
 11
143.1150073974965
 21
109.21864661783999
 31
0.0
  0
LINE
  5
424
  8
0
 10
143.11500739749621
 20
89.218646617840164
 30
0.0
 11
143.11500739749621
 21
109.21864661783999
 31
0.0
  0
LINE
  5
430
  8
0
 10
134.9150073974964
 20
104.21864661783999
 30
0.0
 11
132.87407295540069
 21
103.04031256829769
 31
0.0
  0
LINE
  5
431
  8
0
 10
134.9150073974964
 20
94.218646617840108
 30
0.0
 11
132.87407295540069
 21
95.396980667382394
 31
0.0
  0
ARC
  5
46D
  8
0
 10
142.11500739749641
 20
99.218646617840079
 30
0.0
 40
10.0
 50
157.53204873306441
 51
202.46795126693621
  0
LINE
  5
46E
  8
0
 10
132.87407295540049
 20
103.04031256829759
 30
0.0
 11
132.87407295540061
 21
95.396980667382437
 31
0.0
  0
CIRCLE
  5
486
  8
0
 10
276.08937251936447
 20
99.218646617840079
 30
0.0
 40
16.5
  0
LINE
  5
487
  8
1
 10
297.58937251936447
 20
99.218646617840079
 30
0.0
 11
254.5893725193645
 21
99.218646617840079
 31
0.0
  0
LINE
  5
488
  8
1
 10
276.08937251936447
 20
120.71864661784009
 30
0.0
 11
276.08937251936447
 21
77.718646617840065
 31
0.0
  0
LINE
  5
490
  8
1
 10
69.201431710224142
 20
120.71864661784009
 30
0.0
 11
69.201431710224142
 21
77.718646617840065
 31
0.0
  0
CIRCLE
  5
491
  8
0
 10
69.201431710224142
 20
99.218646617840079
 30
0.0
 40
16.5
  0
LINE
  5
492
  8
1
 10
90.701431710224128
 20
99.218646617840079
 30
0.0
 11
47.701431710224142
 21
99.218646617840079
 31
0.0
  0
POLYLINE
  5
493
  8
0
 66
     1
 10
0.0
 20
0.0
 30
0.0
 70
     1
  0
VERTEX
  5
882
  8
0
 10
58.201431710224142
 20
92.867793656754088
 30
0.0
  0
VERTEX
  5
883
  8
0
 10
69.201431710224142
 20
86.516940695668268
 30
0.0
  0
VERTEX
  5
884
  8
0
 10
80.201431710224142
 20
92.867793656754088
 30
0.0
  0
VERTEX
  5
885
  8
0
 10
80.201431710224142
 20
105.5694995789259
 30
0.0
  0
VERTEX
  5
886
  8
0
 10
69.201431710224142
 20
111.92035254001181
 30
0.0
  0
VERTEX
  5
887
  8
0
 10
58.201431710224142
 20
105.5694995789259
 30
0.0
  0
SEQEND
  5
888
  8
0
  0
CIRCLE
  5
49B
  8
3
 10
69.201431710224142
 20
99.218646617840079
 30
0.0
 40
8.6470000000000002
  0
CIRCLE
  5
49C
  8
0
 10
69.201431710224142
 20
99.218646617840079
 30
0.0
 40
10.0
  0
CIRCLE
  5
49D
  8
0
 10
69.201431710224142
 20
99.218646617840079
 30
0.0
 40
5.0
  0
CIRCLE
  5
49E
  8
3
 10
69.201431710224142
 20
99.218646617840079
 30
0.0
 40
8.6469999999999985
  0
CIRCLE
  5
49F
  8
0
 10
69.201431710224142
 20
99.218646617840079
 30
0.0
 40
3.821665950457557
  0
LINE
  5
4A8
  8
0
 10
167.1150073974965
 20
109.21864661783999
 30
0.0
 11
167.1150073974965
 21
89.218646617840136
 31
0.0
  0
LINE
  5
4A9
  8
3
 10
167.1150073974965
 20
107.86564661784
 30
0.0
 11
169.45847214013719
 21
109.21864661783999
 31
0.0
  0
LINE
  5
4AA
  8
3
 10
167.1150073974965
 20
90.571646617840173
 30
0.0
 11
169.45847214013719
 21
89.218646617840179
 31
0.0
  0
LINE
  5
507
  8
0
 10
195.11500739749641
 20
155.46422607125419
 30
0.0
 11
182.8150073974964
 21
155.46422607125419
 31
0.0
  0
LINE
  5
508
  8
0
 10
195.11500739749641
 20
173.46422607125419
 30
0.0
 11
182.8150073974964
 21
173.46422607125419
 31
0.0
  0
LINE
  5
509
  8
1
 10
211.11500739749641
 20
164.46422607125419
 30
0.0
 11
127.1150073974964
 21
164.46422607125419
 31
0.0
  0
ARC
  5
50A
  8
0
 10
165.94038249548581
 20
169.96422607125061
 30
0.0
 40
15.88594976741253
 50
339.74384199968461
 51
20.256158000339941
  0
LINE
  5
50B
  8
0
 10
182.8150073974964
 20
155.46422607125419
 30
0.0
 11
182.8150073974964
 21
173.46422607125419
 31
0.0
  0
LINE
  5
50C
  8
0
 10
167.1150073974965
 20
154.4642260712543
 30
0.0
 11
167.1150073974965
 21
174.46422607125419
 31
0.0
  0
LINE
  5
50D
  8
0
 10
182.1150073974965
 20
153.9642260712545
 30
0.0
 11
182.11500739749621
 21
174.9642260712547
 31
0.0
  0
LINE
  5
50E
  8
0
 10
170.1150073974965
 20
153.46422607125419
 30
0.0
 11
170.1150073974963
 21
175.46422607125419
 31
0.0
  0
LINE
  5
50F
  8
0
 10
132.87407295540049
 20
160.64256012079659
 30
0.0
 11
132.87407295540061
 21
168.28589202171179
 31
0.0
  0
ARC
  5
510
  8
0
 10
142.11500739749641
 20
164.46422607125419
 30
0.0
 40
10.0
 50
157.5320487330641
 51
202.4679512669353
  0
LINE
  5
511
  8
0
 10
134.9150073974964
 20
159.4642260712543
 30
0.0
 11
134.9150073974964
 21
169.46422607125419
 31
0.0
  0
LINE
  5
512
  8
0
 10
142.11500739749621
 20
173.4642260712541
 30
0.0
 11
142.1150073974965
 21
155.46422607125419
 31
0.0
  0
LINE
  5
513
  8
0
 10
143.11500739749621
 20
174.4642260712541
 30
0.0
 11
143.11500739749621
 21
154.46422607125419
 31
0.0
  0
LINE
  5
514
  8
3
 10
167.1150073974965
 20
173.11122607125421
 30
0.0
 11
142.11500739749621
 21
173.11122607125421
 31
0.0
  0
LINE
  5
515
  8
0
 10
170.11500739749641
 20
174.46422607125419
 30
0.0
 11
143.11500739749621
 21
174.4642260712541
 31
0.0
  0
LINE
  5
516
  8
0
 10
142.1150073974963
 20
169.46422607125419
 30
0.0
 11
134.9150073974964
 21
169.46422607125419
 31
0.0
  0
LINE
  5
517
  8
0
 10
134.9150073974964
 20
169.46422607125419
 30
0.0
 11
132.87407295540069
 21
168.2858920217119
 31
0.0
  0
LINE
  5
518
  8
0
 10
143.11500739749621
 20
174.4642260712541
 30
0.0
 11
142.11500739749621
 21
173.4642260712541
 31
0.0
  0
LINE
  5
519
  8
0
 10
181.8263322629015
 20
175.46422607125419
 30
0.0
 11
170.1150073974963
 21
175.46422607125419
 31
0.0
  0
LINE
  5
51A
  8
3
 10
167.1150073974965
 20
173.11122607125409
 30
0.0
 11
169.45847214013719
 21
174.4642260712541
 31
0.0
  0
LINE
  5
51B
  8
0
 10
182.8150073974964
 20
173.46422607125419
 30
0.0
 11
182.11500739749641
 21
172.7642260712542
 31
0.0
  0
LINE
  5
51C
  8
0
 10
182.11500739749621
 20
174.9642260712545
 30
0.0
 11
181.8263322629017
 21
175.46422607125399
 31
0.0
  0
LINE
  5
51D
  8
0
 10
170.11500739749641
 20
154.4642260712543
 30
0.0
 11
143.1150073974965
 21
154.46422607125419
 31
0.0
  0
LINE
  5
51E
  8
3
 10
167.1150073974965
 20
155.81722607125431
 30
0.0
 11
142.1150073974965
 21
155.81722607125431
 31
0.0
  0
LINE
  5
51F
  8
0
 10
142.11500739749641
 20
159.4642260712543
 30
0.0
 11
134.9150073974964
 21
159.4642260712543
 31
0.0
  0
LINE
  5
520
  8
0
 10
134.9150073974964
 20
159.4642260712543
 30
0.0
 11
132.87407295540069
 21
160.64256012079659
 31
0.0
  0
LINE
  5
521
  8
0
 10
142.1150073974965
 20
155.46422607125419
 30
0.0
 11
143.1150073974965
 21
154.46422607125419
 31
0.0
  0
LINE
  5
522
  8
0
 10
181.8263322629015
 20
153.46422607125419
 30
0.0
 11
170.1150073974965
 21
153.46422607125419
 31
0.0
  0
LINE
  5
523
  8
0
 10
180.84385189065659
 20
164.46422607125419
 30
0.0
 11
170.11500739749641
 21
164.46422607125419
 31
0.0
  0
LINE
  5
524
  8
3
 10
167.1150073974965
 20
155.81722607125431
 30
0.0
 11
169.45847214013719
 21
154.4642260712543
 31
0.0
  0
ARC
  5
525
  8
0
 10
165.94038249548581
 20
158.96422607125791
 30
0.0
 40
15.88594976741253
 50
339.74384199965999
 51
20.256158000315359
  0
LINE
  5
526
  8
0
 10
182.11500739749641
 20
156.16422607125421
 30
0.0
 11
182.8150073974964
 21
155.46422607125419
 31
0.0
  0
LINE
  5
527
  8
0
 10
182.11500739749621
 20
153.96422607125399
 30
0.0
 11
181.8263322629017
 21
153.46422607125439
 31
0.0
  0
LINE
  5
529
  8
0
 10
195.11500739749641
 20
155.46422607125419
 30
0.0
 11
195.11500739749641
 21
173.4642260712541
 31
0.0
  0
LINE
  5
52A
  8
0
 10
203.8678435596496
 20
147.9642260712541
 30
0.0
 11
203.8678435596496
 21
180.9642260712543
 31
0.0
  0
LINE
  5
52B
  8
0
 10
206.1150073974965
 20
148.9642260712528
 30
0.0
 11
206.1150073974965
 21
179.96422607125379
 31
0.0
  0
ARC
  5
52F
  8
0
 10
204.11500739749781
 20
178.46422607126109
 30
0.0
 40
2.4999999999958362
 50
36.869897645717657
 51
90.0
  0
LINE
  5
530
  8
0
 10
204.1150107011226
 20
180.96422607125419
 30
0.0
 11
203.8678435596496
 21
180.96422607125419
 31
0.0
  0
ARC
  5
539
  8
0
 10
204.11500739749781
 20
150.46422607124731
 30
0.0
 40
2.4999999999958362
 50
270.0
 51
323.13010235428231
  0
LINE
  5
53A
  8
0
 10
204.1150107011226
 20
147.96422607125419
 30
0.0
 11
203.8678435596496
 21
147.96422607125419
 31
0.0
  0
LINE
  5
60F
  8
0
 10
195.11500739749641
 20
173.4642260712541
 30
0.0
 11
203.8678435596496
 21
180.9642260712543
 31
0.0
  0
LINE
  5
610
  8
0
 10
195.11500739749641
 20
155.46422607125419
 30
0.0
 11
203.8678435596496
 21
147.9642260712541
 31
0.0
  0
LINE
  5
612
  8
0
 10
203.8678435596496
 20
115.71864661784009
 30
0.0
 11
195.11500739749641
 21
108.21864661784009
 31
0.0
  0
LINE
  5
613
  8
0
 10
195.11500739749641
 20
90.218646617840065
 30
0.0
 11
203.8678435596496
 21
82.718646617840022
 31
0.0
  0
LINE
  5
771
  8
0
 10
171.91500739749651
 20
97.468646617840093
 30
0.0
 11
172.41500739749651
 21
96.968646617840093
 31
0.0
  0
LINE
  5
772
  8
0
 10
172.41500739749651
 20
101.46864661784009
 30
0.0
 11
171.91500739749651
 21
100.96864661784009
 31
0.0
  0
LINE
  5
773
  8
0
 10
182.11500739749641
 20
96.968646617840093
 30
0.0
 11
172.41500739749651
 21
96.968646617840093
 31
0.0
  0
LINE
  5
774
  8
0
 10
182.11500739749641
 20
101.46864661784009
 30
0.0
 11
172.41500739749651
 21
101.46864661784009
 31
0.0
  0
LINE
  5
775
  8
0
 10
171.91500739749651
 20
97.71864661784015
 30
0.0
 11
172.41500739749651
 21
97.218646617840164
 31
0.0
  0
LINE
  5
776
  8
0
 10
172.41500739749651
 20
101.21864661784009
 30
0.0
 11
171.91500739749651
 21
100.71864661784009
 31
0.0
  0
ARC
  5
777
  8
0
 10
160.8088126349233
 20
99.218646617786661
 30
0.0
 40
21.01751962797988
 50
6.1454930629245368
 51
17.587953773945781
  0
LINE
  5
778
  8
0
 10
182.8150073974964
 20
97.218646617840093
 30
0.0
 11
182.8150073974964
 21
90.218646617840108
 31
0.0
  0
LINE
  5
779
  8
0
 10
182.11500739749661
 20
96.968646617840093
 30
0.0
 11
182.11500739749641
 21
88.718646617840776
 31
0.0
  0
LINE
  5
77A
  8
0
 10
182.8150073974964
 20
97.218646617840093
 30
0.0
 11
172.41500739749651
 21
97.218646617840164
 31
0.0
  0
LINE
  5
77B
  8
0
 10
182.8150073974964
 20
101.21864661784009
 30
0.0
 11
172.41500739749651
 21
101.21864661784009
 31
0.0
  0
LINE
  5
77C
  8
0
 10
171.91500739749651
 20
100.96864661784009
 30
0.0
 11
171.91500739749651
 21
97.468646617840093
 31
0.0
  0
LINE
  5
77D
  8
0
 10
180.84385189065429
 20
111.92035254001181
 30
0.0
 11
170.11500739749641
 21
111.9203525400119
 31
0.0
  0
LINE
  5
77E
  8
0
 10
180.84385189064329
 20
105.5694995789258
 30
0.0
 11
170.11500739749641
 21
105.5694995789258
 31
0.0
  0
LINE
  5
77F
  8
0
 10
182.11500739749641
 20
109.71864661783999
 30
0.0
 11
180.84385189065421
 21
111.92035254001181
 31
0.0
  0
ARC
  5
780
  8
0
 10
176.2035222164055
 20
108.7449260594768
 30
0.0
 40
5.6228100464977411
 50
325.61575253169042
 51
25.615752535822619
  0
ARC
  5
781
  8
0
 10
160.8088126349233
 20
99.218646617786661
 30
0.0
 40
21.01751962797988
 50
342.41204622608859
 51
353.8545069373688
  0
ARC
  5
782
  8
0
 10
176.2035222164055
 20
89.692367176203419
 30
0.0
 40
5.6228100464977411
 50
334.38424746417729
 51
34.384247468309603
  0
LINE
  5
783
  8
0
 10
182.11500739749641
 20
88.718646617840207
 30
0.0
 11
180.84385189065421
 21
86.516940695668339
 31
0.0
  0
LINE
  5
784
  8
0
 10
180.84385189068391
 20
92.867793656754387
 30
0.0
 11
170.11500739749641
 21
92.867793656754387
 31
0.0
  0
LINE
  5
785
  8
0
 10
180.84385189065429
 20
86.516940695668424
 30
0.0
 11
170.11500739749641
 21
86.516940695668296
 31
0.0
  0
LINE
  5
786
  8
0
 10
182.11500739749641
 20
109.71864661784009
 30
0.0
 11
182.11500739749641
 21
101.46864661784009
 31
0.0
  0
LINE
  5
787
  8
0
 10
170.11500739749641
 20
111.9203525400119
 30
0.0
 11
170.11500739749641
 21
86.516940695668296
 31
0.0
  0
LINE
  5
788
  8
0
 10
182.8150073974964
 20
108.21864661784009
 30
0.0
 11
182.8150073974964
 21
101.21864661784009
 31
0.0
  0
LINE
  5
789
  8
0
 10
182.1150073974963
 20
107.5186466178401
 30
0.0
 11
182.8150073974964
 21
108.21864661784009
 31
0.0
  0
LINE
  5
78A
  8
0
 10
182.8150073974964
 20
90.218646617840108
 30
0.0
 11
182.1150073974963
 21
90.918646617840096
 31
0.0
  0
TEXT
  5
834
  8
0
 62
     3
 10
0.0
 20
0.0
 30
0.0
 40
5.0
  1
NDXN20L
  7
STANDARD1
  0
ENDSEC
  0
EOF
