  0
SECTION
  2
HEADER
  9
$ACADVER
  1
AC1009
  9
$INSBASE
 10
0.0
 20
0.0
 30
0.0
  9
$EXTMIN
 10
0.0
 20
-1.4802182810368341
 30
0.0
  9
$EXTMAX
 10
185.73329019461451
 20
139.0055259290358
 30
0.0
  9
$LIMMIN
 10
0.0
 20
0.0
  9
$LIMMAX
 10
187.5
 20
135.0
  9
$ORTHOMODE
 70
     1
  9
$REGENMODE
 70
     1
  9
$FILLMODE
 70
     1
  9
$QTEXTMODE
 70
     0
  9
$MIRRTEXT
 70
     0
  9
$DRAGMODE
 70
     2
  9
$LTSCALE
 40
5.0
  9
$OSMODE
 70
  3071
  9
$ATTMODE
 70
     1
  9
$TEXTSIZE
 40
4.0
  9
$TRACEWID
 40
0.05
  9
$TEXTSTYLE
  7
STANDARD
  9
$CLAYER
  8
0
  9
$CELTYPE
  6
BYLAYER
  9
$CECOLOR
 62
   256
  9
$DIMSCALE
 40
0.5
  9
$DIMASZ
 40
3.0
  9
$DIMEXO
 40
2.0
  9
$DIMDLI
 40
0.38
  9
$DIMRND
 40
0.0
  9
$DIMDLE
 40
0.0
  9
$DIMEXE
 40
2.0
  9
$DIMTP
 40
0.0
  9
$DIMTM
 40
0.0
  9
$DIMTXT
 40
3.0
  9
$DIMCEN
 40
0.0
  9
$DIMTSZ
 40
0.0
  9
$DIMTOL
 70
     0
  9
$DIMLIM
 70
     0
  9
$DIMTIH
 70
     0
  9
$DIMTOH
 70
     0
  9
$DIMSE1
 70
     0
  9
$DIMSE2
 70
     0
  9
$DIMTAD
 70
     1
  9
$DIMZIN
 70
     0
  9
$DIMBLK
  1

  9
$DIMASO
 70
     0
  9
$DIMSHO
 70
     0
  9
$DIMPOST
  1

  9
$DIMAPOST
  1

  9
$DIMALT
 70
     0
  9
$DIMALTD
 70
     2
  9
$DIMALTF
 40
25.399999999999999
  9
$DIMLFAC
 40
1.0
  9
$DIMTOFL
 70
     0
  9
$DIMTVP
 40
1.6000000000000001
  9
$DIMTIX
 70
     1
  9
$DIMSOXD
 70
     0
  9
$DIMSAH
 70
     0
  9
$DIMBLK1
  1

  9
$DIMBLK2
  1

  9
$DIMSTYLE
  2
STANDARD
  9
$DIMCLRD
 70
     0
  9
$DIMCLRE
 70
     0
  9
$DIMCLRT
 70
     0
  9
$DIMTFAC
 40
1.0
  9
$DIMGAP
 40
0.09
  9
$LUNITS
 70
     2
  9
$LUPREC
 70
     4
  9
$SKETCHINC
 40
0.1
  9
$FILLETRAD
 40
1.0
  9
$AUNITS
 70
     0
  9
$AUPREC
 70
     0
  9
$MENU
  1
E:\r13\win\SUPPORT\ACAD
  9
$ELEVATION
 40
0.0
  9
$PELEVATION
 40
0.0
  9
$THICKNESS
 40
0.0
  9
$LIMCHECK
 70
     0
  9
$BLIPMODE
 70
     0
  9
$CHAMFERA
 40
0.0
  9
$CHAMFERB
 40
0.0
  9
$SKPOLY
 70
     0
  9
$TDCREATE
 40
2449840.6143865739
  9
$TDUPDATE
 40
2456597.6896540509
  9
$TDINDWG
 40
0.2429395486
  9
$TDUSRTIMER
 40
0.2429395486
  9
$USRTIMER
 70
     1
  9
$ANGBASE
 50
0.0
  9
$ANGDIR
 70
     0
  9
$PDMODE
 70
     0
  9
$PDSIZE
 40
0.0
  9
$PLINEWID
 40
0.0
  9
$COORDS
 70
     1
  9
$SPLFRAME
 70
     0
  9
$SPLINETYPE
 70
     6
  9
$SPLINESEGS
 70
     8
  9
$ATTDIA
 70
     0
  9
$ATTREQ
 70
     1
  9
$HANDLING
 70
     1
  9
$HANDSEED
  5
1A22
  9
$SURFTAB1
 70
     6
  9
$SURFTAB2
 70
     6
  9
$SURFTYPE
 70
     6
  9
$SURFU
 70
     6
  9
$SURFV
 70
     6
  9
$UCSNAME
  2

  9
$UCSORG
 10
0.0
 20
0.0
 30
0.0
  9
$UCSXDIR
 10
1.0
 20
0.0
 30
0.0
  9
$UCSYDIR
 10
0.0
 20
1.0
 30
0.0
  9
$PUCSNAME
  2

  9
$PUCSORG
 10
0.0
 20
0.0
 30
0.0
  9
$PUCSXDIR
 10
1.0
 20
0.0
 30
0.0
  9
$PUCSYDIR
 10
0.0
 20
1.0
 30
0.0
  9
$USERI1
 70
     0
  9
$USERI2
 70
     1
  9
$USERI3
 70
     1
  9
$USERI4
 70
     0
  9
$USERI5
 70
     0
  9
$USERR1
 40
0.0
  9
$USERR2
 40
0.0
  9
$USERR3
 40
0.0
  9
$USERR4
 40
0.0
  9
$USERR5
 40
0.0
  9
$WORLDVIEW
 70
     1
  9
$SHADEDGE
 70
     3
  9
$SHADEDIF
 70
    70
  9
$TILEMODE
 70
     1
  9
$MAXACTVP
 70
    16
  9
$PLIMCHECK
 70
     0
  9
$PEXTMIN
 10
1.0000000000000000E+020
 20
1.0000000000000000E+020
 30
1.0000000000000000E+020
  9
$PEXTMAX
 10
-1.0000000000000000E+020
 20
-1.0000000000000000E+020
 30
-1.0000000000000000E+020
  9
$PLIMMIN
 10
0.0
 20
0.0
  9
$PLIMMAX
 10
12.0
 20
9.0
  9
$UNITMODE
 70
     0
  9
$VISRETAIN
 70
     0
  9
$PLINEGEN
 70
     0
  9
$PSLTSCALE
 70
     0
  0
ENDSEC
  0
SECTION
  2
TABLES
  0
TABLE
  2
VPORT
 70
     1
  0
VPORT
  2
*ACTIVE
 70
     0
 10
0.0
 20
0.0
 11
1.0
 21
1.0
 12
93.747139195326156
 22
69.064546150111141
 13
0.0
 23
0.0
 14
5.0
 24
5.0
 15
5.0
 25
5.0
 16
0.0
 26
0.0
 36
1.0
 17
0.0
 27
0.0
 37
0.0
 40
142.7219824320234
 41
2.304913294797688
 42
50.0
 43
0.0
 44
0.0
 50
0.0
 51
0.0
 71
     0
 72
   100
 73
     1
 74
     0
 75
     0
 76
     0
 77
     0
 78
     0
  0
ENDTAB
  0
TABLE
  2
LTYPE
 70
     4
  0
LTYPE
  2
CONTINUOUS
 70
     0
  3
Solid Line
 72
    65
 73
     0
 40
0.0
  0
LTYPE
  2
CENTER
 70
     0
  3
____ _ ____ _ ____ _ ____ _ ____ _ ____ _ ____
 72
    65
 73
     4
 40
2.0
 49
1.25
 49
-0.25
 49
0.25
 49
-0.25
  0
LTYPE
  2
HIDDEN
 70
     0
  3
_ _ _ _ _ _ _ _ _ _ _ _ _ _ _ _ _ _ _ _ _ _ _
 72
    65
 73
     2
 40
0.375
 49
0.25
 49
-0.125
  0
LTYPE
  2
PHANTOM2
 70
     0
  3
___ _ _ ___ _ _ ___ _ _ ___ _ _
 72
    65
 73
     6
 40
1.25
 49
0.625
 49
-0.125
 49
0.125
 49
-0.125
 49
0.125
 49
-0.125
  0
ENDTAB
  0
TABLE
  2
LAYER
 70
     4
  0
LAYER
  2
0
 70
     0
 62
     7
  6
CONTINUOUS
  0
LAYER
  2
1
 70
     0
 62
     1
  6
CENTER
  0
LAYER
  2
3
 70
     0
 62
     3
  6
CONTINUOUS
  0
LAYER
  2
2
 70
     0
 62
     2
  6
HIDDEN
  0
ENDTAB
  0
TABLE
  2
STYLE
 70
     2
  0
STYLE
  2
STANDARD
 70
     0
 40
0.0
 41
1.0
 50
0.0
 71
     0
 42
4.0
  3
TXT
  4
BIGFONT
  0
STYLE
  2
STANDARD1
 70
     0
 40
0.0
 41
1.0
 50
0.0
 71
     0
 42
3.0
  3
txt
  4

  0
ENDTAB
  0
TABLE
  2
VIEW
 70
     1
  0
VIEW
  2
ALL
 70
     0
 40
179.66152299999999
 10
141.903918
 20
89.830760999999995
 41
0.0
 11
0.0
 21
0.0
 31
1.0
 12
0.0
 22
0.0
 32
0.0
 42
0.0
 43
0.0
 44
0.0
 50
0.0
 71
     0
  0
ENDTAB
  0
TABLE
  2
UCS
 70
     0
  0
ENDTAB
  0
TABLE
  2
APPID
 70
     4
  0
APPID
  2
ACAD
 70
     0
  0
APPID
  2
DCO15
 70
     0
  0
APPID
  2
ACAD_MLEADERVER
 70
     0
  0
APPID
  2
ACAD_NAV_VCDISPLAY
 70
     0
  0
ENDTAB
  0
TABLE
  2
DIMSTYLE
 70
     1
  0
DIMSTYLE
  2
STANDARD
 70
     0
  3

  4

  5

  6

  7

 40
1.0
 41
0.18
 42
0.0625
 43
0.38
 44
0.18
 45
0.0
 46
0.0
 47
0.0
 48
0.0
140
0.18
141
0.09
142
0.0
143
25.399999999999999
144
1.0
145
0.0
146
1.0
147
0.09
 71
     0
 72
     0
 73
     1
 74
     1
 75
     0
 76
     0
 77
     0
 78
     0
170
     0
171
     2
172
     0
173
     0
174
     0
175
     0
176
     0
177
     0
178
     0
  0
ENDTAB
  0
ENDSEC
  0
SECTION
  2
BLOCKS
  0
BLOCK
  8
0
  2
$MODEL_SPACE
 70
     0
 10
0.0
 20
0.0
 30
0.0
  3
$MODEL_SPACE
  1

  0
ENDBLK
  5
1BD
  8
0
  0
BLOCK
 67
     1
  8
0
  2
$PAPER_SPACE
 70
     0
 10
0.0
 20
0.0
 30
0.0
  3
$PAPER_SPACE
  1

  0
ENDBLK
  5
1BB
 67
     1
  8
0
  0
ENDSEC
  0
SECTION
  2
ENTITIES
  0
LINE
  5
13B3
  8
1
 10
129.7332901787909
 20
123.505525921124
 30
0.0
 11
85.233290178790966
 21
123.505525921124
 31
0.0
  0
LINE
  5
13B4
  8
3
 10
95.233290178790966
 20
127.892025921124
 30
0.0
 11
101.08749456893879
 21
127.892025921124
 31
0.0
  0
LINE
  5
13B5
  8
3
 10
95.233290178790966
 20
119.11902592112401
 30
0.0
 11
101.08749456893869
 21
119.11902592112401
 31
0.0
  0
LINE
  5
13B6
  8
0
 10
109.6527335951902
 20
131.0110794205892
 30
0.0
 11
103.23329017879099
 21
131.0110794205892
 31
0.0
  0
POLYLINE
  5
13B7
  8
0
 66
     1
 10
0.0
 20
0.0
 30
0.0
  0
VERTEX
  5
18FA
  8
0
 10
110.2332901787909
 20
129.13469104572289
 30
0.0
  0
VERTEX
  5
18FB
  8
0
 10
110.23283014683381
 20
129.18558067699959
 30
0.0
  0
VERTEX
  5
18FC
  8
0
 10
110.2291722945738
 20
129.2869834222553
 30
0.0
  0
VERTEX
  5
18FD
  8
0
 10
110.22190784965009
 20
129.38800937964081
 30
0.0
  0
VERTEX
  5
18FE
  8
0
 10
110.21693695585461
 20
129.43842705470689
 30
0.0
  0
VERTEX
  5
18FF
  8
0
 10
110.2110796196399
 20
129.48880527400831
 30
0.0
  0
VERTEX
  5
1900
  8
0
 10
110.19671969498729
 20
129.58951446445971
 30
0.0
  0
VERTEX
  5
1901
  8
0
 10
110.17884983296079
 20
129.69027768123451
 30
0.0
  0
VERTEX
  5
1902
  8
0
 10
110.1574817605875
 20
129.79123372606051
 30
0.0
  0
VERTEX
  5
1903
  8
0
 10
110.1326174017081
 20
129.8925201437294
 30
0.0
  0
VERTEX
  5
1904
  8
0
 10
110.10424903217
 20
129.99427387206251
 30
0.0
  0
VERTEX
  5
1905
  8
0
 10
110.0887458141035
 20
130.04536876131621
 30
0.0
  0
VERTEX
  5
1906
  8
0
 10
110.0723593661513
 20
130.09663187697339
 30
0.0
  0
VERTEX
  5
1907
  8
0
 10
110.03692157566191
 20
130.19973177899141
 30
0.0
  0
VERTEX
  5
1908
  8
0
 10
109.9978992443705
 20
130.30371247738771
 30
0.0
  0
VERTEX
  5
1909
  8
0
 10
109.9552462560536
 20
130.4087147779226
 30
0.0
  0
VERTEX
  5
190A
  8
0
 10
109.9089066171184
 20
130.51488203021469
 30
0.0
  0
VERTEX
  5
190B
  8
0
 10
109.8588142118133
 20
130.62236078080991
 30
0.0
  0
VERTEX
  5
190C
  8
0
 10
109.83233721693691
 20
130.6766388034917
 30
0.0
  0
VERTEX
  5
190D
  8
0
 10
109.8048924878791
 20
130.73130144820809
 30
0.0
  0
VERTEX
  5
190E
  8
0
 10
109.7470540695022
 20
130.84185902638879
 30
0.0
  0
VERTEX
  5
190F
  8
0
 10
109.68520029348331
 20
130.9541938237646
 30
0.0
  0
VERTEX
  5
1910
  8
0
 10
109.6527335951902
 20
131.0110794205892
 30
0.0
  0
SEQEND
  5
1911
  8
0
  0
POLYLINE
  5
13B8
  8
0
 66
     1
 10
0.0
 20
0.0
 30
0.0
  0
VERTEX
  5
1912
  8
0
 10
109.6527335951902
 20
127.25830267085659
 30
0.0
  0
VERTEX
  5
1913
  8
0
 10
109.68520029348331
 20
127.31518826768109
 30
0.0
  0
VERTEX
  5
1914
  8
0
 10
109.7470540695022
 20
127.4275230650569
 30
0.0
  0
VERTEX
  5
1915
  8
0
 10
109.8048924878791
 20
127.53808064323761
 30
0.0
  0
VERTEX
  5
1916
  8
0
 10
109.83233721693691
 20
127.59274328795399
 30
0.0
  0
VERTEX
  5
1917
  8
0
 10
109.8588142118133
 20
127.64702131063591
 30
0.0
  0
VERTEX
  5
1918
  8
0
 10
109.9089066171184
 20
127.754500061231
 30
0.0
  0
VERTEX
  5
1919
  8
0
 10
109.9552462560536
 20
127.86066731352319
 30
0.0
  0
VERTEX
  5
191A
  8
0
 10
109.9978992443705
 20
127.965669614058
 30
0.0
  0
VERTEX
  5
191B
  8
0
 10
110.03692157566191
 20
128.06965031245431
 30
0.0
  0
VERTEX
  5
191C
  8
0
 10
110.0723593661513
 20
128.1727502144723
 30
0.0
  0
VERTEX
  5
191D
  8
0
 10
110.0887458141035
 20
128.22401333012959
 30
0.0
  0
VERTEX
  5
191E
  8
0
 10
110.10424903217
 20
128.27510821938321
 30
0.0
  0
VERTEX
  5
191F
  8
0
 10
110.1326174017081
 20
128.37686194771641
 30
0.0
  0
VERTEX
  5
1920
  8
0
 10
110.1574817605875
 20
128.47814836538521
 30
0.0
  0
VERTEX
  5
1921
  8
0
 10
110.17884983296079
 20
128.5791044102113
 30
0.0
  0
VERTEX
  5
1922
  8
0
 10
110.19671969498729
 20
128.67986762698601
 30
0.0
  0
VERTEX
  5
1923
  8
0
 10
110.2110796196399
 20
128.78057681743741
 30
0.0
  0
VERTEX
  5
1924
  8
0
 10
110.21693695585461
 20
128.83095503673891
 30
0.0
  0
VERTEX
  5
1925
  8
0
 10
110.22190784965009
 20
128.881372711805
 30
0.0
  0
VERTEX
  5
1926
  8
0
 10
110.2291722945738
 20
128.98239866919039
 30
0.0
  0
VERTEX
  5
1927
  8
0
 10
110.23283014683381
 20
129.08380141444621
 30
0.0
  0
VERTEX
  5
1928
  8
0
 10
110.2332901787909
 20
129.13469104572289
 30
0.0
  0
SEQEND
  5
1929
  8
0
  0
POLYLINE
  5
13B9
  8
0
 66
     1
 10
0.0
 20
0.0
 30
0.0
  0
VERTEX
  5
192A
  8
0
 10
110.2332901787909
 20
117.8763607965252
 30
0.0
  0
VERTEX
  5
192B
  8
0
 10
110.23283014683381
 20
117.92725042780179
 30
0.0
  0
VERTEX
  5
192C
  8
0
 10
110.2291722945738
 20
118.02865317305761
 30
0.0
  0
VERTEX
  5
192D
  8
0
 10
110.22190784965009
 20
118.12967913044309
 30
0.0
  0
VERTEX
  5
192E
  8
0
 10
110.21693695585461
 20
118.18009680550919
 30
0.0
  0
VERTEX
  5
192F
  8
0
 10
110.2110796196399
 20
118.2304750248107
 30
0.0
  0
VERTEX
  5
1930
  8
0
 10
110.19671969498729
 20
118.331184215262
 30
0.0
  0
VERTEX
  5
1931
  8
0
 10
110.17884983296079
 20
118.43194743203679
 30
0.0
  0
VERTEX
  5
1932
  8
0
 10
110.1574817605875
 20
118.5329034768628
 30
0.0
  0
VERTEX
  5
1933
  8
0
 10
110.1326174017081
 20
118.6341898945317
 30
0.0
  0
VERTEX
  5
1934
  8
0
 10
110.10424903217
 20
118.7359436228648
 30
0.0
  0
VERTEX
  5
1935
  8
0
 10
110.0887458141035
 20
118.7870385121184
 30
0.0
  0
VERTEX
  5
1936
  8
0
 10
110.0723593661513
 20
118.83830162777571
 30
0.0
  0
VERTEX
  5
1937
  8
0
 10
110.03692157566191
 20
118.94140152979379
 30
0.0
  0
VERTEX
  5
1938
  8
0
 10
109.9978992443705
 20
119.04538222818999
 30
0.0
  0
VERTEX
  5
1939
  8
0
 10
109.9552462560536
 20
119.1503845287249
 30
0.0
  0
VERTEX
  5
193A
  8
0
 10
109.9089066171184
 20
119.256551781017
 30
0.0
  0
VERTEX
  5
193B
  8
0
 10
109.8588142118133
 20
119.3640305316121
 30
0.0
  0
VERTEX
  5
193C
  8
0
 10
109.83233721693691
 20
119.418308554294
 30
0.0
  0
VERTEX
  5
193D
  8
0
 10
109.804892487879
 20
119.4729711990104
 30
0.0
  0
VERTEX
  5
193E
  8
0
 10
109.7470540695022
 20
119.5835287771912
 30
0.0
  0
VERTEX
  5
193F
  8
0
 10
109.68520029348331
 20
119.695863574567
 30
0.0
  0
VERTEX
  5
1940
  8
0
 10
109.6527335951902
 20
119.7527491713915
 30
0.0
  0
SEQEND
  5
1941
  8
0
  0
POLYLINE
  5
13BA
  8
0
 66
     1
 10
0.0
 20
0.0
 30
0.0
  0
VERTEX
  5
1942
  8
0
 10
109.6527335951902
 20
115.9999724216589
 30
0.0
  0
VERTEX
  5
1943
  8
0
 10
109.68520029348331
 20
116.0568580184834
 30
0.0
  0
VERTEX
  5
1944
  8
0
 10
109.7470540695022
 20
116.1691928158592
 30
0.0
  0
VERTEX
  5
1945
  8
0
 10
109.8048924878791
 20
116.27975039403989
 30
0.0
  0
VERTEX
  5
1946
  8
0
 10
109.83233721693691
 20
116.3344130387563
 30
0.0
  0
VERTEX
  5
1947
  8
0
 10
109.8588142118133
 20
116.38869106143819
 30
0.0
  0
VERTEX
  5
1948
  8
0
 10
109.9089066171184
 20
116.4961698120333
 30
0.0
  0
VERTEX
  5
1949
  8
0
 10
109.9552462560536
 20
116.6023370643255
 30
0.0
  0
VERTEX
  5
194A
  8
0
 10
109.9978992443705
 20
116.7073393648604
 30
0.0
  0
VERTEX
  5
194B
  8
0
 10
110.03692157566191
 20
116.8113200632566
 30
0.0
  0
VERTEX
  5
194C
  8
0
 10
110.0723593661513
 20
116.9144199652746
 30
0.0
  0
VERTEX
  5
194D
  8
0
 10
110.0887458141035
 20
116.9656830809319
 30
0.0
  0
VERTEX
  5
194E
  8
0
 10
110.10424903217
 20
117.0167779701855
 30
0.0
  0
VERTEX
  5
194F
  8
0
 10
110.1326174017081
 20
117.11853169851869
 30
0.0
  0
VERTEX
  5
1950
  8
0
 10
110.1574817605875
 20
117.2198181161875
 30
0.0
  0
VERTEX
  5
1951
  8
0
 10
110.17884983296079
 20
117.3207741610136
 30
0.0
  0
VERTEX
  5
1952
  8
0
 10
110.19671969498729
 20
117.4215373777883
 30
0.0
  0
VERTEX
  5
1953
  8
0
 10
110.2110796196399
 20
117.52224656823959
 30
0.0
  0
VERTEX
  5
1954
  8
0
 10
110.21693695585461
 20
117.5726247875411
 30
0.0
  0
VERTEX
  5
1955
  8
0
 10
110.22190784965009
 20
117.6230424626073
 30
0.0
  0
VERTEX
  5
1956
  8
0
 10
110.2291722945738
 20
117.7240684199927
 30
0.0
  0
VERTEX
  5
1957
  8
0
 10
110.23283014683381
 20
117.8254711652485
 30
0.0
  0
VERTEX
  5
1958
  8
0
 10
110.2332901787909
 20
117.8763607965252
 30
0.0
  0
SEQEND
  5
1959
  8
0
  0
LINE
  5
13BB
  8
0
 10
109.6527335951902
 20
115.9999724216589
 30
0.0
 11
103.23329017879099
 21
115.9999724216589
 31
0.0
  0
POLYLINE
  5
13BC
  8
0
 66
     1
 10
0.0
 20
0.0
 30
0.0
  0
VERTEX
  5
195A
  8
0
 10
110.2332901787909
 20
123.505525921124
 30
0.0
  0
VERTEX
  5
195B
  8
0
 10
110.23283014683381
 20
123.6073051836774
 30
0.0
  0
VERTEX
  5
195C
  8
0
 10
110.2291722945738
 20
123.81011067418891
 30
0.0
  0
VERTEX
  5
195D
  8
0
 10
110.22190784965009
 20
124.0121625889598
 30
0.0
  0
VERTEX
  5
195E
  8
0
 10
110.21693695585461
 20
124.1129979390921
 30
0.0
  0
VERTEX
  5
195F
  8
0
 10
110.2110796196399
 20
124.213754377695
 30
0.0
  0
VERTEX
  5
1960
  8
0
 10
110.19671969498729
 20
124.41517275859771
 30
0.0
  0
VERTEX
  5
1961
  8
0
 10
110.17884983296079
 20
124.61669919214719
 30
0.0
  0
VERTEX
  5
1962
  8
0
 10
110.1574817605875
 20
124.81861128179931
 30
0.0
  0
VERTEX
  5
1963
  8
0
 10
110.1326174017081
 20
125.021184117137
 30
0.0
  0
VERTEX
  5
1964
  8
0
 10
110.10424903217
 20
125.2246915738033
 30
0.0
  0
VERTEX
  5
1965
  8
0
 10
110.0887458141035
 20
125.32688135231059
 30
0.0
  0
VERTEX
  5
1966
  8
0
 10
110.0723593661513
 20
125.42940758362511
 30
0.0
  0
VERTEX
  5
1967
  8
0
 10
110.03692157566191
 20
125.6356073876612
 30
0.0
  0
VERTEX
  5
1968
  8
0
 10
109.9978992443705
 20
125.84356878445369
 30
0.0
  0
VERTEX
  5
1969
  8
0
 10
109.9552462560536
 20
126.05357338552341
 30
0.0
  0
VERTEX
  5
196A
  8
0
 10
109.9089066171184
 20
126.2659078901077
 30
0.0
  0
VERTEX
  5
196B
  8
0
 10
109.8588142118133
 20
126.480865391298
 30
0.0
  0
VERTEX
  5
196C
  8
0
 10
109.83233721693691
 20
126.58942143666179
 30
0.0
  0
VERTEX
  5
196D
  8
0
 10
109.8048924878791
 20
126.6987467260945
 30
0.0
  0
VERTEX
  5
196E
  8
0
 10
109.7470540695022
 20
126.919861882456
 30
0.0
  0
VERTEX
  5
196F
  8
0
 10
109.68520029348331
 20
127.14453147720759
 30
0.0
  0
VERTEX
  5
1970
  8
0
 10
109.6527335951902
 20
127.25830267085659
 30
0.0
  0
SEQEND
  5
1971
  8
0
  0
POLYLINE
  5
13BD
  8
0
 66
     1
 10
0.0
 20
0.0
 30
0.0
  0
VERTEX
  5
1972
  8
0
 10
109.6527335951902
 20
119.7527491713915
 30
0.0
  0
VERTEX
  5
1973
  8
0
 10
109.68520029348331
 20
119.8665203650404
 30
0.0
  0
VERTEX
  5
1974
  8
0
 10
109.7470540695022
 20
120.091189959792
 30
0.0
  0
VERTEX
  5
1975
  8
0
 10
109.8048924878791
 20
120.3123051161536
 30
0.0
  0
VERTEX
  5
1976
  8
0
 10
109.83233721693691
 20
120.4216304055863
 30
0.0
  0
VERTEX
  5
1977
  8
0
 10
109.8588142118133
 20
120.53018645095
 30
0.0
  0
VERTEX
  5
1978
  8
0
 10
109.9089066171184
 20
120.7451439521403
 30
0.0
  0
VERTEX
  5
1979
  8
0
 10
109.9552462560536
 20
120.9574784567246
 30
0.0
  0
VERTEX
  5
197A
  8
0
 10
109.9978992443705
 20
121.1674830577944
 30
0.0
  0
VERTEX
  5
197B
  8
0
 10
110.03692157566191
 20
121.3754444545869
 30
0.0
  0
VERTEX
  5
197C
  8
0
 10
110.0723593661513
 20
121.5816442586229
 30
0.0
  0
VERTEX
  5
197D
  8
0
 10
110.0887458141035
 20
121.6841704899375
 30
0.0
  0
VERTEX
  5
197E
  8
0
 10
110.10424903217
 20
121.7863602684447
 30
0.0
  0
VERTEX
  5
197F
  8
0
 10
110.1326174017081
 20
121.989867725111
 30
0.0
  0
VERTEX
  5
1980
  8
0
 10
110.1574817605875
 20
122.1924405604487
 30
0.0
  0
VERTEX
  5
1981
  8
0
 10
110.17884983296079
 20
122.3943526501009
 30
0.0
  0
VERTEX
  5
1982
  8
0
 10
110.19671969498729
 20
122.5958790836504
 30
0.0
  0
VERTEX
  5
1983
  8
0
 10
110.2110796196399
 20
122.797297464553
 30
0.0
  0
VERTEX
  5
1984
  8
0
 10
110.21693695585461
 20
122.898053903156
 30
0.0
  0
VERTEX
  5
1985
  8
0
 10
110.22190784965009
 20
122.9988892532883
 30
0.0
  0
VERTEX
  5
1986
  8
0
 10
110.2291722945738
 20
123.2009411680591
 30
0.0
  0
VERTEX
  5
1987
  8
0
 10
110.23283014683381
 20
123.4037466585706
 30
0.0
  0
VERTEX
  5
1988
  8
0
 10
110.2332901787909
 20
123.505525921124
 30
0.0
  0
SEQEND
  5
1989
  8
0
  0
LINE
  5
13BE
  8
0
 10
103.23329017879099
 20
115.9999724216589
 30
0.0
 11
103.23329017879099
 21
131.0110794205892
 31
0.0
  0
LINE
  5
13BF
  8
0
 10
109.6527335951902
 20
119.7527491713915
 30
0.0
 11
103.23329017879099
 21
119.7527491713915
 31
0.0
  0
LINE
  5
13C0
  8
0
 10
109.6527335951902
 20
127.25830267085659
 30
0.0
 11
103.23329017879099
 21
127.25830267085659
 31
0.0
  0
LINE
  5
13C1
  8
0
 10
110.2332901787909
 20
130.00552592112399
 30
0.0
 11
110.2332901787909
 21
117.005525921124
 31
0.0
  0
LINE
  5
13C2
  8
0
 10
95.233290178790966
 20
127.892025921124
 30
0.0
 11
95.233290178790966
 21
119.11902592112401
 31
0.0
  0
LINE
  5
13C3
  8
0
 10
95.846790178790954
 20
128.50552592112399
 30
0.0
 11
95.846790178790954
 21
118.505525921124
 31
0.0
  0
LINE
  5
13C5
  8
0
 10
91.533290178791006
 20
126.005525921124
 30
0.0
 11
91.533290178791006
 21
121.005525921124
 31
0.0
  0
LINE
  5
13C6
  8
0
 10
110.5868435693842
 20
130.00552592112399
 30
0.0
 11
110.5868435693842
 21
117.005525921124
 31
0.0
  0
LINE
  5
13C7
  8
0
 10
117.4332901787909
 20
130.00552592112399
 30
0.0
 11
117.4332901787909
 21
117.005525921124
 31
0.0
  0
LINE
  5
13C8
  8
0
 10
122.9388178606756
 20
134.00552592112399
 30
0.0
 11
122.9388178606756
 21
113.005525921124
 31
0.0
  0
LINE
  5
13C9
  8
0
 10
123.3190527286841
 20
134.00552592112399
 30
0.0
 11
123.3190527286841
 21
113.005525921124
 31
0.0
  0
LINE
  5
13CA
  8
0
 10
124.73329017879099
 20
133.00552592112399
 30
0.0
 11
124.73329017879099
 21
114.005525921124
 31
0.0
  0
LINE
  5
13CB
  8
0
 10
110.2332901787909
 20
130.00552592112399
 30
0.0
 11
109.6527335951902
 21
131.0110794205892
 31
0.0
  0
LINE
  5
13CC
  8
0
 10
109.6527335951902
 20
115.9999724216589
 30
0.0
 11
110.2332901787909
 21
117.005525921124
 31
0.0
  0
LINE
  5
13CD
  8
0
 10
95.846790178790954
 20
128.50552592112399
 30
0.0
 11
95.233290178790966
 21
127.892025921124
 31
0.0
  0
LINE
  5
13CE
  8
0
 10
95.233290178790966
 20
119.11902592112401
 30
0.0
 11
95.846790178790954
 21
118.505525921124
 31
0.0
  0
LINE
  5
13CF
  8
0
 10
100.73329017879099
 20
128.50552592112399
 30
0.0
 11
95.846790178790954
 21
128.50552592112399
 31
0.0
  0
LINE
  5
13D0
  8
0
 10
95.846790178790954
 20
118.505525921124
 30
0.0
 11
100.73329017879099
 21
118.505525921124
 31
0.0
  0
LINE
  5
13D1
  8
0
 10
91.533290178791006
 20
126.005525921124
 30
0.0
 11
90.645167646496972
 21
125.4927681380307
 31
0.0
  0
LINE
  5
13D2
  8
0
 10
90.645167646496972
 20
121.5182837042174
 30
0.0
 11
91.533290178791006
 21
121.005525921124
 31
0.0
  0
LINE
  5
13D3
  8
0
 10
95.233290178790966
 20
126.005525921124
 30
0.0
 11
91.533290178791006
 21
126.005525921124
 31
0.0
  0
LINE
  5
13D4
  8
0
 10
91.533290178791006
 20
121.005525921124
 30
0.0
 11
95.233290178790966
 21
121.005525921124
 31
0.0
  0
LINE
  5
13D5
  8
0
 10
110.5868435693842
 20
130.00552592112399
 30
0.0
 11
110.2332901787909
 21
129.65197253053071
 31
0.0
  0
LINE
  5
13D6
  8
0
 10
110.2332901787909
 20
117.3590793117173
 30
0.0
 11
110.5868435693842
 21
117.005525921124
 31
0.0
  0
LINE
  5
13D7
  8
0
 10
117.4332901787909
 20
130.00552592112399
 30
0.0
 11
110.5868435693842
 21
130.00552592112399
 31
0.0
  0
LINE
  5
13D8
  8
0
 10
110.5868435693842
 20
117.005525921124
 30
0.0
 11
117.4332901787909
 21
117.005525921124
 31
0.0
  0
LINE
  5
13D9
  8
0
 10
122.9388178606756
 20
134.00552592112399
 30
0.0
 11
117.4332901787909
 21
130.00552592112399
 31
0.0
  0
LINE
  5
13DA
  8
0
 10
117.4332901787909
 20
117.005525921124
 30
0.0
 11
122.9388178606756
 21
113.005525921124
 31
0.0
  0
LINE
  5
13DB
  8
0
 10
123.3190527286841
 20
134.00552592112399
 30
0.0
 11
122.9388178606756
 21
134.00552592112399
 31
0.0
  0
LINE
  5
13DC
  8
0
 10
122.9388178606756
 20
113.005525921124
 30
0.0
 11
123.3190527286841
 21
113.005525921124
 31
0.0
  0
ARC
  5
13DD
  8
0
 10
123.3192067818329
 20
114.50534183603401
 30
0.0
 40
1.499815922821756
 50
269.99411488090612
 51
340.53375205062008
  0
ARC
  5
13DE
  8
0
 10
123.3192067818329
 20
132.505710006214
 30
0.0
 40
1.4998159228217589
 50
19.466247949380609
 51
90.005885119093904
  0
ARC
  5
13DF
  8
2
 10
135.833290178791
 20
123.505525921124
 30
0.0
 40
14.00000000000005
 50
142.45332336004881
 51
217.5466766399511
  0
CIRCLE
  5
13E0
  8
0
 10
170.2332901867027
 20
123.5055259211241
 30
0.0
 40
9.5000000000000018
  0
CIRCLE
  5
13E1
  8
0
 10
170.2332901867027
 20
123.5055259211241
 30
0.0
 40
8.5317055739166197
  0
CIRCLE
  5
13E2
  8
0
 10
170.2332901867027
 20
123.5055259211241
 30
0.0
 40
10.50000000791176
  0
CIRCLE
  5
13E3
  8
0
 10
44.733290170879201
 20
123.5055259211241
 30
0.0
 40
10.50000000791176
  0
CIRCLE
  5
13E5
  8
0
 10
44.733290170879201
 20
123.5055259211241
 30
0.0
 40
5.0
  0
CIRCLE
  5
13E6
  8
0
 10
44.733290170879201
 20
123.5055259211241
 30
0.0
 40
2.5
  0
CIRCLE
  5
13E7
  8
3
 10
44.733290170879201
 20
123.5055259211241
 30
0.0
 40
4.3865000000000052
  0
LINE
  5
13E8
  8
1
 10
44.733290170879201
 20
139.0055259290358
 30
0.0
 11
44.733290170879201
 21
108.0055259132123
 31
0.0
  0
LINE
  5
13E9
  8
1
 10
29.233290162967482
 20
123.5055259211241
 30
0.0
 11
60.23329017879098
 21
123.505525921124
 31
0.0
  0
LINE
  5
13EA
  8
1
 10
154.7332901787909
 20
123.505525921124
 30
0.0
 11
185.73329019461451
 21
123.505525921124
 31
0.0
  0
LINE
  5
13EB
  8
1
 10
170.2332901867027
 20
139.0055259290358
 30
0.0
 11
170.2332901867027
 21
108.0055259132123
 31
0.0
  0
ARC
  5
13EC
  8
2
 10
135.833290178791
 20
73.505525921124047
 30
0.0
 40
14.00000000000005
 50
142.45332336004881
 51
217.5466766399511
  0
ARC
  5
13ED
  8
0
 10
123.3192067818329
 20
82.505710006214045
 30
0.0
 40
1.4998159228217589
 50
19.466247949380609
 51
90.005885119093904
  0
ARC
  5
13EE
  8
0
 10
123.3192067818329
 20
64.505341836034063
 30
0.0
 40
1.499815922821756
 50
269.99411488090612
 51
340.53375205062008
  0
LINE
  5
13EF
  8
0
 10
122.9388178606756
 20
63.005525921124047
 30
0.0
 11
123.3190527286841
 21
63.005525921124047
 31
0.0
  0
LINE
  5
13F0
  8
0
 10
123.3190527286841
 20
84.005525921124047
 30
0.0
 11
122.9388178606756
 21
84.005525921124047
 31
0.0
  0
LINE
  5
13F1
  8
0
 10
117.4332901787909
 20
67.005525921124047
 30
0.0
 11
122.9388178606756
 21
63.005525921124047
 31
0.0
  0
LINE
  5
13F2
  8
0
 10
122.9388178606756
 20
84.005525921124047
 30
0.0
 11
117.4332901787909
 21
80.005525921124047
 31
0.0
  0
LINE
  5
13F3
  8
0
 10
110.5868435693842
 20
67.005525921124047
 30
0.0
 11
117.4332901787909
 21
67.005525921124047
 31
0.0
  0
LINE
  5
13F4
  8
0
 10
117.4332901787909
 20
80.005525921124047
 30
0.0
 11
110.5868435693842
 21
80.005525921124047
 31
0.0
  0
LINE
  5
13F5
  8
0
 10
110.2332901787909
 20
67.359079311717338
 30
0.0
 11
110.5868435693842
 21
67.005525921124047
 31
0.0
  0
LINE
  5
13F6
  8
0
 10
110.5868435693842
 20
80.005525921124047
 30
0.0
 11
110.2332901787909
 21
79.651972530530756
 31
0.0
  0
LINE
  5
13FB
  8
0
 10
95.233290178790966
 20
69.119025921124035
 30
0.0
 11
95.846790178790954
 21
68.505525921124047
 31
0.0
  0
LINE
  5
13FC
  8
0
 10
95.846790178790954
 20
78.505525921124047
 30
0.0
 11
95.233290178790966
 21
77.892025921124059
 31
0.0
  0
LINE
  5
13FD
  8
0
 10
124.73329017879099
 20
83.005525921124047
 30
0.0
 11
124.73329017879099
 21
64.005525921124047
 31
0.0
  0
LINE
  5
13FE
  8
0
 10
123.3190527286841
 20
84.005525921124047
 30
0.0
 11
123.3190527286841
 21
63.005525921124047
 31
0.0
  0
LINE
  5
13FF
  8
0
 10
122.9388178606756
 20
84.005525921124047
 30
0.0
 11
122.9388178606756
 21
63.005525921124047
 31
0.0
  0
LINE
  5
1400
  8
0
 10
117.4332901787909
 20
80.005525921124047
 30
0.0
 11
117.4332901787909
 21
67.005525921124047
 31
0.0
  0
LINE
  5
1401
  8
0
 10
110.5868435693842
 20
80.005525921124047
 30
0.0
 11
110.5868435693842
 21
67.005525921124047
 31
0.0
  0
LINE
  5
1404
  8
0
 10
95.846790178790954
 20
78.505525921124047
 30
0.0
 11
95.846790178790954
 21
68.505525921124047
 31
0.0
  0
LINE
  5
1405
  8
0
 10
95.233290178790966
 20
77.892025921124059
 30
0.0
 11
95.233290178790966
 21
69.119025921124035
 31
0.0
  0
LINE
  5
1406
  8
1
 10
129.7332901787909
 20
73.505525921124047
 30
0.0
 11
85.233290178790966
 21
73.505525921124047
 31
0.0
  0
LINE
  5
1407
  8
0
 10
110.2332901787909
 20
80.005525921124047
 30
0.0
 11
110.2332901787909
 21
67.005525921124047
 31
0.0
  0
POLYLINE
  5
1408
  8
0
 66
     1
 10
0.0
 20
0.0
 30
0.0
  0
VERTEX
  5
198A
  8
0
 10
109.6527335951902
 20
73.505525921124047
 30
0.0
  0
VERTEX
  5
198B
  8
0
 10
109.68520029348331
 20
73.406997177205142
 30
0.0
  0
VERTEX
  5
198C
  8
0
 10
109.7470540695022
 20
73.212427600692308
 30
0.0
  0
VERTEX
  5
198D
  8
0
 10
109.8048924878791
 20
73.020936258121424
 30
0.0
  0
VERTEX
  5
198E
  8
0
 10
109.83233721693691
 20
72.926257780196636
 30
0.0
  0
VERTEX
  5
198F
  8
0
 10
109.8588142118133
 20
72.832245487177261
 30
0.0
  0
VERTEX
  5
1990
  8
0
 10
109.9089066171185
 20
72.646086830412443
 30
0.0
  0
VERTEX
  5
1991
  8
0
 10
109.9552462560536
 20
72.462199755342453
 30
0.0
  0
VERTEX
  5
1992
  8
0
 10
109.9978992443706
 20
72.280330435904432
 30
0.0
  0
VERTEX
  5
1993
  8
0
 10
110.03692157566191
 20
72.100230583275604
 30
0.0
  0
VERTEX
  5
1994
  8
0
 10
110.0723593661513
 20
71.921656314725055
 30
0.0
  0
VERTEX
  5
1995
  8
0
 10
110.0887458141035
 20
71.832865993852351
 30
0.0
  0
VERTEX
  5
1996
  8
0
 10
110.10424903217
 20
71.744367049657967
 30
0.0
  0
VERTEX
  5
1997
  8
0
 10
110.1326174017081
 20
71.568124422325411
 30
0.0
  0
VERTEX
  5
1998
  8
0
 10
110.1574817605875
 20
71.392691200806254
 30
0.0
  0
VERTEX
  5
1999
  8
0
 10
110.17884983296079
 20
71.217830201836364
 30
0.0
  0
VERTEX
  5
199A
  8
0
 10
110.19671969498729
 20
71.043303190848405
 30
0.0
  0
VERTEX
  5
199B
  8
0
 10
110.2110796196399
 20
70.868869756197569
 30
0.0
  0
VERTEX
  5
199C
  8
0
 10
110.21693695585461
 20
70.781612120772536
 30
0.0
  0
VERTEX
  5
199D
  8
0
 10
110.22190784965009
 20
70.694286145958529
 30
0.0
  0
VERTEX
  5
199E
  8
0
 10
110.2291722945738
 20
70.519304054883662
 30
0.0
  0
VERTEX
  5
199F
  8
0
 10
110.23283014683381
 20
70.343669348073718
 30
0.0
  0
VERTEX
  5
19A0
  8
0
 10
110.23329017879099
 20
70.255525921124047
 30
0.0
  0
SEQEND
  5
19A1
  8
0
  0
POLYLINE
  5
1409
  8
0
 66
     1
 10
0.0
 20
0.0
 30
0.0
  0
VERTEX
  5
19A2
  8
0
 10
110.23329017879099
 20
70.255525921124047
 30
0.0
  0
VERTEX
  5
19A3
  8
0
 10
110.23283014683381
 20
70.167382494174376
 30
0.0
  0
VERTEX
  5
19A4
  8
0
 10
110.2291722945738
 20
69.991747787364432
 30
0.0
  0
VERTEX
  5
19A5
  8
0
 10
110.22190784965009
 20
69.816765696289565
 30
0.0
  0
VERTEX
  5
19A6
  8
0
 10
110.21693695585461
 20
69.729439721475501
 30
0.0
  0
VERTEX
  5
19A7
  8
0
 10
110.2110796196399
 20
69.642182086050525
 30
0.0
  0
VERTEX
  5
19A8
  8
0
 10
110.19671969498729
 20
69.467748651399631
 30
0.0
  0
VERTEX
  5
19A9
  8
0
 10
110.17884983296079
 20
69.29322164041173
 30
0.0
  0
VERTEX
  5
19AA
  8
0
 10
110.1574817605875
 20
69.118360641441768
 30
0.0
  0
VERTEX
  5
19AB
  8
0
 10
110.1326174017081
 20
68.942927419922682
 30
0.0
  0
VERTEX
  5
19AC
  8
0
 10
110.10424903217
 20
68.766684792590127
 30
0.0
  0
VERTEX
  5
19AD
  8
0
 10
110.0887458141035
 20
68.678185848395742
 30
0.0
  0
VERTEX
  5
19AE
  8
0
 10
110.0723593661513
 20
68.589395527523024
 30
0.0
  0
VERTEX
  5
19AF
  8
0
 10
110.03692157566191
 20
68.410821258972476
 30
0.0
  0
VERTEX
  5
19B0
  8
0
 10
109.9978992443706
 20
68.230721406343662
 30
0.0
  0
VERTEX
  5
19B1
  8
0
 10
109.9552462560536
 20
68.04885208690564
 30
0.0
  0
VERTEX
  5
19B2
  8
0
 10
109.9089066171185
 20
67.864965011835636
 30
0.0
  0
VERTEX
  5
19B3
  8
0
 10
109.8588142118133
 20
67.678806355070833
 30
0.0
  0
VERTEX
  5
19B4
  8
0
 10
109.83233721693691
 20
67.584794062051458
 30
0.0
  0
VERTEX
  5
19B5
  8
0
 10
109.8048924878791
 20
67.490115584126613
 30
0.0
  0
VERTEX
  5
19B6
  8
0
 10
109.7470540695022
 20
67.298624241555785
 30
0.0
  0
VERTEX
  5
19B7
  8
0
 10
109.68520029348331
 20
67.104054665042952
 30
0.0
  0
VERTEX
  5
19B8
  8
0
 10
109.6527335951902
 20
67.005525921124047
 30
0.0
  0
SEQEND
  5
19B9
  8
0
  0
LINE
  5
140A
  8
0
 10
103.23329017879099
 20
67.005525921124047
 30
0.0
 11
103.23329017879099
 21
80.005525921124047
 31
0.0
  0
LINE
  5
140B
  8
0
 10
110.2332901787909
 20
67.005525921124104
 30
0.0
 11
103.23329017879099
 21
67.005525921124047
 31
0.0
  0
POLYLINE
  5
140C
  8
0
 66
     1
 10
0.0
 20
0.0
 30
0.0
  0
VERTEX
  5
19BA
  8
0
 10
109.6527335951902
 20
73.505525921124047
 30
0.0
  0
VERTEX
  5
19BB
  8
0
 10
109.68520029348331
 20
73.604054665042952
 30
0.0
  0
VERTEX
  5
19BC
  8
0
 10
109.7470540695022
 20
73.798624241555785
 30
0.0
  0
VERTEX
  5
19BD
  8
0
 10
109.8048924878791
 20
73.99011558412667
 30
0.0
  0
VERTEX
  5
19BE
  8
0
 10
109.83233721693691
 20
74.084794062051444
 30
0.0
  0
VERTEX
  5
19BF
  8
0
 10
109.8588142118133
 20
74.178806355070876
 30
0.0
  0
VERTEX
  5
19C0
  8
0
 10
109.9089066171185
 20
74.364965011835693
 30
0.0
  0
VERTEX
  5
19C1
  8
0
 10
109.9552462560536
 20
74.54885208690564
 30
0.0
  0
VERTEX
  5
19C2
  8
0
 10
109.9978992443706
 20
74.730721406343662
 30
0.0
  0
VERTEX
  5
19C3
  8
0
 10
110.03692157566191
 20
74.910821258972476
 30
0.0
  0
VERTEX
  5
19C4
  8
0
 10
110.0723593661513
 20
75.089395527523038
 30
0.0
  0
VERTEX
  5
19C5
  8
0
 10
110.0887458141035
 20
75.178185848395742
 30
0.0
  0
VERTEX
  5
19C6
  8
0
 10
110.10424903217
 20
75.266684792590127
 30
0.0
  0
VERTEX
  5
19C7
  8
0
 10
110.1326174017081
 20
75.442927419922682
 30
0.0
  0
VERTEX
  5
19C8
  8
0
 10
110.1574817605875
 20
75.618360641441825
 30
0.0
  0
VERTEX
  5
19C9
  8
0
 10
110.17884983296079
 20
75.793221640411716
 30
0.0
  0
VERTEX
  5
19CA
  8
0
 10
110.19671969498729
 20
75.967748651399688
 30
0.0
  0
VERTEX
  5
19CB
  8
0
 10
110.2110796196399
 20
76.142182086050525
 30
0.0
  0
VERTEX
  5
19CC
  8
0
 10
110.21693695585461
 20
76.229439721475558
 30
0.0
  0
VERTEX
  5
19CD
  8
0
 10
110.22190784965009
 20
76.316765696289565
 30
0.0
  0
VERTEX
  5
19CE
  8
0
 10
110.2291722945738
 20
76.491747787364432
 30
0.0
  0
VERTEX
  5
19CF
  8
0
 10
110.23283014683381
 20
76.667382494174376
 30
0.0
  0
VERTEX
  5
19D0
  8
0
 10
110.23329017879099
 20
76.755525921124047
 30
0.0
  0
SEQEND
  5
19D1
  8
0
  0
POLYLINE
  5
140D
  8
0
 66
     1
 10
0.0
 20
0.0
 30
0.0
  0
VERTEX
  5
19D2
  8
0
 10
110.23329017879099
 20
76.755525921124047
 30
0.0
  0
VERTEX
  5
19D3
  8
0
 10
110.23283014683381
 20
76.843669348073703
 30
0.0
  0
VERTEX
  5
19D4
  8
0
 10
110.2291722945738
 20
77.019304054883662
 30
0.0
  0
VERTEX
  5
19D5
  8
0
 10
110.22190784965009
 20
77.194286145958529
 30
0.0
  0
VERTEX
  5
19D6
  8
0
 10
110.21693695585461
 20
77.281612120772593
 30
0.0
  0
VERTEX
  5
19D7
  8
0
 10
110.2110796196399
 20
77.368869756197569
 30
0.0
  0
VERTEX
  5
19D8
  8
0
 10
110.19671969498729
 20
77.543303190848405
 30
0.0
  0
VERTEX
  5
19D9
  8
0
 10
110.17884983296079
 20
77.717830201836364
 30
0.0
  0
VERTEX
  5
19DA
  8
0
 10
110.1574817605875
 20
77.892691200806269
 30
0.0
  0
VERTEX
  5
19DB
  8
0
 10
110.1326174017081
 20
78.068124422325411
 30
0.0
  0
VERTEX
  5
19DC
  8
0
 10
110.10424903217
 20
78.244367049657967
 30
0.0
  0
VERTEX
  5
19DD
  8
0
 10
110.0887458141035
 20
78.332865993852351
 30
0.0
  0
VERTEX
  5
19DE
  8
0
 10
110.0723593661513
 20
78.421656314725055
 30
0.0
  0
VERTEX
  5
19DF
  8
0
 10
110.03692157566191
 20
78.600230583275618
 30
0.0
  0
VERTEX
  5
19E0
  8
0
 10
109.9978992443706
 20
78.780330435904432
 30
0.0
  0
VERTEX
  5
19E1
  8
0
 10
109.9552462560536
 20
78.962199755342453
 30
0.0
  0
VERTEX
  5
19E2
  8
0
 10
109.9089066171185
 20
79.146086830412457
 30
0.0
  0
VERTEX
  5
19E3
  8
0
 10
109.8588142118133
 20
79.332245487177261
 30
0.0
  0
VERTEX
  5
19E4
  8
0
 10
109.83233721693691
 20
79.426257780196636
 30
0.0
  0
VERTEX
  5
19E5
  8
0
 10
109.8048924878791
 20
79.520936258121424
 30
0.0
  0
VERTEX
  5
19E6
  8
0
 10
109.7470540695022
 20
79.712427600692294
 30
0.0
  0
VERTEX
  5
19E7
  8
0
 10
109.68520029348331
 20
79.906997177205142
 30
0.0
  0
VERTEX
  5
19E8
  8
0
 10
109.6527335951902
 20
80.005525921124047
 30
0.0
  0
SEQEND
  5
19E9
  8
0
  0
LINE
  5
140E
  8
0
 10
110.2332901787909
 20
80.005525921124047
 30
0.0
 11
103.23329017879099
 21
80.005525921124047
 31
0.0
  0
LINE
  5
140F
  8
0
 10
109.6527335951902
 20
73.505525921124047
 30
0.0
 11
103.23329017879099
 21
73.505525921124047
 31
0.0
  0
LINE
  5
1490
  8
0
 10
102.833290178791
 20
127.505525921124
 30
0.0
 11
101.5415805556564
 21
127.505525921124
 31
0.0
  0
LINE
  5
1491
  8
0
 10
100.73329017879099
 20
128.50552592112399
 30
0.0
 11
100.73329017879099
 21
118.505525921124
 31
0.0
  0
LINE
  5
1492
  8
0
 10
100.73329017879099
 20
128.50552592112399
 30
0.0
 11
101.19517039414259
 21
127.70552592112401
 31
0.0
  0
ARC
  5
1493
  8
0
 10
102.8332901787909
 20
127.905525921124
 30
0.0
 40
0.4
 50
270.00000000000142
 51
0.0
  0
ARC
  5
1494
  8
0
 10
101.5415805556564
 20
127.905525921124
 30
0.0
 40
0.4
 50
210.00000000000099
 51
270.0
  0
ARC
  5
1495
  8
0
 10
101.5415805556564
 20
119.1055259211241
 30
0.0
 40
0.4
 50
90.000000000000028
 51
149.99999999999901
  0
ARC
  5
1496
  8
0
 10
102.8332901787909
 20
119.105525921124
 30
0.0
 40
0.4
 50
0.0
 51
89.999999999998593
  0
LINE
  5
1497
  8
0
 10
100.73329017879099
 20
118.5055259211241
 30
0.0
 11
101.19517039414259
 21
119.3055259211241
 31
0.0
  0
LINE
  5
1498
  8
0
 10
102.833290178791
 20
119.5055259211241
 30
0.0
 11
101.5415805556564
 21
119.5055259211241
 31
0.0
  0
LINE
  5
1499
  8
0
 10
102.8332901787909
 20
69.505525921124047
 30
0.0
 11
101.5415805556564
 21
69.505525921124104
 31
0.0
  0
LINE
  5
149A
  8
0
 10
100.73329017879099
 20
68.505525921124047
 30
0.0
 11
101.19517039414259
 21
69.305525921124044
 31
0.0
  0
ARC
  5
149B
  8
0
 10
102.8332901787909
 20
69.105525921124013
 30
0.0
 40
0.4
 50
0.0
 51
89.999999999998593
  0
ARC
  5
149C
  8
0
 10
101.5415805556564
 20
69.10552592112407
 30
0.0
 40
0.4
 50
90.000000000000028
 51
149.99999999999901
  0
LINE
  5
149D
  8
0
 10
100.73329017879099
 20
78.50552592112399
 30
0.0
 11
100.73329017879099
 21
68.50552592112399
 31
0.0
  0
LINE
  5
149E
  8
0
 10
95.846790178790954
 20
68.50552592112399
 30
0.0
 11
100.73329017879099
 21
68.50552592112399
 31
0.0
  0
LINE
  5
149F
  8
3
 10
95.233290178790966
 20
69.119025921124035
 30
0.0
 11
101.08749456893869
 21
69.119025921124035
 31
0.0
  0
ARC
  5
14A0
  8
0
 10
101.5415805556564
 20
77.905525921123967
 30
0.0
 40
0.4
 50
210.00000000000099
 51
270.0
  0
ARC
  5
14A1
  8
0
 10
102.8332901787909
 20
77.905525921124024
 30
0.0
 40
0.4
 50
270.00000000000142
 51
0.0
  0
LINE
  5
14A2
  8
0
 10
100.73329017879099
 20
78.50552592112399
 30
0.0
 11
101.19517039414259
 21
77.705525921123979
 31
0.0
  0
LINE
  5
14A3
  8
0
 10
102.8332901787909
 20
77.505525921123976
 30
0.0
 11
101.5415805556564
 21
77.505525921123976
 31
0.0
  0
LINE
  5
14A4
  8
0
 10
100.73329017879099
 20
78.50552592112399
 30
0.0
 11
95.846790178790954
 21
78.50552592112399
 31
0.0
  0
LINE
  5
14A5
  8
3
 10
95.233290178790966
 20
77.892025921124059
 30
0.0
 11
101.08749456893879
 21
77.892025921124059
 31
0.0
  0
LINE
  5
15D8
  8
0
 10
51.233290165590013
 20
127.2583026678039
 30
0.0
 11
51.233290165590013
 21
119.75274916833951
 31
0.0
  0
LINE
  5
15D9
  8
0
 10
51.233290165582723
 20
119.7527491744449
 30
0.0
 11
44.733290165589999
 21
115.9999724247109
 31
0.0
  0
LINE
  5
15DA
  8
0
 10
44.73329017087962
 20
115.9999724277704
 30
0.0
 11
38.233290170879627
 21
119.7527491775017
 31
0.0
  0
LINE
  5
15DB
  8
0
 10
38.233290176176517
 20
119.7527491744486
 30
0.0
 11
38.233290176176517
 21
127.25830267391299
 31
0.0
  0
LINE
  5
15DC
  8
0
 10
38.233290176176517
 20
127.25830266780299
 30
0.0
 11
44.733290176176517
 21
131.01107941753699
 31
0.0
  0
LINE
  5
15DD
  8
0
 10
44.73329017087962
 20
131.01107941447751
 30
0.0
 11
51.233290170879627
 21
127.2583026647462
 31
0.0
  0
ARC
  5
17E5
  8
0
 10
95.233290178790966
 20
123.505525921124
 30
0.0
 40
5.0
 50
156.5812350446366
 51
203.41876495536329
  0
LINE
  5
17E7
  8
0
 10
90.645167646496986
 20
125.4927681380307
 30
0.0
 11
90.645167646496986
 21
121.5182837042174
 31
0.0
  0
CIRCLE
  5
17E9
  8
0
 10
44.733290170879201
 20
123.505525921124
 30
0.0
 40
1.987242216906665
  0
LINE
  5
17EA
  8
0
 10
90.645167646496986
 20
75.492768138030712
 30
0.0
 11
90.645167646496986
 21
71.518283704217353
 31
0.0
  0
ARC
  5
17EB
  8
0
 10
95.233290178790966
 20
73.505525921124033
 30
0.0
 40
5.0
 50
156.5812350446366
 51
203.41876495536329
  0
LINE
  5
17EC
  8
0
 10
91.533290178791006
 20
71.005525921124033
 30
0.0
 11
95.233290178790966
 21
71.005525921124033
 31
0.0
  0
LINE
  5
17ED
  8
0
 10
90.645167646496972
 20
71.518283704217353
 30
0.0
 11
91.533290178791006
 21
71.005525921124033
 31
0.0
  0
LINE
  5
17EE
  8
0
 10
91.533290178791006
 20
76.005525921124033
 30
0.0
 11
91.533290178791006
 21
71.005525921124033
 31
0.0
  0
LINE
  5
17EF
  8
0
 10
95.233290178790966
 20
76.005525921124033
 30
0.0
 11
91.533290178791006
 21
76.005525921124033
 31
0.0
  0
LINE
  5
17F0
  8
0
 10
91.533290178791006
 20
76.005525921124033
 30
0.0
 11
90.645167646496972
 21
75.492768138030712
 31
0.0
  0
TEXT
  5
18A1
  8
0
 62
     3
 10
0.0
 20
0.0
 30
0.0
 40
5.0
  1
NDXNS10A-SUS
  7
STANDARD1
  0
ENDSEC
  0
EOF
