  0
SECTION
  2
HEADER
  9
$ACADVER
  1
AC1009
  9
$INSBASE
 10
0.0
 20
0.0
 30
0.0
  9
$EXTMIN
 10
0.0
 20
-1.4802182810368341
 30
0.0
  9
$EXTMAX
 10
206.43464041788889
 20
137.0267380848924
 30
0.0
  9
$LIMMIN
 10
0.0
 20
0.0
  9
$LIMMAX
 10
187.5
 20
135.0
  9
$ORTHOMODE
 70
     1
  9
$REGENMODE
 70
     1
  9
$FILLMODE
 70
     1
  9
$QTEXTMODE
 70
     0
  9
$MIRRTEXT
 70
     0
  9
$DRAGMODE
 70
     2
  9
$LTSCALE
 40
5.0
  9
$OSMODE
 70
  3071
  9
$ATTMODE
 70
     1
  9
$TEXTSIZE
 40
4.0
  9
$TRACEWID
 40
0.05
  9
$TEXTSTYLE
  7
STANDARD
  9
$CLAYER
  8
0
  9
$CELTYPE
  6
BYLAYER
  9
$CECOLOR
 62
   256
  9
$DIMSCALE
 40
0.5
  9
$DIMASZ
 40
3.0
  9
$DIMEXO
 40
2.0
  9
$DIMDLI
 40
0.38
  9
$DIMRND
 40
0.0
  9
$DIMDLE
 40
0.0
  9
$DIMEXE
 40
2.0
  9
$DIMTP
 40
0.0
  9
$DIMTM
 40
0.0
  9
$DIMTXT
 40
3.0
  9
$DIMCEN
 40
0.0
  9
$DIMTSZ
 40
0.0
  9
$DIMTOL
 70
     0
  9
$DIMLIM
 70
     0
  9
$DIMTIH
 70
     0
  9
$DIMTOH
 70
     0
  9
$DIMSE1
 70
     0
  9
$DIMSE2
 70
     0
  9
$DIMTAD
 70
     1
  9
$DIMZIN
 70
     0
  9
$DIMBLK
  1

  9
$DIMASO
 70
     0
  9
$DIMSHO
 70
     0
  9
$DIMPOST
  1

  9
$DIMAPOST
  1

  9
$DIMALT
 70
     0
  9
$DIMALTD
 70
     2
  9
$DIMALTF
 40
25.399999999999999
  9
$DIMLFAC
 40
1.0
  9
$DIMTOFL
 70
     0
  9
$DIMTVP
 40
1.6000000000000001
  9
$DIMTIX
 70
     1
  9
$DIMSOXD
 70
     0
  9
$DIMSAH
 70
     0
  9
$DIMBLK1
  1

  9
$DIMBLK2
  1

  9
$DIMSTYLE
  2
STANDARD
  9
$DIMCLRD
 70
     0
  9
$DIMCLRE
 70
     0
  9
$DIMCLRT
 70
     0
  9
$DIMTFAC
 40
1.0
  9
$DIMGAP
 40
0.09
  9
$LUNITS
 70
     2
  9
$LUPREC
 70
     4
  9
$SKETCHINC
 40
0.1
  9
$FILLETRAD
 40
1.0
  9
$AUNITS
 70
     0
  9
$AUPREC
 70
     0
  9
$MENU
  1
E:\r13\win\SUPPORT\ACAD
  9
$ELEVATION
 40
0.0
  9
$PELEVATION
 40
0.0
  9
$THICKNESS
 40
0.0
  9
$LIMCHECK
 70
     0
  9
$BLIPMODE
 70
     0
  9
$CHAMFERA
 40
0.0
  9
$CHAMFERB
 40
0.0
  9
$SKPOLY
 70
     0
  9
$TDCREATE
 40
2449840.6143865739
  9
$TDUPDATE
 40
2456597.689746852
  9
$TDINDWG
 40
0.2428626852
  9
$TDUSRTIMER
 40
0.2428626852
  9
$USRTIMER
 70
     1
  9
$ANGBASE
 50
0.0
  9
$ANGDIR
 70
     0
  9
$PDMODE
 70
     0
  9
$PDSIZE
 40
0.0
  9
$PLINEWID
 40
0.0
  9
$COORDS
 70
     1
  9
$SPLFRAME
 70
     0
  9
$SPLINETYPE
 70
     6
  9
$SPLINESEGS
 70
     8
  9
$ATTDIA
 70
     0
  9
$ATTREQ
 70
     1
  9
$HANDLING
 70
     1
  9
$HANDSEED
  5
227E
  9
$SURFTAB1
 70
     6
  9
$SURFTAB2
 70
     6
  9
$SURFTYPE
 70
     6
  9
$SURFU
 70
     6
  9
$SURFV
 70
     6
  9
$UCSNAME
  2

  9
$UCSORG
 10
0.0
 20
0.0
 30
0.0
  9
$UCSXDIR
 10
1.0
 20
0.0
 30
0.0
  9
$UCSYDIR
 10
0.0
 20
1.0
 30
0.0
  9
$PUCSNAME
  2

  9
$PUCSORG
 10
0.0
 20
0.0
 30
0.0
  9
$PUCSXDIR
 10
1.0
 20
0.0
 30
0.0
  9
$PUCSYDIR
 10
0.0
 20
1.0
 30
0.0
  9
$USERI1
 70
     0
  9
$USERI2
 70
     1
  9
$USERI3
 70
     1
  9
$USERI4
 70
     0
  9
$USERI5
 70
     0
  9
$USERR1
 40
0.0
  9
$USERR2
 40
0.0
  9
$USERR3
 40
0.0
  9
$USERR4
 40
0.0
  9
$USERR5
 40
0.0
  9
$WORLDVIEW
 70
     1
  9
$SHADEDGE
 70
     3
  9
$SHADEDIF
 70
    70
  9
$TILEMODE
 70
     1
  9
$MAXACTVP
 70
    16
  9
$PLIMCHECK
 70
     0
  9
$PEXTMIN
 10
1.0000000000000000E+020
 20
1.0000000000000000E+020
 30
1.0000000000000000E+020
  9
$PEXTMAX
 10
-1.0000000000000000E+020
 20
-1.0000000000000000E+020
 30
-1.0000000000000000E+020
  9
$PLIMMIN
 10
0.0
 20
0.0
  9
$PLIMMAX
 10
12.0
 20
9.0
  9
$UNITMODE
 70
     0
  9
$VISRETAIN
 70
     0
  9
$PLINEGEN
 70
     0
  9
$PSLTSCALE
 70
     0
  0
ENDSEC
  0
SECTION
  2
TABLES
  0
TABLE
  2
VPORT
 70
     1
  0
VPORT
  2
*ACTIVE
 70
     0
 10
0.0
 20
0.0
 11
1.0
 21
1.0
 12
103.2173206895875
 22
68.070981336301742
 13
0.0
 23
0.0
 14
5.0
 24
5.0
 15
5.0
 25
5.0
 16
0.0
 26
0.0
 36
1.0
 17
0.0
 27
0.0
 37
0.0
 40
140.71152912441269
 41
2.304913294797688
 42
50.0
 43
0.0
 44
0.0
 50
0.0
 51
0.0
 71
     0
 72
   100
 73
     1
 74
     0
 75
     0
 76
     0
 77
     0
 78
     0
  0
ENDTAB
  0
TABLE
  2
LTYPE
 70
     4
  0
LTYPE
  2
CONTINUOUS
 70
     0
  3
Solid Line
 72
    65
 73
     0
 40
0.0
  0
LTYPE
  2
CENTER
 70
     0
  3
____ _ ____ _ ____ _ ____ _ ____ _ ____ _ ____
 72
    65
 73
     4
 40
2.0
 49
1.25
 49
-0.25
 49
0.25
 49
-0.25
  0
LTYPE
  2
HIDDEN
 70
     0
  3
_ _ _ _ _ _ _ _ _ _ _ _ _ _ _ _ _ _ _ _ _ _ _
 72
    65
 73
     2
 40
0.375
 49
0.25
 49
-0.125
  0
LTYPE
  2
PHANTOM2
 70
     0
  3
___ _ _ ___ _ _ ___ _ _ ___ _ _
 72
    65
 73
     6
 40
1.25
 49
0.625
 49
-0.125
 49
0.125
 49
-0.125
 49
0.125
 49
-0.125
  0
ENDTAB
  0
TABLE
  2
LAYER
 70
     4
  0
LAYER
  2
0
 70
     0
 62
     7
  6
CONTINUOUS
  0
LAYER
  2
1
 70
     0
 62
     1
  6
CENTER
  0
LAYER
  2
3
 70
     0
 62
     3
  6
CONTINUOUS
  0
LAYER
  2
2
 70
     0
 62
     2
  6
HIDDEN
  0
ENDTAB
  0
TABLE
  2
STYLE
 70
     2
  0
STYLE
  2
STANDARD
 70
     0
 40
0.0
 41
1.0
 50
0.0
 71
     0
 42
4.0
  3
TXT
  4
BIGFONT
  0
STYLE
  2
STANDARD1
 70
     0
 40
0.0
 41
1.0
 50
0.0
 71
     0
 42
3.0
  3
txt
  4

  0
ENDTAB
  0
TABLE
  2
VIEW
 70
     1
  0
VIEW
  2
ALL
 70
     0
 40
179.66152299999999
 10
141.903918
 20
89.830760999999995
 41
0.0
 11
0.0
 21
0.0
 31
1.0
 12
0.0
 22
0.0
 32
0.0
 42
0.0
 43
0.0
 44
0.0
 50
0.0
 71
     0
  0
ENDTAB
  0
TABLE
  2
UCS
 70
     0
  0
ENDTAB
  0
TABLE
  2
APPID
 70
     4
  0
APPID
  2
ACAD
 70
     0
  0
APPID
  2
DCO15
 70
     0
  0
APPID
  2
ACAD_MLEADERVER
 70
     0
  0
APPID
  2
ACAD_NAV_VCDISPLAY
 70
     0
  0
ENDTAB
  0
TABLE
  2
DIMSTYLE
 70
     1
  0
DIMSTYLE
  2
STANDARD
 70
     0
  3

  4

  5

  6

  7

 40
1.0
 41
0.18
 42
0.0625
 43
0.38
 44
0.18
 45
0.0
 46
0.0
 47
0.0
 48
0.0
140
0.18
141
0.09
142
0.0
143
25.399999999999999
144
1.0
145
0.0
146
1.0
147
0.09
 71
     0
 72
     0
 73
     1
 74
     1
 75
     0
 76
     0
 77
     0
 78
     0
170
     0
171
     2
172
     0
173
     0
174
     0
175
     0
176
     0
177
     0
178
     0
  0
ENDTAB
  0
ENDSEC
  0
SECTION
  2
BLOCKS
  0
BLOCK
  8
0
  2
$MODEL_SPACE
 70
     0
 10
0.0
 20
0.0
 30
0.0
  3
$MODEL_SPACE
  1

  0
ENDBLK
  5
1BD
  8
0
  0
BLOCK
 67
     1
  8
0
  2
$PAPER_SPACE
 70
     0
 10
0.0
 20
0.0
 30
0.0
  3
$PAPER_SPACE
  1

  0
ENDBLK
  5
1BB
 67
     1
  8
0
  0
ENDSEC
  0
SECTION
  2
ENTITIES
  0
ARC
  5
17EE
  8
2
 10
149.10565423086979
 20
119.5122449913828
 30
0.0
 40
16.00000000000005
 50
142.53734892745391
 51
217.46265107254601
  0
ARC
  5
17EF
  8
0
 10
134.66531629320949
 20
130.0133329904094
 30
0.0
 40
2.0000000000000129
 50
29.521719295186291
 51
91.889977246716896
  0
ARC
  5
17F0
  8
0
 10
134.66531629320949
 20
109.01115699235631
 30
0.0
 40
2.0000000000000071
 50
268.11002275325859
 51
330.4782807048137
  0
LINE
  5
17F1
  8
0
 10
134.4249783555492
 20
107.0122449913829
 30
0.0
 11
134.5993556051875
 21
107.0122449913829
 31
0.0
  0
LINE
  5
17F2
  8
0
 10
134.5993556051875
 20
132.01224499138289
 30
0.0
 11
134.4249783555492
 21
132.01224499138289
 31
0.0
  0
LINE
  5
17F3
  8
0
 10
119.0592076214631
 20
112.5122449913829
 30
0.0
 11
127.4056542308698
 21
112.5122449913829
 31
0.0
  0
LINE
  5
17F4
  8
0
 10
127.4056542308698
 20
126.5122449913829
 30
0.0
 11
119.0592076214631
 21
126.5122449913829
 31
0.0
  0
LINE
  5
17F7
  8
0
 10
96.505654230869823
 20
116.5122449913829
 30
0.0
 11
100.7056542308698
 21
116.5122449913829
 31
0.0
  0
LINE
  5
17F8
  8
0
 10
100.7056542308698
 20
122.5122449913829
 30
0.0
 11
96.505654230869823
 21
122.5122449913829
 31
0.0
  0
LINE
  5
17F9
  8
0
 10
95.124579625671984
 20
117.30960878646481
 30
0.0
 11
96.505654230869823
 21
116.5122449913829
 31
0.0
  0
LINE
  5
17FA
  8
0
 10
96.505654230869823
 20
122.5122449913829
 30
0.0
 11
95.124579625671956
 21
121.71488119630089
 31
0.0
  0
LINE
  5
17FB
  8
0
 10
101.6256542308698
 20
113.5122449913829
 30
0.0
 11
106.9056542308698
 21
113.5122449913829
 31
0.0
  0
LINE
  5
17FC
  8
0
 10
106.9056542308698
 20
125.5122449913829
 30
0.0
 11
101.6256542308698
 21
125.5122449913829
 31
0.0
  0
LINE
  5
17FD
  8
0
 10
100.7056542308698
 20
114.4322449913828
 30
0.0
 11
101.6256542308698
 21
113.5122449913829
 31
0.0
  0
LINE
  5
17FE
  8
0
 10
101.6256542308698
 20
125.5122449913829
 30
0.0
 11
100.7056542308698
 21
124.5922449913828
 31
0.0
  0
LINE
  5
1801
  8
0
 10
136.4056542308698
 20
130.99883989689991
 30
0.0
 11
136.4056542308698
 21
108.02565008586581
 31
0.0
  0
LINE
  5
1802
  8
0
 10
134.4249783555492
 20
132.01224499138289
 30
0.0
 11
134.4249783555492
 21
107.0122449913829
 31
0.0
  0
LINE
  5
1803
  8
0
 10
134.5993556051875
 20
132.01224499138289
 30
0.0
 11
134.5993556051875
 21
107.0122449913829
 31
0.0
  0
LINE
  5
1804
  8
0
 10
127.4056542308698
 20
126.5122449913829
 30
0.0
 11
127.4056542308698
 21
112.5122449913829
 31
0.0
  0
LINE
  5
1806
  8
0
 10
96.505654230869823
 20
122.5122449913829
 30
0.0
 11
96.505654230869823
 21
116.5122449913829
 31
0.0
  0
LINE
  5
1808
  8
0
 10
101.6256542308698
 20
125.5122449913829
 30
0.0
 11
101.6256542308698
 21
113.5122449913829
 31
0.0
  0
LINE
  5
1809
  8
0
 10
100.7056542308698
 20
124.5922449913828
 30
0.0
 11
100.7056542308698
 21
114.4322449913828
 31
0.0
  0
LINE
  5
1816
  8
3
 10
100.7056542308698
 20
114.4322449913828
 30
0.0
 11
107.436816478523
 21
114.4322449913828
 31
0.0
  0
LINE
  5
1817
  8
3
 10
100.7056542308698
 20
124.5922449913829
 30
0.0
 11
107.43681647852419
 21
124.5922449913829
 31
0.0
  0
LINE
  5
1818
  8
1
 10
141.4056542308698
 20
119.5122449913829
 30
0.0
 11
89.705654230869811
 21
119.5122449913829
 31
0.0
  0
CIRCLE
  5
1820
  8
0
 10
42.191161137360211
 20
119.5122449913829
 30
0.0
 40
6.0
  0
CIRCLE
  5
1821
  8
0
 10
42.191161137360211
 20
119.5122449913829
 30
0.0
 40
3.0
  0
CIRCLE
  5
1822
  8
3
 10
42.191161137360211
 20
119.5122449913829
 30
0.0
 40
5.0799999999999983
  0
LINE
  5
1823
  8
1
 10
24.676668043850668
 20
119.5122449913829
 30
0.0
 11
59.705654230869811
 21
119.5122449913829
 31
0.0
  0
LINE
  5
1824
  8
1
 10
42.191161137360211
 20
101.9977518978733
 30
0.0
 11
42.191161137360211
 21
137.0267380848924
 31
0.0
  0
LINE
  5
190F
  8
1
 10
188.92014732437929
 20
101.9977518978733
 30
0.0
 11
188.92014732437929
 21
137.0267380848924
 31
0.0
  0
LINE
  5
1910
  8
1
 10
171.40565423086969
 20
119.5122449913829
 30
0.0
 11
206.43464041788889
 21
119.5122449913829
 31
0.0
  0
CIRCLE
  5
1911
  8
0
 10
188.92014732437929
 20
119.5122449913829
 30
0.0
 40
11.5
  0
CIRCLE
  5
1912
  8
0
 10
188.92014732437929
 20
119.5122449913829
 30
0.0
 40
9.7319062880814986
  0
LINE
  5
1913
  8
1
 10
141.4056542308698
 20
64.512244991382886
 30
0.0
 11
89.705654230869811
 21
64.512244991382886
 31
0.0
  0
LINE
  5
1914
  8
0
 10
100.7056542308698
 20
69.592244991382813
 30
0.0
 11
100.7056542308698
 21
59.432244991382852
 31
0.0
  0
LINE
  5
1915
  8
0
 10
101.6256542308698
 20
70.512244991382886
 30
0.0
 11
101.6256542308698
 21
58.512244991382893
 31
0.0
  0
LINE
  5
1918
  8
0
 10
119.0592076214631
 20
71.512244991382886
 30
0.0
 11
119.0592076214631
 21
57.512244991382879
 31
0.0
  0
LINE
  5
1919
  8
0
 10
127.4056542308698
 20
71.512244991382886
 30
0.0
 11
127.4056542308698
 21
57.512244991382879
 31
0.0
  0
LINE
  5
191A
  8
0
 10
101.6256542308698
 20
70.512244991382886
 30
0.0
 11
100.7056542308698
 21
69.592244991382813
 31
0.0
  0
LINE
  5
191B
  8
0
 10
100.7056542308698
 20
59.432244991382852
 30
0.0
 11
101.6256542308698
 21
58.512244991382893
 31
0.0
  0
LINE
  5
1920
  8
0
 10
119.0592076214631
 20
71.512244991382886
 30
0.0
 11
118.7056542308698
 21
71.158691600789552
 31
0.0
  0
LINE
  5
1921
  8
0
 10
118.7056542308698
 20
57.865798381976099
 30
0.0
 11
119.0592076214631
 21
57.512244991382879
 31
0.0
  0
LINE
  5
1922
  8
0
 10
127.4056542308698
 20
71.512244991382886
 30
0.0
 11
119.0592076214631
 21
71.512244991382886
 31
0.0
  0
LINE
  5
1923
  8
0
 10
119.0592076214631
 20
57.512244991382879
 30
0.0
 11
127.4056542308698
 21
57.512244991382879
 31
0.0
  0
LINE
  5
1924
  8
0
 10
118.7056542308698
 20
71.512244991382886
 30
0.0
 11
118.7056542308698
 21
57.512244991382879
 31
0.0
  0
POLYLINE
  5
1925
  8
0
 66
     1
 10
0.0
 20
0.0
 30
0.0
  0
VERTEX
  5
2176
  8
0
 10
118.0804394485305
 20
64.512244991382886
 30
0.0
  0
VERTEX
  5
2177
  8
0
 10
118.11546426249051
 20
64.405950792778242
 30
0.0
  0
VERTEX
  5
2178
  8
0
 10
118.18217602070879
 20
64.196082334436426
 30
0.0
  0
VERTEX
  5
2179
  8
0
 10
118.2445377318481
 20
63.989580143016731
 30
0.0
  0
VERTEX
  5
217A
  8
0
 10
118.2741219513774
 20
63.88749654420559
 30
0.0
  0
VERTEX
  5
217B
  8
0
 10
118.3026586534009
 20
63.786142031920292
 30
0.0
  0
VERTEX
  5
217C
  8
0
 10
118.3566357023075
 20
63.585476132289777
 30
0.0
  0
VERTEX
  5
217D
  8
0
 10
118.40655398135129
 20
63.38729948758413
 30
0.0
  0
VERTEX
  5
217E
  8
0
 10
118.4524872209067
 20
63.191336718730042
 30
0.0
  0
VERTEX
  5
217F
  8
0
 10
118.49449814081269
 20
62.997318746573391
 30
0.0
  0
VERTEX
  5
2180
  8
0
 10
118.5326387360937
 20
62.804981559157447
 30
0.0
  0
VERTEX
  5
2181
  8
0
 10
118.5502710315991
 20
62.709361845806761
 30
0.0
  0
VERTEX
  5
2182
  8
0
 10
118.5669504892638
 20
62.61406501195335
 30
0.0
  0
VERTEX
  5
2183
  8
0
 10
118.5974645110128
 20
62.424311649565311
 30
0.0
  0
VERTEX
  5
2184
  8
0
 10
118.62420161015601
 20
62.235465537645382
 30
0.0
  0
VERTEX
  5
2185
  8
0
 10
118.64717229282419
 20
62.047271093775862
 30
0.0
  0
VERTEX
  5
2186
  8
0
 10
118.66637668994809
 20
61.859471905916728
 30
0.0
  0
VERTEX
  5
2187
  8
0
 10
118.6818044111444
 20
61.671809526657341
 30
0.0
  0
VERTEX
  5
2188
  8
0
 10
118.6880958411991
 20
61.57794801413349
 30
0.0
  0
VERTEX
  5
2189
  8
0
 10
118.6934343221036
 20
61.48402223095087
 30
0.0
  0
VERTEX
  5
218A
  8
0
 10
118.701234241504
 20
61.295843724224419
 30
0.0
  0
VERTEX
  5
218B
  8
0
 10
118.7051605522967
 20
61.107001786726357
 30
0.0
  0
VERTEX
  5
218C
  8
0
 10
118.7056542308698
 20
61.012244991382893
 30
0.0
  0
SEQEND
  5
218D
  8
0
  0
POLYLINE
  5
1926
  8
0
 66
     1
 10
0.0
 20
0.0
 30
0.0
  0
VERTEX
  5
218E
  8
0
 10
118.7056542308698
 20
61.012244991382893
 30
0.0
  0
VERTEX
  5
218F
  8
0
 10
118.7051605522967
 20
60.917488196039407
 30
0.0
  0
VERTEX
  5
2190
  8
0
 10
118.701234241504
 20
60.728646258541339
 30
0.0
  0
VERTEX
  5
2191
  8
0
 10
118.6934343221036
 20
60.540467751814838
 30
0.0
  0
VERTEX
  5
2192
  8
0
 10
118.6880958411991
 20
60.446541968632232
 30
0.0
  0
VERTEX
  5
2193
  8
0
 10
118.6818044111444
 20
60.352680456108381
 30
0.0
  0
VERTEX
  5
2194
  8
0
 10
118.66637668994809
 20
60.16501807684898
 30
0.0
  0
VERTEX
  5
2195
  8
0
 10
118.64717229282419
 20
59.977218888989853
 30
0.0
  0
VERTEX
  5
2196
  8
0
 10
118.62420161015601
 20
59.78902444512039
 30
0.0
  0
VERTEX
  5
2197
  8
0
 10
118.5974645110128
 20
59.600178333200411
 30
0.0
  0
VERTEX
  5
2198
  8
0
 10
118.5669504892638
 20
59.410424970812358
 30
0.0
  0
VERTEX
  5
2199
  8
0
 10
118.5502710315991
 20
59.315128136958997
 30
0.0
  0
VERTEX
  5
219A
  8
0
 10
118.5326387360937
 20
59.219508423608261
 30
0.0
  0
VERTEX
  5
219B
  8
0
 10
118.49449814081269
 20
59.027171236192324
 30
0.0
  0
VERTEX
  5
219C
  8
0
 10
118.4524872209067
 20
58.833153264035673
 30
0.0
  0
VERTEX
  5
219D
  8
0
 10
118.40655398135129
 20
58.637190495181642
 30
0.0
  0
VERTEX
  5
219E
  8
0
 10
118.3566357023075
 20
58.439013850475931
 30
0.0
  0
VERTEX
  5
219F
  8
0
 10
118.3026586534009
 20
58.238347950845423
 30
0.0
  0
VERTEX
  5
21A0
  8
0
 10
118.2741219513774
 20
58.136993438560118
 30
0.0
  0
VERTEX
  5
21A1
  8
0
 10
118.2445377318481
 20
58.034909839749048
 30
0.0
  0
VERTEX
  5
21A2
  8
0
 10
118.18217602070879
 20
57.828407648329289
 30
0.0
  0
VERTEX
  5
21A3
  8
0
 10
118.11546426249051
 20
57.618539189987523
 30
0.0
  0
VERTEX
  5
21A4
  8
0
 10
118.0804394485305
 20
57.512244991382879
 30
0.0
  0
SEQEND
  5
21A5
  8
0
  0
LINE
  5
1927
  8
0
 10
110.7056542308698
 20
57.512244991382879
 30
0.0
 11
110.7056542308698
 21
71.512244991382886
 31
0.0
  0
LINE
  5
1928
  8
0
 10
118.7056542308698
 20
57.512244991382879
 30
0.0
 11
110.7056542308698
 21
57.512244991382879
 31
0.0
  0
POLYLINE
  5
1929
  8
0
 66
     1
 10
0.0
 20
0.0
 30
0.0
  0
VERTEX
  5
21A6
  8
0
 10
118.0804394485305
 20
64.512244991382886
 30
0.0
  0
VERTEX
  5
21A7
  8
0
 10
118.11546426249051
 20
64.61853918998753
 30
0.0
  0
VERTEX
  5
21A8
  8
0
 10
118.18217602070879
 20
64.828407648329275
 30
0.0
  0
VERTEX
  5
21A9
  8
0
 10
118.2445377318481
 20
65.034909839749048
 30
0.0
  0
VERTEX
  5
21AA
  8
0
 10
118.2741219513774
 20
65.136993438560125
 30
0.0
  0
VERTEX
  5
21AB
  8
0
 10
118.3026586534009
 20
65.238347950845423
 30
0.0
  0
VERTEX
  5
21AC
  8
0
 10
118.3566357023075
 20
65.439013850475931
 30
0.0
  0
VERTEX
  5
21AD
  8
0
 10
118.40655398135129
 20
65.637190495181642
 30
0.0
  0
VERTEX
  5
21AE
  8
0
 10
118.4524872209067
 20
65.83315326403573
 30
0.0
  0
VERTEX
  5
21AF
  8
0
 10
118.49449814081269
 20
66.027171236192316
 30
0.0
  0
VERTEX
  5
21B0
  8
0
 10
118.5326387360937
 20
66.219508423608261
 30
0.0
  0
VERTEX
  5
21B1
  8
0
 10
118.5502710315991
 20
66.315128136959004
 30
0.0
  0
VERTEX
  5
21B2
  8
0
 10
118.5669504892638
 20
66.410424970812358
 30
0.0
  0
VERTEX
  5
21B3
  8
0
 10
118.5974645110128
 20
66.600178333200404
 30
0.0
  0
VERTEX
  5
21B4
  8
0
 10
118.62420161015601
 20
66.78902444512039
 30
0.0
  0
VERTEX
  5
21B5
  8
0
 10
118.64717229282419
 20
66.977218888989853
 30
0.0
  0
VERTEX
  5
21B6
  8
0
 10
118.66637668994809
 20
67.16501807684898
 30
0.0
  0
VERTEX
  5
21B7
  8
0
 10
118.6818044111444
 20
67.352680456108374
 30
0.0
  0
VERTEX
  5
21B8
  8
0
 10
118.6880958411991
 20
67.446541968632232
 30
0.0
  0
VERTEX
  5
21B9
  8
0
 10
118.6934343221036
 20
67.540467751814845
 30
0.0
  0
VERTEX
  5
21BA
  8
0
 10
118.701234241504
 20
67.728646258541346
 30
0.0
  0
VERTEX
  5
21BB
  8
0
 10
118.7051605522967
 20
67.917488196039344
 30
0.0
  0
VERTEX
  5
21BC
  8
0
 10
118.7056542308698
 20
68.012244991382886
 30
0.0
  0
SEQEND
  5
21BD
  8
0
  0
POLYLINE
  5
192A
  8
0
 66
     1
 10
0.0
 20
0.0
 30
0.0
  0
VERTEX
  5
21BE
  8
0
 10
118.7056542308698
 20
68.012244991382886
 30
0.0
  0
VERTEX
  5
21BF
  8
0
 10
118.7051605522967
 20
68.107001786726357
 30
0.0
  0
VERTEX
  5
21C0
  8
0
 10
118.701234241504
 20
68.295843724224369
 30
0.0
  0
VERTEX
  5
21C1
  8
0
 10
118.6934343221036
 20
68.48402223095087
 30
0.0
  0
VERTEX
  5
21C2
  8
0
 10
118.6880958411991
 20
68.577948014133483
 30
0.0
  0
VERTEX
  5
21C3
  8
0
 10
118.6818044111444
 20
68.671809526657341
 30
0.0
  0
VERTEX
  5
21C4
  8
0
 10
118.66637668994809
 20
68.859471905916735
 30
0.0
  0
VERTEX
  5
21C5
  8
0
 10
118.64717229282419
 20
69.047271093775862
 30
0.0
  0
VERTEX
  5
21C6
  8
0
 10
118.62420161015601
 20
69.235465537645382
 30
0.0
  0
VERTEX
  5
21C7
  8
0
 10
118.5974645110128
 20
69.424311649565311
 30
0.0
  0
VERTEX
  5
21C8
  8
0
 10
118.5669504892638
 20
69.614065011953357
 30
0.0
  0
VERTEX
  5
21C9
  8
0
 10
118.5502710315991
 20
69.709361845806754
 30
0.0
  0
VERTEX
  5
21CA
  8
0
 10
118.5326387360937
 20
69.804981559157454
 30
0.0
  0
VERTEX
  5
21CB
  8
0
 10
118.49449814081269
 20
69.997318746573399
 30
0.0
  0
VERTEX
  5
21CC
  8
0
 10
118.4524872209067
 20
70.191336718730042
 30
0.0
  0
VERTEX
  5
21CD
  8
0
 10
118.40655398135129
 20
70.38729948758413
 30
0.0
  0
VERTEX
  5
21CE
  8
0
 10
118.3566357023075
 20
70.585476132289841
 30
0.0
  0
VERTEX
  5
21CF
  8
0
 10
118.3026586534009
 20
70.786142031920292
 30
0.0
  0
VERTEX
  5
21D0
  8
0
 10
118.2741219513774
 20
70.88749654420559
 30
0.0
  0
VERTEX
  5
21D1
  8
0
 10
118.2445377318481
 20
70.989580143016724
 30
0.0
  0
VERTEX
  5
21D2
  8
0
 10
118.18217602070879
 20
71.196082334436426
 30
0.0
  0
VERTEX
  5
21D3
  8
0
 10
118.11546426249051
 20
71.405950792778242
 30
0.0
  0
VERTEX
  5
21D4
  8
0
 10
118.0804394485305
 20
71.512244991382886
 30
0.0
  0
SEQEND
  5
21D5
  8
0
  0
LINE
  5
192B
  8
0
 10
118.7056542308698
 20
71.512244991382886
 30
0.0
 11
110.7056542308698
 21
71.512244991382886
 31
0.0
  0
LINE
  5
192C
  8
0
 10
118.0804394485305
 20
64.512244991382886
 30
0.0
 11
110.7056542308698
 21
64.512244991382886
 31
0.0
  0
CIRCLE
  5
192D
  8
0
 10
42.191161137360211
 20
119.5122449913829
 30
0.0
 40
12.5
  0
CIRCLE
  5
192E
  8
0
 10
188.92014732437929
 20
119.5122449913829
 30
0.0
 40
12.5
  0
LINE
  5
192F
  8
0
 10
134.4249783555492
 20
132.01224499138289
 30
0.0
 11
127.4056542308698
 21
126.5122449913829
 31
0.0
  0
LINE
  5
1930
  8
0
 10
134.4249783555492
 20
107.0122449913829
 30
0.0
 11
127.4056542308698
 21
112.5122449913829
 31
0.0
  0
LINE
  5
1931
  8
0
 10
134.4249783555492
 20
77.012244991382886
 30
0.0
 11
127.4056542308698
 21
71.512244991382886
 31
0.0
  0
LINE
  5
1932
  8
0
 10
134.5993556051875
 20
77.012244991382886
 30
0.0
 11
134.5993556051875
 21
52.012244991382879
 31
0.0
  0
LINE
  5
1933
  8
0
 10
134.4249783555492
 20
77.012244991382886
 30
0.0
 11
134.4249783555492
 21
52.012244991382879
 31
0.0
  0
LINE
  5
1934
  8
0
 10
136.4056542308698
 20
75.998839896899881
 30
0.0
 11
136.4056542308698
 21
53.025650085865827
 31
0.0
  0
LINE
  5
1935
  8
0
 10
134.5993556051875
 20
77.012244991382886
 30
0.0
 11
134.4249783555492
 21
77.012244991382886
 31
0.0
  0
ARC
  5
1936
  8
0
 10
134.66531629320949
 20
75.013332990409367
 30
0.0
 40
2.0000000000000129
 50
29.521719295186291
 51
91.889977246716896
  0
ARC
  5
1937
  8
2
 10
149.10565423086979
 20
64.512244991382829
 30
0.0
 40
16.00000000000005
 50
142.53734892745391
 51
217.46265107254601
  0
LINE
  5
1938
  8
0
 10
134.4249783555492
 20
52.012244991382879
 30
0.0
 11
127.4056542308698
 21
57.512244991382879
 31
0.0
  0
LINE
  5
1939
  8
0
 10
134.4249783555492
 20
52.012244991382879
 30
0.0
 11
134.5993556051875
 21
52.012244991382879
 31
0.0
  0
ARC
  5
193A
  8
0
 10
134.66531629320949
 20
54.011156992356291
 30
0.0
 40
2.0000000000000071
 50
268.11002275325859
 51
330.4782807048137
  0
LINE
  5
19A5
  8
0
 10
106.9056542308698
 20
125.5122449913826
 30
0.0
 11
106.9056542308698
 21
113.5122449913851
 31
0.0
  0
LINE
  5
19A6
  8
0
 10
106.9056542308698
 20
125.5122449913828
 30
0.0
 11
107.3675344462215
 21
124.7122449913828
 31
0.0
  0
LINE
  5
19A7
  8
0
 10
110.30565423086981
 20
124.5122449913828
 30
0.0
 11
107.7139446077353
 21
124.5122449913828
 31
0.0
  0
ARC
  5
19A8
  8
0
 10
110.30565423086981
 20
124.91224499138281
 30
0.0
 40
0.4
 50
270.0
 51
0.0
  0
ARC
  5
19A9
  8
0
 10
107.7139446077353
 20
124.91224499138281
 30
0.0
 40
0.4
 50
210.00000000000111
 51
270.0
  0
ARC
  5
19AA
  8
0
 10
107.7139446077353
 20
114.11224499138289
 30
0.0
 40
0.4
 50
90.0
 51
149.99999999999889
  0
ARC
  5
19AB
  8
0
 10
110.30565423086981
 20
114.11224499138289
 30
0.0
 40
0.4
 50
359.99999999999989
 51
90.0
  0
LINE
  5
19AC
  8
0
 10
110.30565423086981
 20
114.5122449913829
 30
0.0
 11
107.7139446077353
 21
114.5122449913829
 31
0.0
  0
LINE
  5
19AD
  8
0
 10
106.9056542308698
 20
113.5122449913829
 30
0.0
 11
107.3675344462215
 21
114.3122449913829
 31
0.0
  0
ARC
  5
19AE
  8
0
 10
107.7139446077353
 20
69.912244991382863
 30
0.0
 40
0.4
 50
210.00000000000111
 51
270.0
  0
ARC
  5
19AF
  8
0
 10
110.30565423086971
 20
69.912244991382863
 30
0.0
 40
0.4
 50
270.0
 51
0.0
  0
LINE
  5
19B0
  8
0
 10
110.30565423086971
 20
69.512244991382829
 30
0.0
 11
107.7139446077353
 21
69.512244991382829
 31
0.0
  0
LINE
  5
19B1
  8
0
 10
106.9056542308698
 20
70.512244991382772
 30
0.0
 11
107.3675344462215
 21
69.712244991382818
 31
0.0
  0
LINE
  5
19B2
  8
3
 10
100.7056542308698
 20
69.59224499138287
 30
0.0
 11
107.47394460773531
 21
69.59224499138287
 31
0.0
  0
LINE
  5
19B3
  8
0
 10
101.6256542308698
 20
70.512244991382886
 30
0.0
 11
100.7056542308698
 21
69.592244991382813
 31
0.0
  0
LINE
  5
19B4
  8
0
 10
106.9056542308698
 20
70.512244991382886
 30
0.0
 11
101.6256542308698
 21
70.512244991382886
 31
0.0
  0
LINE
  5
19B5
  8
0
 10
106.9056542308698
 20
58.512244991382943
 30
0.0
 11
107.3675344462215
 21
59.312244991382947
 31
0.0
  0
LINE
  5
19B6
  8
0
 10
110.30565423086971
 20
59.512244991382943
 30
0.0
 11
107.7139446077353
 21
59.512244991382943
 31
0.0
  0
ARC
  5
19B7
  8
0
 10
110.30565423086971
 20
59.112244991382909
 30
0.0
 40
0.4
 50
359.99999999999989
 51
90.0
  0
ARC
  5
19B8
  8
0
 10
107.7139446077353
 20
59.112244991382909
 30
0.0
 40
0.4
 50
90.0
 51
149.99999999999889
  0
LINE
  5
19B9
  8
3
 10
100.7056542308698
 20
59.432244991382852
 30
0.0
 11
107.47394460773521
 21
59.432244991382852
 31
0.0
  0
LINE
  5
19BA
  8
0
 10
100.7056542308698
 20
59.432244991382852
 30
0.0
 11
101.6256542308698
 21
58.512244991382893
 31
0.0
  0
LINE
  5
19BB
  8
0
 10
101.6256542308698
 20
58.512244991382893
 30
0.0
 11
106.9056542308698
 21
58.512244991382893
 31
0.0
  0
LINE
  5
19BC
  8
0
 10
106.9056542308698
 20
70.512244991380499
 30
0.0
 11
106.9056542308698
 21
58.512244991382943
 31
0.0
  0
LINE
  5
1ADD
  8
0
 10
49.191161131663591
 20
123.55369687242271
 30
0.0
 11
49.191161131663591
 21
115.4707931037683
 31
0.0
  0
LINE
  5
1ADE
  8
0
 10
49.191161131656322
 20
115.470793110343
 30
0.0
 11
42.191161131663591
 21
111.4293412260149
 31
0.0
  0
LINE
  5
1ADF
  8
0
 10
42.191161137360659
 20
111.4293412293091
 30
0.0
 11
35.191161137360673
 21
115.47079311363539
 31
0.0
  0
LINE
  5
1AE0
  8
0
 10
35.191161143057741
 20
115.47079311034661
 30
0.0
 11
35.191161143057741
 21
123.55369687900109
 31
0.0
  0
LINE
  5
1AE1
  8
0
 10
35.191161143057741
 20
123.5536968724218
 30
0.0
 11
42.191161143057741
 21
127.59514875674989
 31
0.0
  0
LINE
  5
1AE2
  8
0
 10
42.191161137360659
 20
127.5951487534557
 30
0.0
 11
49.191161137360659
 21
123.5536968691294
 31
0.0
  0
ARC
  5
1CE4
  8
0
 10
100.7056542308698
 20
119.5122449913829
 30
0.0
 40
6.0
 50
158.46275075362351
 51
201.53724924637689
  0
LINE
  5
1CE5
  8
0
 10
95.12457962567197
 20
121.71488119630089
 30
0.0
 11
95.124579625671984
 21
117.30960878646481
 31
0.0
  0
CIRCLE
  5
1CE7
  8
0
 10
42.191161137360233
 20
119.5122449913829
 30
0.0
 40
2.2026362049180359
  0
LINE
  5
1CE8
  8
0
 10
95.124579625671984
 20
66.714881196300993
 30
0.0
 11
95.124579625671998
 21
62.309608786464857
 31
0.0
  0
ARC
  5
1CE9
  8
0
 10
100.7056542308698
 20
64.512244991382943
 30
0.0
 40
6.0
 50
158.46275075362351
 51
201.53724924637689
  0
LINE
  5
1CEA
  8
0
 10
96.505654230869837
 20
67.512244991382943
 30
0.0
 11
96.505654230869837
 21
61.512244991382943
 31
0.0
  0
LINE
  5
1CEB
  8
0
 10
96.505654230869837
 20
67.512244991382943
 30
0.0
 11
95.12457962567197
 21
66.714881196300965
 31
0.0
  0
LINE
  5
1CEC
  8
0
 10
95.124579625671998
 20
62.309608786464857
 30
0.0
 11
96.505654230869837
 21
61.512244991382943
 31
0.0
  0
LINE
  5
1CED
  8
0
 10
100.7056542308698
 20
67.512244991382943
 30
0.0
 11
96.505654230869837
 21
67.512244991382943
 31
0.0
  0
LINE
  5
1CEE
  8
0
 10
96.505654230869837
 20
61.512244991382943
 30
0.0
 11
100.7056542308698
 21
61.512244991382943
 31
0.0
  0
LINE
  5
2054
  8
0
 10
119.0592076214631
 20
116.8122449913828
 30
0.0
 11
119.0592076214631
 21
112.5122449913829
 31
0.0
  0
LINE
  5
2055
  8
0
 10
118.7056542308698
 20
116.5122449913827
 30
0.0
 11
118.7056542308698
 21
112.5122449913829
 31
0.0
  0
LINE
  5
2056
  8
0
 10
112.00565423086969
 20
122.5122449913828
 30
0.0
 11
118.7056542308698
 21
122.5122449913828
 31
0.0
  0
LINE
  5
2057
  8
0
 10
119.059207621463
 20
122.2122449913828
 30
0.0
 11
112.7056542308698
 21
122.2122449913828
 31
0.0
  0
LINE
  5
2058
  8
0
 10
112.00565423086969
 20
116.5122449913828
 30
0.0
 11
112.00565423086969
 21
122.5122449913828
 31
0.0
  0
LINE
  5
2059
  8
0
 10
118.7056542308698
 20
116.5122449913828
 30
0.0
 11
112.00565423086969
 21
116.5122449913828
 31
0.0
  0
LINE
  5
205A
  8
0
 10
119.059207621463
 20
116.8122449913828
 30
0.0
 11
112.7056542308698
 21
116.8122449913828
 31
0.0
  0
LINE
  5
205B
  8
0
 10
112.70565423086801
 20
122.2122449913828
 30
0.0
 11
112.70565423086801
 21
116.8122449913828
 31
0.0
  0
LINE
  5
205C
  8
0
 10
118.0804394485305
 20
127.5951487600376
 30
0.0
 11
110.7056542308698
 21
127.5951487600376
 31
0.0
  0
LINE
  5
205D
  8
0
 10
118.0804394485305
 20
111.4293412227281
 30
0.0
 11
110.7056542308698
 21
111.4293412227281
 31
0.0
  0
LINE
  5
205E
  8
0
 10
110.7056542308698
 20
111.429341222728
 30
0.0
 11
110.7056542308698
 21
127.5951487600376
 31
0.0
  0
POLYLINE
  5
205F
  8
0
 66
     1
 10
0.0
 20
0.0
 30
0.0
  0
VERTEX
  5
21D6
  8
0
 10
118.7056542308698
 20
113.45006716489181
 30
0.0
  0
VERTEX
  5
21D7
  8
0
 10
118.7051605522967
 20
113.3953593035927
 30
0.0
  0
VERTEX
  5
21D8
  8
0
 10
118.701234241504
 20
113.2863313601439
 30
0.0
  0
VERTEX
  5
21D9
  8
0
 10
118.6934343221036
 20
113.1776864486296
 30
0.0
  0
VERTEX
  5
21DA
  8
0
 10
118.6880958411991
 20
113.1234583724253
 30
0.0
  0
VERTEX
  5
21DB
  8
0
 10
118.6818044111444
 20
113.06926740290309
 30
0.0
  0
VERTEX
  5
21DC
  8
0
 10
118.66637668994809
 20
112.9609204777209
 30
0.0
  0
VERTEX
  5
21DD
  8
0
 10
118.64717229282419
 20
112.85249456605681
 30
0.0
  0
VERTEX
  5
21DE
  8
0
 10
118.62420161015611
 20
112.7438404532288
 30
0.0
  0
VERTEX
  5
21DF
  8
0
 10
118.5974645110128
 20
112.6348100996764
 30
0.0
  0
VERTEX
  5
21E0
  8
0
 10
118.5669504892638
 20
112.52525594482211
 30
0.0
  0
VERTEX
  5
21E1
  8
0
 10
118.5502710315991
 20
112.47023629214389
 30
0.0
  0
VERTEX
  5
21E2
  8
0
 10
118.5326387360937
 20
112.415030224901
 30
0.0
  0
VERTEX
  5
21E3
  8
0
 10
118.49449814081269
 20
112.3039842979713
 30
0.0
  0
VERTEX
  5
21E4
  8
0
 10
118.4524872209067
 20
112.191967969519
 30
0.0
  0
VERTEX
  5
21E5
  8
0
 10
118.40655398135129
 20
112.0788288121699
 30
0.0
  0
VERTEX
  5
21E6
  8
0
 10
118.3566357023076
 20
111.9644114730021
 30
0.0
  0
VERTEX
  5
21E7
  8
0
 10
118.3026586534009
 20
111.8485569618332
 30
0.0
  0
VERTEX
  5
21E8
  8
0
 10
118.2741219513774
 20
111.7900399068817
 30
0.0
  0
VERTEX
  5
21E9
  8
0
 10
118.2445377318481
 20
111.73110191362819
 30
0.0
  0
VERTEX
  5
21EA
  8
0
 10
118.18217602070879
 20
111.6118778178238
 30
0.0
  0
VERTEX
  5
21EB
  8
0
 10
118.11546426249051
 20
111.4907102069057
 30
0.0
  0
VERTEX
  5
21EC
  8
0
 10
118.0804394485305
 20
111.4293412227281
 30
0.0
  0
SEQEND
  5
21ED
  8
0
  0
POLYLINE
  5
2060
  8
0
 66
     1
 10
0.0
 20
0.0
 30
0.0
  0
VERTEX
  5
21EE
  8
0
 10
118.0804394485305
 20
115.4707931070554
 30
0.0
  0
VERTEX
  5
21EF
  8
0
 10
118.11546426249051
 20
115.40942412287779
 30
0.0
  0
VERTEX
  5
21F0
  8
0
 10
118.18217602070879
 20
115.2882565119597
 30
0.0
  0
VERTEX
  5
21F1
  8
0
 10
118.2445377318481
 20
115.1690324161553
 30
0.0
  0
VERTEX
  5
21F2
  8
0
 10
118.2741219513774
 20
115.1100944229018
 30
0.0
  0
VERTEX
  5
21F3
  8
0
 10
118.3026586534009
 20
115.0515773679503
 30
0.0
  0
VERTEX
  5
21F4
  8
0
 10
118.3566357023075
 20
114.9357228567815
 30
0.0
  0
VERTEX
  5
21F5
  8
0
 10
118.40655398135129
 20
114.8213055176136
 30
0.0
  0
VERTEX
  5
21F6
  8
0
 10
118.4524872209067
 20
114.7081663602646
 30
0.0
  0
VERTEX
  5
21F7
  8
0
 10
118.49449814081269
 20
114.5961500318122
 30
0.0
  0
VERTEX
  5
21F8
  8
0
 10
118.5326387360937
 20
114.4851041048825
 30
0.0
  0
VERTEX
  5
21F9
  8
0
 10
118.5502710315991
 20
114.4298980376396
 30
0.0
  0
VERTEX
  5
21FA
  8
0
 10
118.5669504892638
 20
114.37487838496141
 30
0.0
  0
VERTEX
  5
21FB
  8
0
 10
118.5974645110128
 20
114.2653242301071
 30
0.0
  0
VERTEX
  5
21FC
  8
0
 10
118.62420161015611
 20
114.1562938765547
 30
0.0
  0
VERTEX
  5
21FD
  8
0
 10
118.64717229282419
 20
114.04763976372671
 30
0.0
  0
VERTEX
  5
21FE
  8
0
 10
118.66637668994809
 20
113.93921385206259
 30
0.0
  0
VERTEX
  5
21FF
  8
0
 10
118.6818044111444
 20
113.8308669268804
 30
0.0
  0
VERTEX
  5
2200
  8
0
 10
118.6880958411991
 20
113.77667595735829
 30
0.0
  0
VERTEX
  5
2201
  8
0
 10
118.6934343221036
 20
113.7224478811539
 30
0.0
  0
VERTEX
  5
2202
  8
0
 10
118.701234241504
 20
113.61380296963959
 30
0.0
  0
VERTEX
  5
2203
  8
0
 10
118.7051605522967
 20
113.5047750261909
 30
0.0
  0
VERTEX
  5
2204
  8
0
 10
118.7056542308698
 20
113.45006716489181
 30
0.0
  0
SEQEND
  5
2205
  8
0
  0
LINE
  5
2061
  8
0
 10
118.0804394485305
 20
115.4707931070554
 30
0.0
 11
110.7056542308698
 21
115.4707931070554
 31
0.0
  0
POLYLINE
  5
2062
  8
0
 66
     1
 10
0.0
 20
0.0
 30
0.0
  0
VERTEX
  5
2206
  8
0
 10
118.3499526356527
 20
116.5122449913828
 30
0.0
  0
VERTEX
  5
2207
  8
0
 10
118.3026586534009
 20
116.3092245852656
 30
0.0
  0
VERTEX
  5
2208
  8
0
 10
118.2741219513774
 20
116.19219047536269
 30
0.0
  0
VERTEX
  5
2209
  8
0
 10
118.2445377318481
 20
116.0743144888558
 30
0.0
  0
VERTEX
  5
220A
  8
0
 10
118.18217602070879
 20
115.83586629724699
 30
0.0
  0
VERTEX
  5
220B
  8
0
 10
118.11546426249051
 20
115.59353107541079
 30
0.0
  0
VERTEX
  5
220C
  8
0
 10
118.0804394485305
 20
115.4707931070554
 30
0.0
  0
SEQEND
  5
220D
  8
0
  0
POLYLINE
  5
2063
  8
0
 66
     1
 10
0.0
 20
0.0
 30
0.0
  0
VERTEX
  5
220E
  8
0
 10
118.0804394485305
 20
123.5536968757102
 30
0.0
  0
VERTEX
  5
220F
  8
0
 10
118.11546426249051
 20
123.43095890735481
 30
0.0
  0
VERTEX
  5
2210
  8
0
 10
118.18217602070879
 20
123.18862368551881
 30
0.0
  0
VERTEX
  5
2211
  8
0
 10
118.2445377318481
 20
122.9501754939099
 30
0.0
  0
VERTEX
  5
2212
  8
0
 10
118.2741219513774
 20
122.83229950740299
 30
0.0
  0
VERTEX
  5
2213
  8
0
 10
118.3026586534009
 20
122.7152653975
 30
0.0
  0
VERTEX
  5
2214
  8
0
 10
118.3499526356527
 20
122.5122449913828
 30
0.0
  0
SEQEND
  5
2215
  8
0
  0
LINE
  5
2064
  8
0
 10
118.0804394485305
 20
123.5536968757102
 30
0.0
 11
110.7056542308698
 21
123.5536968757102
 31
0.0
  0
POLYLINE
  5
2065
  8
0
 66
     1
 10
0.0
 20
0.0
 30
0.0
  0
VERTEX
  5
2216
  8
0
 10
118.7056542308698
 20
125.5744228178739
 30
0.0
  0
VERTEX
  5
2217
  8
0
 10
118.7051605522967
 20
125.5197149565748
 30
0.0
  0
VERTEX
  5
2218
  8
0
 10
118.701234241504
 20
125.41068701312599
 30
0.0
  0
VERTEX
  5
2219
  8
0
 10
118.6934343221036
 20
125.3020421016118
 30
0.0
  0
VERTEX
  5
221A
  8
0
 10
118.6880958411991
 20
125.24781402540749
 30
0.0
  0
VERTEX
  5
221B
  8
0
 10
118.6818044111444
 20
125.1936230558852
 30
0.0
  0
VERTEX
  5
221C
  8
0
 10
118.66637668994809
 20
125.08527613070309
 30
0.0
  0
VERTEX
  5
221D
  8
0
 10
118.64717229282419
 20
124.97685021903909
 30
0.0
  0
VERTEX
  5
221E
  8
0
 10
118.62420161015611
 20
124.868196106211
 30
0.0
  0
VERTEX
  5
221F
  8
0
 10
118.5974645110128
 20
124.7591657526586
 30
0.0
  0
VERTEX
  5
2220
  8
0
 10
118.5669504892638
 20
124.6496115978042
 30
0.0
  0
VERTEX
  5
2221
  8
0
 10
118.5502710315991
 20
124.594591945126
 30
0.0
  0
VERTEX
  5
2222
  8
0
 10
118.5326387360937
 20
124.53938587788321
 30
0.0
  0
VERTEX
  5
2223
  8
0
 10
118.49449814081269
 20
124.4283399509534
 30
0.0
  0
VERTEX
  5
2224
  8
0
 10
118.4524872209067
 20
124.3163236225011
 30
0.0
  0
VERTEX
  5
2225
  8
0
 10
118.40655398135129
 20
124.20318446515211
 30
0.0
  0
VERTEX
  5
2226
  8
0
 10
118.3566357023075
 20
124.08876712598421
 30
0.0
  0
VERTEX
  5
2227
  8
0
 10
118.3026586534009
 20
123.9729126148153
 30
0.0
  0
VERTEX
  5
2228
  8
0
 10
118.2741219513774
 20
123.91439555986381
 30
0.0
  0
VERTEX
  5
2229
  8
0
 10
118.2445377318481
 20
123.8554575666104
 30
0.0
  0
VERTEX
  5
222A
  8
0
 10
118.18217602070879
 20
123.736233470806
 30
0.0
  0
VERTEX
  5
222B
  8
0
 10
118.11546426249051
 20
123.61506585988791
 30
0.0
  0
VERTEX
  5
222C
  8
0
 10
118.0804394485305
 20
123.5536968757102
 30
0.0
  0
SEQEND
  5
222D
  8
0
  0
POLYLINE
  5
2066
  8
0
 66
     1
 10
0.0
 20
0.0
 30
0.0
  0
VERTEX
  5
222E
  8
0
 10
118.0804394485305
 20
127.5951487600376
 30
0.0
  0
VERTEX
  5
222F
  8
0
 10
118.11546426249051
 20
127.5337797758599
 30
0.0
  0
VERTEX
  5
2230
  8
0
 10
118.18217602070879
 20
127.4126121649419
 30
0.0
  0
VERTEX
  5
2231
  8
0
 10
118.2445377318481
 20
127.29338806913739
 30
0.0
  0
VERTEX
  5
2232
  8
0
 10
118.2741219513774
 20
127.234450075884
 30
0.0
  0
VERTEX
  5
2233
  8
0
 10
118.3026586534009
 20
127.1759330209325
 30
0.0
  0
VERTEX
  5
2234
  8
0
 10
118.3566357023076
 20
127.0600785097637
 30
0.0
  0
VERTEX
  5
2235
  8
0
 10
118.40655398135129
 20
126.9456611705957
 30
0.0
  0
VERTEX
  5
2236
  8
0
 10
118.4524872209067
 20
126.8325220132467
 30
0.0
  0
VERTEX
  5
2237
  8
0
 10
118.49449814081269
 20
126.7205056847944
 30
0.0
  0
VERTEX
  5
2238
  8
0
 10
118.5326387360937
 20
126.6094597578646
 30
0.0
  0
VERTEX
  5
2239
  8
0
 10
118.5502710315991
 20
126.55425369062181
 30
0.0
  0
VERTEX
  5
223A
  8
0
 10
118.5669504892638
 20
126.49923403794359
 30
0.0
  0
VERTEX
  5
223B
  8
0
 10
118.5974645110128
 20
126.3896798830892
 30
0.0
  0
VERTEX
  5
223C
  8
0
 10
118.62420161015611
 20
126.2806495295368
 30
0.0
  0
VERTEX
  5
223D
  8
0
 10
118.64717229282419
 20
126.1719954167088
 30
0.0
  0
VERTEX
  5
223E
  8
0
 10
118.66637668994809
 20
126.0635695050448
 30
0.0
  0
VERTEX
  5
223F
  8
0
 10
118.6818044111444
 20
125.95522257986261
 30
0.0
  0
VERTEX
  5
2240
  8
0
 10
118.6880958411991
 20
125.9010316103404
 30
0.0
  0
VERTEX
  5
2241
  8
0
 10
118.6934343221036
 20
125.846803534136
 30
0.0
  0
VERTEX
  5
2242
  8
0
 10
118.701234241504
 20
125.7381586226218
 30
0.0
  0
VERTEX
  5
2243
  8
0
 10
118.7051605522967
 20
125.629130679173
 30
0.0
  0
VERTEX
  5
2244
  8
0
 10
118.7056542308698
 20
125.5744228178739
 30
0.0
  0
SEQEND
  5
2245
  8
0
  0
LINE
  5
2067
  8
0
 10
118.7056542308698
 20
126.5122449913829
 30
0.0
 11
118.7056542308698
 21
122.5122449913828
 31
0.0
  0
LINE
  5
2068
  8
0
 10
119.0592076214631
 20
126.5122449913829
 30
0.0
 11
119.0592076214631
 21
122.2122449913828
 31
0.0
  0
LINE
  5
2069
  8
0
 10
118.7056542308698
 20
126.5122449913829
 30
0.0
 11
118.0804394485305
 21
127.5951487600376
 31
0.0
  0
LINE
  5
206A
  8
0
 10
118.0804394485305
 20
111.4293412227281
 30
0.0
 11
118.7056542308698
 21
112.5122449913829
 31
0.0
  0
LINE
  5
206B
  8
0
 10
119.0592076214631
 20
126.5122449913829
 30
0.0
 11
118.7056542308698
 21
126.1586916007895
 31
0.0
  0
LINE
  5
206C
  8
0
 10
118.7056542308698
 20
112.86579838197611
 30
0.0
 11
119.0592076214631
 21
112.5122449913829
 31
0.0
  0
TEXT
  5
211D
  8
0
 62
     3
 10
0.0
 20
0.0
 30
0.0
 40
5.0
  1
NDXNS12L
  7
STANDARD1
  0
ENDSEC
  0
EOF
