  0
SECTION
  2
HEADER
  9
$ACADVER
  1
AC1009
  9
$INSBASE
 10
0.0
 20
0.0
 30
0.0
  9
$EXTMIN
 10
0.0
 20
-1.4802182810368341
 30
0.0
  9
$EXTMAX
 10
206.43464041788889
 20
137.0267380848924
 30
0.0
  9
$LIMMIN
 10
0.0
 20
0.0
  9
$LIMMAX
 10
187.5
 20
135.0
  9
$ORTHOMODE
 70
     1
  9
$REGENMODE
 70
     1
  9
$FILLMODE
 70
     1
  9
$QTEXTMODE
 70
     0
  9
$MIRRTEXT
 70
     0
  9
$DRAGMODE
 70
     2
  9
$LTSCALE
 40
5.0
  9
$OSMODE
 70
  3071
  9
$ATTMODE
 70
     1
  9
$TEXTSIZE
 40
4.0
  9
$TRACEWID
 40
0.05
  9
$TEXTSTYLE
  7
STANDARD
  9
$CLAYER
  8
0
  9
$CELTYPE
  6
BYLAYER
  9
$CECOLOR
 62
   256
  9
$DIMSCALE
 40
0.5
  9
$DIMASZ
 40
3.0
  9
$DIMEXO
 40
2.0
  9
$DIMDLI
 40
0.38
  9
$DIMRND
 40
0.0
  9
$DIMDLE
 40
0.0
  9
$DIMEXE
 40
2.0
  9
$DIMTP
 40
0.0
  9
$DIMTM
 40
0.0
  9
$DIMTXT
 40
3.0
  9
$DIMCEN
 40
0.0
  9
$DIMTSZ
 40
0.0
  9
$DIMTOL
 70
     0
  9
$DIMLIM
 70
     0
  9
$DIMTIH
 70
     0
  9
$DIMTOH
 70
     0
  9
$DIMSE1
 70
     0
  9
$DIMSE2
 70
     0
  9
$DIMTAD
 70
     1
  9
$DIMZIN
 70
     0
  9
$DIMBLK
  1

  9
$DIMASO
 70
     0
  9
$DIMSHO
 70
     0
  9
$DIMPOST
  1

  9
$DIMAPOST
  1

  9
$DIMALT
 70
     0
  9
$DIMALTD
 70
     2
  9
$DIMALTF
 40
25.399999999999999
  9
$DIMLFAC
 40
1.0
  9
$DIMTOFL
 70
     0
  9
$DIMTVP
 40
1.6000000000000001
  9
$DIMTIX
 70
     1
  9
$DIMSOXD
 70
     0
  9
$DIMSAH
 70
     0
  9
$DIMBLK1
  1

  9
$DIMBLK2
  1

  9
$DIMSTYLE
  2
STANDARD
  9
$DIMCLRD
 70
     0
  9
$DIMCLRE
 70
     0
  9
$DIMCLRT
 70
     0
  9
$DIMTFAC
 40
1.0
  9
$DIMGAP
 40
0.09
  9
$LUNITS
 70
     2
  9
$LUPREC
 70
     4
  9
$SKETCHINC
 40
0.1
  9
$FILLETRAD
 40
1.0
  9
$AUNITS
 70
     0
  9
$AUPREC
 70
     0
  9
$MENU
  1
E:\r13\win\SUPPORT\ACAD
  9
$ELEVATION
 40
0.0
  9
$PELEVATION
 40
0.0
  9
$THICKNESS
 40
0.0
  9
$LIMCHECK
 70
     0
  9
$BLIPMODE
 70
     0
  9
$CHAMFERA
 40
0.0
  9
$CHAMFERB
 40
0.0
  9
$SKPOLY
 70
     0
  9
$TDCREATE
 40
2449840.6143865739
  9
$TDUPDATE
 40
2456597.689754433
  9
$TDINDWG
 40
0.2448404051
  9
$TDUSRTIMER
 40
0.2448404051
  9
$USRTIMER
 70
     1
  9
$ANGBASE
 50
0.0
  9
$ANGDIR
 70
     0
  9
$PDMODE
 70
     0
  9
$PDSIZE
 40
0.0
  9
$PLINEWID
 40
0.0
  9
$COORDS
 70
     1
  9
$SPLFRAME
 70
     0
  9
$SPLINETYPE
 70
     6
  9
$SPLINESEGS
 70
     8
  9
$ATTDIA
 70
     0
  9
$ATTREQ
 70
     1
  9
$HANDLING
 70
     1
  9
$HANDSEED
  5
24B6
  9
$SURFTAB1
 70
     6
  9
$SURFTAB2
 70
     6
  9
$SURFTYPE
 70
     6
  9
$SURFU
 70
     6
  9
$SURFV
 70
     6
  9
$UCSNAME
  2

  9
$UCSORG
 10
0.0
 20
0.0
 30
0.0
  9
$UCSXDIR
 10
1.0
 20
0.0
 30
0.0
  9
$UCSYDIR
 10
0.0
 20
1.0
 30
0.0
  9
$PUCSNAME
  2

  9
$PUCSORG
 10
0.0
 20
0.0
 30
0.0
  9
$PUCSXDIR
 10
1.0
 20
0.0
 30
0.0
  9
$PUCSYDIR
 10
0.0
 20
1.0
 30
0.0
  9
$USERI1
 70
     0
  9
$USERI2
 70
     1
  9
$USERI3
 70
     1
  9
$USERI4
 70
     0
  9
$USERI5
 70
     0
  9
$USERR1
 40
0.0
  9
$USERR2
 40
0.0
  9
$USERR3
 40
0.0
  9
$USERR4
 40
0.0
  9
$USERR5
 40
0.0
  9
$WORLDVIEW
 70
     1
  9
$SHADEDGE
 70
     3
  9
$SHADEDIF
 70
    70
  9
$TILEMODE
 70
     1
  9
$MAXACTVP
 70
    16
  9
$PLIMCHECK
 70
     0
  9
$PEXTMIN
 10
1.0000000000000000E+020
 20
1.0000000000000000E+020
 30
1.0000000000000000E+020
  9
$PEXTMAX
 10
-1.0000000000000000E+020
 20
-1.0000000000000000E+020
 30
-1.0000000000000000E+020
  9
$PLIMMIN
 10
0.0
 20
0.0
  9
$PLIMMAX
 10
12.0
 20
9.0
  9
$UNITMODE
 70
     0
  9
$VISRETAIN
 70
     0
  9
$PLINEGEN
 70
     0
  9
$PSLTSCALE
 70
     0
  0
ENDSEC
  0
SECTION
  2
TABLES
  0
TABLE
  2
VPORT
 70
     1
  0
VPORT
  2
*ACTIVE
 70
     0
 10
0.0
 20
0.0
 11
1.0
 21
1.0
 12
103.2173206895875
 22
68.070981336301742
 13
0.0
 23
0.0
 14
5.0
 24
5.0
 15
5.0
 25
5.0
 16
0.0
 26
0.0
 36
1.0
 17
0.0
 27
0.0
 37
0.0
 40
140.71152912441269
 41
2.304913294797688
 42
50.0
 43
0.0
 44
0.0
 50
0.0
 51
0.0
 71
     0
 72
   100
 73
     1
 74
     0
 75
     0
 76
     0
 77
     0
 78
     0
  0
ENDTAB
  0
TABLE
  2
LTYPE
 70
     4
  0
LTYPE
  2
CONTINUOUS
 70
     0
  3
Solid Line
 72
    65
 73
     0
 40
0.0
  0
LTYPE
  2
CENTER
 70
     0
  3
____ _ ____ _ ____ _ ____ _ ____ _ ____ _ ____
 72
    65
 73
     4
 40
2.0
 49
1.25
 49
-0.25
 49
0.25
 49
-0.25
  0
LTYPE
  2
HIDDEN
 70
     0
  3
_ _ _ _ _ _ _ _ _ _ _ _ _ _ _ _ _ _ _ _ _ _ _
 72
    65
 73
     2
 40
0.375
 49
0.25
 49
-0.125
  0
LTYPE
  2
PHANTOM2
 70
     0
  3
___ _ _ ___ _ _ ___ _ _ ___ _ _
 72
    65
 73
     6
 40
1.25
 49
0.625
 49
-0.125
 49
0.125
 49
-0.125
 49
0.125
 49
-0.125
  0
ENDTAB
  0
TABLE
  2
LAYER
 70
     4
  0
LAYER
  2
0
 70
     0
 62
     7
  6
CONTINUOUS
  0
LAYER
  2
1
 70
     0
 62
     1
  6
CENTER
  0
LAYER
  2
3
 70
     0
 62
     3
  6
CONTINUOUS
  0
LAYER
  2
2
 70
     0
 62
     2
  6
HIDDEN
  0
ENDTAB
  0
TABLE
  2
STYLE
 70
     2
  0
STYLE
  2
STANDARD
 70
     0
 40
0.0
 41
1.0
 50
0.0
 71
     0
 42
4.0
  3
TXT
  4
BIGFONT
  0
STYLE
  2
STANDARD1
 70
     0
 40
0.0
 41
1.0
 50
0.0
 71
     0
 42
3.0
  3
txt
  4

  0
ENDTAB
  0
TABLE
  2
VIEW
 70
     1
  0
VIEW
  2
ALL
 70
     0
 40
179.66152299999999
 10
141.903918
 20
89.830760999999995
 41
0.0
 11
0.0
 21
0.0
 31
1.0
 12
0.0
 22
0.0
 32
0.0
 42
0.0
 43
0.0
 44
0.0
 50
0.0
 71
     0
  0
ENDTAB
  0
TABLE
  2
UCS
 70
     0
  0
ENDTAB
  0
TABLE
  2
APPID
 70
     4
  0
APPID
  2
ACAD
 70
     0
  0
APPID
  2
DCO15
 70
     0
  0
APPID
  2
ACAD_MLEADERVER
 70
     0
  0
APPID
  2
ACAD_NAV_VCDISPLAY
 70
     0
  0
ENDTAB
  0
TABLE
  2
DIMSTYLE
 70
     1
  0
DIMSTYLE
  2
STANDARD
 70
     0
  3

  4

  5

  6

  7

 40
1.0
 41
0.18
 42
0.0625
 43
0.38
 44
0.18
 45
0.0
 46
0.0
 47
0.0
 48
0.0
140
0.18
141
0.09
142
0.0
143
25.399999999999999
144
1.0
145
0.0
146
1.0
147
0.09
 71
     0
 72
     0
 73
     1
 74
     1
 75
     0
 76
     0
 77
     0
 78
     0
170
     0
171
     2
172
     0
173
     0
174
     0
175
     0
176
     0
177
     0
178
     0
  0
ENDTAB
  0
ENDSEC
  0
SECTION
  2
BLOCKS
  0
BLOCK
  8
0
  2
$MODEL_SPACE
 70
     0
 10
0.0
 20
0.0
 30
0.0
  3
$MODEL_SPACE
  1

  0
ENDBLK
  5
1BD
  8
0
  0
BLOCK
 67
     1
  8
0
  2
$PAPER_SPACE
 70
     0
 10
0.0
 20
0.0
 30
0.0
  3
$PAPER_SPACE
  1

  0
ENDBLK
  5
1BB
 67
     1
  8
0
  0
ENDSEC
  0
SECTION
  2
ENTITIES
  0
ARC
  5
17EE
  8
2
 10
149.10565423086979
 20
119.5122449913828
 30
0.0
 40
16.00000000000005
 50
142.53734892745391
 51
217.46265107254601
  0
ARC
  5
17EF
  8
0
 10
134.66531629320949
 20
130.0133329904094
 30
0.0
 40
2.0000000000000129
 50
29.521719295186291
 51
91.889977246716896
  0
ARC
  5
17F0
  8
0
 10
134.66531629320949
 20
109.01115699235631
 30
0.0
 40
2.0000000000000071
 50
268.11002275325859
 51
330.4782807048137
  0
LINE
  5
17F1
  8
0
 10
134.4249783555492
 20
107.0122449913829
 30
0.0
 11
134.5993556051875
 21
107.0122449913829
 31
0.0
  0
LINE
  5
17F2
  8
0
 10
134.5993556051875
 20
132.01224499138289
 30
0.0
 11
134.4249783555492
 21
132.01224499138289
 31
0.0
  0
LINE
  5
17F3
  8
0
 10
119.0592076214631
 20
112.5122449913829
 30
0.0
 11
127.4056542308698
 21
112.5122449913829
 31
0.0
  0
LINE
  5
17F4
  8
0
 10
127.4056542308698
 20
126.5122449913829
 30
0.0
 11
119.0592076214631
 21
126.5122449913829
 31
0.0
  0
LINE
  5
17F7
  8
0
 10
96.505654230869823
 20
116.5122449913829
 30
0.0
 11
100.7056542308698
 21
116.5122449913829
 31
0.0
  0
LINE
  5
17F8
  8
0
 10
100.7056542308698
 20
122.5122449913829
 30
0.0
 11
96.505654230869823
 21
122.5122449913829
 31
0.0
  0
LINE
  5
17F9
  8
0
 10
95.124579625671984
 20
117.30960878646481
 30
0.0
 11
96.505654230869823
 21
116.5122449913829
 31
0.0
  0
LINE
  5
17FA
  8
0
 10
96.505654230869823
 20
122.5122449913829
 30
0.0
 11
95.124579625671956
 21
121.71488119630089
 31
0.0
  0
LINE
  5
17FB
  8
0
 10
101.6256542308698
 20
113.5122449913829
 30
0.0
 11
102.7056542308698
 21
113.5122449913829
 31
0.0
  0
LINE
  5
17FC
  8
0
 10
102.7056542308698
 20
125.5122449913829
 30
0.0
 11
101.6256542308698
 21
125.5122449913829
 31
0.0
  0
LINE
  5
17FD
  8
0
 10
100.7056542308698
 20
114.4322449913828
 30
0.0
 11
101.6256542308698
 21
113.5122449913829
 31
0.0
  0
LINE
  5
17FE
  8
0
 10
101.6256542308698
 20
125.5122449913829
 30
0.0
 11
100.7056542308698
 21
124.5922449913828
 31
0.0
  0
LINE
  5
1801
  8
0
 10
136.4056542308698
 20
130.99883989689991
 30
0.0
 11
136.4056542308698
 21
108.02565008586581
 31
0.0
  0
LINE
  5
1802
  8
0
 10
134.4249783555492
 20
132.01224499138289
 30
0.0
 11
134.4249783555492
 21
107.0122449913829
 31
0.0
  0
LINE
  5
1803
  8
0
 10
134.5993556051875
 20
132.01224499138289
 30
0.0
 11
134.5993556051875
 21
107.0122449913829
 31
0.0
  0
LINE
  5
1804
  8
0
 10
127.4056542308698
 20
126.5122449913829
 30
0.0
 11
127.4056542308698
 21
112.5122449913829
 31
0.0
  0
LINE
  5
1806
  8
0
 10
96.505654230869823
 20
122.5122449913829
 30
0.0
 11
96.505654230869823
 21
116.5122449913829
 31
0.0
  0
LINE
  5
1808
  8
0
 10
101.6256542308698
 20
125.5122449913829
 30
0.0
 11
101.6256542308698
 21
113.5122449913829
 31
0.0
  0
LINE
  5
1809
  8
0
 10
100.7056542308698
 20
124.5922449913828
 30
0.0
 11
100.7056542308698
 21
114.4322449913828
 31
0.0
  0
LINE
  5
1816
  8
3
 10
100.7056542308698
 20
114.4322449913828
 30
0.0
 11
102.7056542308698
 21
114.4322449913828
 31
0.0
  0
LINE
  5
1817
  8
3
 10
100.7056542308698
 20
124.5922449913829
 30
0.0
 11
102.7056542308698
 21
124.5922449913829
 31
0.0
  0
LINE
  5
1818
  8
1
 10
141.4056542308698
 20
119.5122449913829
 30
0.0
 11
89.705654230869811
 21
119.5122449913829
 31
0.0
  0
CIRCLE
  5
1820
  8
0
 10
42.191161137360211
 20
119.5122449913829
 30
0.0
 40
6.0
  0
CIRCLE
  5
1821
  8
0
 10
42.191161137360211
 20
119.5122449913829
 30
0.0
 40
3.0
  0
CIRCLE
  5
1822
  8
3
 10
42.191161137360211
 20
119.5122449913829
 30
0.0
 40
5.0799999999999983
  0
LINE
  5
1823
  8
1
 10
24.676668043850668
 20
119.5122449913829
 30
0.0
 11
59.705654230869811
 21
119.5122449913829
 31
0.0
  0
LINE
  5
1824
  8
1
 10
42.191161137360211
 20
101.9977518978733
 30
0.0
 11
42.191161137360211
 21
137.0267380848924
 31
0.0
  0
LINE
  5
190F
  8
1
 10
188.92014732437929
 20
101.9977518978733
 30
0.0
 11
188.92014732437929
 21
137.0267380848924
 31
0.0
  0
LINE
  5
1910
  8
1
 10
171.40565423086969
 20
119.5122449913829
 30
0.0
 11
206.43464041788889
 21
119.5122449913829
 31
0.0
  0
CIRCLE
  5
1911
  8
0
 10
188.92014732437929
 20
119.5122449913829
 30
0.0
 40
11.5
  0
CIRCLE
  5
1912
  8
0
 10
188.92014732437929
 20
119.5122449913829
 30
0.0
 40
9.7319062880814986
  0
LINE
  5
1913
  8
1
 10
141.4056542308698
 20
64.512244991382886
 30
0.0
 11
89.705654230869811
 21
64.512244991382886
 31
0.0
  0
LINE
  5
1914
  8
0
 10
100.7056542308698
 20
69.592244991382813
 30
0.0
 11
100.7056542308698
 21
59.432244991382852
 31
0.0
  0
LINE
  5
1915
  8
0
 10
101.6256542308698
 20
70.512244991382886
 30
0.0
 11
101.6256542308698
 21
58.512244991382893
 31
0.0
  0
LINE
  5
1918
  8
0
 10
119.0592076214631
 20
71.512244991382886
 30
0.0
 11
119.0592076214631
 21
57.512244991382879
 31
0.0
  0
LINE
  5
1919
  8
0
 10
127.4056542308698
 20
71.512244991382886
 30
0.0
 11
127.4056542308698
 21
57.512244991382879
 31
0.0
  0
LINE
  5
191A
  8
0
 10
101.6256542308698
 20
70.512244991382886
 30
0.0
 11
100.7056542308698
 21
69.592244991382813
 31
0.0
  0
LINE
  5
191B
  8
0
 10
100.7056542308698
 20
59.432244991382852
 30
0.0
 11
101.6256542308698
 21
58.512244991382893
 31
0.0
  0
LINE
  5
1920
  8
0
 10
119.0592076214631
 20
71.512244991382886
 30
0.0
 11
118.7056542308698
 21
71.158691600789552
 31
0.0
  0
LINE
  5
1921
  8
0
 10
118.7056542308698
 20
57.865798381976099
 30
0.0
 11
119.0592076214631
 21
57.512244991382879
 31
0.0
  0
LINE
  5
1922
  8
0
 10
127.4056542308698
 20
71.512244991382886
 30
0.0
 11
119.0592076214631
 21
71.512244991382886
 31
0.0
  0
LINE
  5
1923
  8
0
 10
119.0592076214631
 20
57.512244991382879
 30
0.0
 11
127.4056542308698
 21
57.512244991382879
 31
0.0
  0
LINE
  5
1924
  8
0
 10
118.7056542308698
 20
71.512244991382886
 30
0.0
 11
118.7056542308698
 21
57.512244991382879
 31
0.0
  0
POLYLINE
  5
1925
  8
0
 66
     1
 10
0.0
 20
0.0
 30
0.0
  0
VERTEX
  5
228E
  8
0
 10
118.0804394485305
 20
64.512244991382886
 30
0.0
  0
VERTEX
  5
228F
  8
0
 10
118.11546426249051
 20
64.405950792778242
 30
0.0
  0
VERTEX
  5
2290
  8
0
 10
118.18217602070879
 20
64.196082334436426
 30
0.0
  0
VERTEX
  5
2291
  8
0
 10
118.2445377318481
 20
63.989580143016731
 30
0.0
  0
VERTEX
  5
2292
  8
0
 10
118.2741219513774
 20
63.88749654420559
 30
0.0
  0
VERTEX
  5
2293
  8
0
 10
118.3026586534009
 20
63.786142031920292
 30
0.0
  0
VERTEX
  5
2294
  8
0
 10
118.3566357023075
 20
63.585476132289777
 30
0.0
  0
VERTEX
  5
2295
  8
0
 10
118.40655398135129
 20
63.38729948758413
 30
0.0
  0
VERTEX
  5
2296
  8
0
 10
118.4524872209067
 20
63.191336718730042
 30
0.0
  0
VERTEX
  5
2297
  8
0
 10
118.49449814081269
 20
62.997318746573391
 30
0.0
  0
VERTEX
  5
2298
  8
0
 10
118.5326387360937
 20
62.804981559157447
 30
0.0
  0
VERTEX
  5
2299
  8
0
 10
118.5502710315991
 20
62.709361845806761
 30
0.0
  0
VERTEX
  5
229A
  8
0
 10
118.5669504892638
 20
62.61406501195335
 30
0.0
  0
VERTEX
  5
229B
  8
0
 10
118.5974645110128
 20
62.424311649565311
 30
0.0
  0
VERTEX
  5
229C
  8
0
 10
118.62420161015601
 20
62.235465537645382
 30
0.0
  0
VERTEX
  5
229D
  8
0
 10
118.64717229282419
 20
62.047271093775862
 30
0.0
  0
VERTEX
  5
229E
  8
0
 10
118.66637668994809
 20
61.859471905916728
 30
0.0
  0
VERTEX
  5
229F
  8
0
 10
118.6818044111444
 20
61.671809526657341
 30
0.0
  0
VERTEX
  5
22A0
  8
0
 10
118.6880958411991
 20
61.57794801413349
 30
0.0
  0
VERTEX
  5
22A1
  8
0
 10
118.6934343221036
 20
61.48402223095087
 30
0.0
  0
VERTEX
  5
22A2
  8
0
 10
118.701234241504
 20
61.295843724224419
 30
0.0
  0
VERTEX
  5
22A3
  8
0
 10
118.7051605522967
 20
61.107001786726357
 30
0.0
  0
VERTEX
  5
22A4
  8
0
 10
118.7056542308698
 20
61.012244991382893
 30
0.0
  0
SEQEND
  5
22A5
  8
0
  0
POLYLINE
  5
1926
  8
0
 66
     1
 10
0.0
 20
0.0
 30
0.0
  0
VERTEX
  5
22A6
  8
0
 10
118.7056542308698
 20
61.012244991382893
 30
0.0
  0
VERTEX
  5
22A7
  8
0
 10
118.7051605522967
 20
60.917488196039407
 30
0.0
  0
VERTEX
  5
22A8
  8
0
 10
118.701234241504
 20
60.728646258541339
 30
0.0
  0
VERTEX
  5
22A9
  8
0
 10
118.6934343221036
 20
60.540467751814838
 30
0.0
  0
VERTEX
  5
22AA
  8
0
 10
118.6880958411991
 20
60.446541968632232
 30
0.0
  0
VERTEX
  5
22AB
  8
0
 10
118.6818044111444
 20
60.352680456108381
 30
0.0
  0
VERTEX
  5
22AC
  8
0
 10
118.66637668994809
 20
60.16501807684898
 30
0.0
  0
VERTEX
  5
22AD
  8
0
 10
118.64717229282419
 20
59.977218888989853
 30
0.0
  0
VERTEX
  5
22AE
  8
0
 10
118.62420161015601
 20
59.78902444512039
 30
0.0
  0
VERTEX
  5
22AF
  8
0
 10
118.5974645110128
 20
59.600178333200411
 30
0.0
  0
VERTEX
  5
22B0
  8
0
 10
118.5669504892638
 20
59.410424970812358
 30
0.0
  0
VERTEX
  5
22B1
  8
0
 10
118.5502710315991
 20
59.315128136958997
 30
0.0
  0
VERTEX
  5
22B2
  8
0
 10
118.5326387360937
 20
59.219508423608261
 30
0.0
  0
VERTEX
  5
22B3
  8
0
 10
118.49449814081269
 20
59.027171236192324
 30
0.0
  0
VERTEX
  5
22B4
  8
0
 10
118.4524872209067
 20
58.833153264035673
 30
0.0
  0
VERTEX
  5
22B5
  8
0
 10
118.40655398135129
 20
58.637190495181642
 30
0.0
  0
VERTEX
  5
22B6
  8
0
 10
118.3566357023075
 20
58.439013850475931
 30
0.0
  0
VERTEX
  5
22B7
  8
0
 10
118.3026586534009
 20
58.238347950845423
 30
0.0
  0
VERTEX
  5
22B8
  8
0
 10
118.2741219513774
 20
58.136993438560118
 30
0.0
  0
VERTEX
  5
22B9
  8
0
 10
118.2445377318481
 20
58.034909839749048
 30
0.0
  0
VERTEX
  5
22BA
  8
0
 10
118.18217602070879
 20
57.828407648329289
 30
0.0
  0
VERTEX
  5
22BB
  8
0
 10
118.11546426249051
 20
57.618539189987523
 30
0.0
  0
VERTEX
  5
22BC
  8
0
 10
118.0804394485305
 20
57.512244991382879
 30
0.0
  0
SEQEND
  5
22BD
  8
0
  0
LINE
  5
1927
  8
0
 10
110.7056542308698
 20
57.512244991382879
 30
0.0
 11
110.7056542308698
 21
71.512244991382886
 31
0.0
  0
LINE
  5
1928
  8
0
 10
118.7056542308698
 20
57.512244991382879
 30
0.0
 11
110.7056542308698
 21
57.512244991382879
 31
0.0
  0
POLYLINE
  5
1929
  8
0
 66
     1
 10
0.0
 20
0.0
 30
0.0
  0
VERTEX
  5
22BE
  8
0
 10
118.0804394485305
 20
64.512244991382886
 30
0.0
  0
VERTEX
  5
22BF
  8
0
 10
118.11546426249051
 20
64.61853918998753
 30
0.0
  0
VERTEX
  5
22C0
  8
0
 10
118.18217602070879
 20
64.828407648329275
 30
0.0
  0
VERTEX
  5
22C1
  8
0
 10
118.2445377318481
 20
65.034909839749048
 30
0.0
  0
VERTEX
  5
22C2
  8
0
 10
118.2741219513774
 20
65.136993438560125
 30
0.0
  0
VERTEX
  5
22C3
  8
0
 10
118.3026586534009
 20
65.238347950845423
 30
0.0
  0
VERTEX
  5
22C4
  8
0
 10
118.3566357023075
 20
65.439013850475931
 30
0.0
  0
VERTEX
  5
22C5
  8
0
 10
118.40655398135129
 20
65.637190495181642
 30
0.0
  0
VERTEX
  5
22C6
  8
0
 10
118.4524872209067
 20
65.83315326403573
 30
0.0
  0
VERTEX
  5
22C7
  8
0
 10
118.49449814081269
 20
66.027171236192316
 30
0.0
  0
VERTEX
  5
22C8
  8
0
 10
118.5326387360937
 20
66.219508423608261
 30
0.0
  0
VERTEX
  5
22C9
  8
0
 10
118.5502710315991
 20
66.315128136959004
 30
0.0
  0
VERTEX
  5
22CA
  8
0
 10
118.5669504892638
 20
66.410424970812358
 30
0.0
  0
VERTEX
  5
22CB
  8
0
 10
118.5974645110128
 20
66.600178333200404
 30
0.0
  0
VERTEX
  5
22CC
  8
0
 10
118.62420161015601
 20
66.78902444512039
 30
0.0
  0
VERTEX
  5
22CD
  8
0
 10
118.64717229282419
 20
66.977218888989853
 30
0.0
  0
VERTEX
  5
22CE
  8
0
 10
118.66637668994809
 20
67.16501807684898
 30
0.0
  0
VERTEX
  5
22CF
  8
0
 10
118.6818044111444
 20
67.352680456108374
 30
0.0
  0
VERTEX
  5
22D0
  8
0
 10
118.6880958411991
 20
67.446541968632232
 30
0.0
  0
VERTEX
  5
22D1
  8
0
 10
118.6934343221036
 20
67.540467751814845
 30
0.0
  0
VERTEX
  5
22D2
  8
0
 10
118.701234241504
 20
67.728646258541346
 30
0.0
  0
VERTEX
  5
22D3
  8
0
 10
118.7051605522967
 20
67.917488196039344
 30
0.0
  0
VERTEX
  5
22D4
  8
0
 10
118.7056542308698
 20
68.012244991382886
 30
0.0
  0
SEQEND
  5
22D5
  8
0
  0
POLYLINE
  5
192A
  8
0
 66
     1
 10
0.0
 20
0.0
 30
0.0
  0
VERTEX
  5
22D6
  8
0
 10
118.7056542308698
 20
68.012244991382886
 30
0.0
  0
VERTEX
  5
22D7
  8
0
 10
118.7051605522967
 20
68.107001786726357
 30
0.0
  0
VERTEX
  5
22D8
  8
0
 10
118.701234241504
 20
68.295843724224369
 30
0.0
  0
VERTEX
  5
22D9
  8
0
 10
118.6934343221036
 20
68.48402223095087
 30
0.0
  0
VERTEX
  5
22DA
  8
0
 10
118.6880958411991
 20
68.577948014133483
 30
0.0
  0
VERTEX
  5
22DB
  8
0
 10
118.6818044111444
 20
68.671809526657341
 30
0.0
  0
VERTEX
  5
22DC
  8
0
 10
118.66637668994809
 20
68.859471905916735
 30
0.0
  0
VERTEX
  5
22DD
  8
0
 10
118.64717229282419
 20
69.047271093775862
 30
0.0
  0
VERTEX
  5
22DE
  8
0
 10
118.62420161015601
 20
69.235465537645382
 30
0.0
  0
VERTEX
  5
22DF
  8
0
 10
118.5974645110128
 20
69.424311649565311
 30
0.0
  0
VERTEX
  5
22E0
  8
0
 10
118.5669504892638
 20
69.614065011953357
 30
0.0
  0
VERTEX
  5
22E1
  8
0
 10
118.5502710315991
 20
69.709361845806754
 30
0.0
  0
VERTEX
  5
22E2
  8
0
 10
118.5326387360937
 20
69.804981559157454
 30
0.0
  0
VERTEX
  5
22E3
  8
0
 10
118.49449814081269
 20
69.997318746573399
 30
0.0
  0
VERTEX
  5
22E4
  8
0
 10
118.4524872209067
 20
70.191336718730042
 30
0.0
  0
VERTEX
  5
22E5
  8
0
 10
118.40655398135129
 20
70.38729948758413
 30
0.0
  0
VERTEX
  5
22E6
  8
0
 10
118.3566357023075
 20
70.585476132289841
 30
0.0
  0
VERTEX
  5
22E7
  8
0
 10
118.3026586534009
 20
70.786142031920292
 30
0.0
  0
VERTEX
  5
22E8
  8
0
 10
118.2741219513774
 20
70.88749654420559
 30
0.0
  0
VERTEX
  5
22E9
  8
0
 10
118.2445377318481
 20
70.989580143016724
 30
0.0
  0
VERTEX
  5
22EA
  8
0
 10
118.18217602070879
 20
71.196082334436426
 30
0.0
  0
VERTEX
  5
22EB
  8
0
 10
118.11546426249051
 20
71.405950792778242
 30
0.0
  0
VERTEX
  5
22EC
  8
0
 10
118.0804394485305
 20
71.512244991382886
 30
0.0
  0
SEQEND
  5
22ED
  8
0
  0
LINE
  5
192B
  8
0
 10
118.7056542308698
 20
71.512244991382886
 30
0.0
 11
110.7056542308698
 21
71.512244991382886
 31
0.0
  0
LINE
  5
192C
  8
0
 10
118.0804394485305
 20
64.512244991382886
 30
0.0
 11
110.7056542308698
 21
64.512244991382886
 31
0.0
  0
CIRCLE
  5
192D
  8
0
 10
42.191161137360211
 20
119.5122449913829
 30
0.0
 40
12.5
  0
CIRCLE
  5
192E
  8
0
 10
188.92014732437929
 20
119.5122449913829
 30
0.0
 40
12.5
  0
LINE
  5
192F
  8
0
 10
134.4249783555492
 20
132.01224499138289
 30
0.0
 11
127.4056542308698
 21
126.5122449913829
 31
0.0
  0
LINE
  5
1930
  8
0
 10
134.4249783555492
 20
107.0122449913829
 30
0.0
 11
127.4056542308698
 21
112.5122449913829
 31
0.0
  0
LINE
  5
1931
  8
0
 10
134.4249783555492
 20
77.012244991382886
 30
0.0
 11
127.4056542308698
 21
71.512244991382886
 31
0.0
  0
LINE
  5
1932
  8
0
 10
134.5993556051875
 20
77.012244991382886
 30
0.0
 11
134.5993556051875
 21
52.012244991382879
 31
0.0
  0
LINE
  5
1933
  8
0
 10
134.4249783555492
 20
77.012244991382886
 30
0.0
 11
134.4249783555492
 21
52.012244991382879
 31
0.0
  0
LINE
  5
1934
  8
0
 10
136.4056542308698
 20
75.998839896899881
 30
0.0
 11
136.4056542308698
 21
53.025650085865827
 31
0.0
  0
LINE
  5
1935
  8
0
 10
134.5993556051875
 20
77.012244991382886
 30
0.0
 11
134.4249783555492
 21
77.012244991382886
 31
0.0
  0
ARC
  5
1936
  8
0
 10
134.66531629320949
 20
75.013332990409367
 30
0.0
 40
2.0000000000000129
 50
29.521719295186291
 51
91.889977246716896
  0
ARC
  5
1937
  8
2
 10
149.10565423086979
 20
64.512244991382829
 30
0.0
 40
16.00000000000005
 50
142.53734892745391
 51
217.46265107254601
  0
LINE
  5
1938
  8
0
 10
134.4249783555492
 20
52.012244991382879
 30
0.0
 11
127.4056542308698
 21
57.512244991382879
 31
0.0
  0
LINE
  5
1939
  8
0
 10
134.4249783555492
 20
52.012244991382879
 30
0.0
 11
134.5993556051875
 21
52.012244991382879
 31
0.0
  0
ARC
  5
193A
  8
0
 10
134.66531629320949
 20
54.011156992356291
 30
0.0
 40
2.0000000000000071
 50
268.11002275325859
 51
330.4782807048137
  0
LINE
  5
19A7
  8
0
 10
110.30565423086981
 20
124.5122449913828
 30
0.0
 11
108.7056542308698
 21
124.5122449913828
 31
0.0
  0
LINE
  5
19AC
  8
0
 10
110.30565423086981
 20
114.5122449913829
 30
0.0
 11
108.7056542308698
 21
114.5122449913829
 31
0.0
  0
ARC
  5
19AF
  8
0
 10
110.30565423086971
 20
69.912244991382863
 30
0.0
 40
0.4
 50
270.0
 51
0.0
  0
LINE
  5
19B0
  8
0
 10
110.30565423086971
 20
69.512244991382829
 30
0.0
 11
108.7056542308698
 21
69.512244991382829
 31
0.0
  0
LINE
  5
19B2
  8
3
 10
100.7056542308698
 20
69.59224499138287
 30
0.0
 11
102.7056542308698
 21
69.592244991382884
 31
0.0
  0
LINE
  5
19B3
  8
0
 10
101.6256542308698
 20
70.512244991382886
 30
0.0
 11
100.7056542308698
 21
69.592244991382813
 31
0.0
  0
LINE
  5
19B4
  8
0
 10
102.7056542308698
 20
70.512244991382886
 30
0.0
 11
101.6256542308698
 21
70.512244991382886
 31
0.0
  0
LINE
  5
19B6
  8
0
 10
110.30565423086971
 20
59.512244991382943
 30
0.0
 11
108.7056542308698
 21
59.512244991382943
 31
0.0
  0
ARC
  5
19B7
  8
0
 10
110.30565423086971
 20
59.112244991382909
 30
0.0
 40
0.4
 50
359.99999999999989
 51
90.0
  0
LINE
  5
19B9
  8
3
 10
100.7056542308698
 20
59.432244991382852
 30
0.0
 11
102.7056542308698
 21
59.432244991382838
 31
0.0
  0
LINE
  5
19BA
  8
0
 10
100.7056542308698
 20
59.432244991382852
 30
0.0
 11
101.6256542308698
 21
58.512244991382893
 31
0.0
  0
LINE
  5
19BB
  8
0
 10
101.6256542308698
 20
58.512244991382893
 30
0.0
 11
102.7056542308698
 21
58.512244991382893
 31
0.0
  0
LINE
  5
1ADD
  8
2
 10
49.191161131663591
 20
123.55369687242271
 30
0.0
 11
49.191161131663591
 21
115.4707931037683
 31
0.0
  0
LINE
  5
1ADE
  8
2
 10
49.191161131656322
 20
115.470793110343
 30
0.0
 11
42.191161131663591
 21
111.4293412260149
 31
0.0
  0
LINE
  5
1ADF
  8
2
 10
42.191161137360659
 20
111.4293412293091
 30
0.0
 11
35.191161137360673
 21
115.47079311363539
 31
0.0
  0
LINE
  5
1AE0
  8
2
 10
35.191161143057741
 20
115.47079311034661
 30
0.0
 11
35.191161143057741
 21
123.55369687900109
 31
0.0
  0
LINE
  5
1AE1
  8
2
 10
35.191161143057741
 20
123.5536968724218
 30
0.0
 11
42.191161143057741
 21
127.59514875674989
 31
0.0
  0
LINE
  5
1AE2
  8
2
 10
42.191161137360659
 20
127.5951487534557
 30
0.0
 11
49.191161137360659
 21
123.5536968691294
 31
0.0
  0
ARC
  5
1CE4
  8
0
 10
100.7056542308698
 20
119.5122449913829
 30
0.0
 40
6.0
 50
158.46275075362351
 51
201.53724924637689
  0
LINE
  5
1CE5
  8
0
 10
95.12457962567197
 20
121.71488119630089
 30
0.0
 11
95.124579625671984
 21
117.30960878646481
 31
0.0
  0
CIRCLE
  5
1CE7
  8
0
 10
42.191161137360233
 20
119.5122449913829
 30
0.0
 40
2.2026362049180359
  0
LINE
  5
1CE8
  8
0
 10
95.124579625671984
 20
66.714881196300993
 30
0.0
 11
95.124579625671998
 21
62.309608786464857
 31
0.0
  0
ARC
  5
1CE9
  8
0
 10
100.7056542308698
 20
64.512244991382943
 30
0.0
 40
6.0
 50
158.46275075362351
 51
201.53724924637689
  0
LINE
  5
1CEA
  8
0
 10
96.505654230869837
 20
67.512244991382943
 30
0.0
 11
96.505654230869837
 21
61.512244991382943
 31
0.0
  0
LINE
  5
1CEB
  8
0
 10
96.505654230869837
 20
67.512244991382943
 30
0.0
 11
95.12457962567197
 21
66.714881196300965
 31
0.0
  0
LINE
  5
1CEC
  8
0
 10
95.124579625671998
 20
62.309608786464857
 30
0.0
 11
96.505654230869837
 21
61.512244991382943
 31
0.0
  0
LINE
  5
1CED
  8
0
 10
100.7056542308698
 20
67.512244991382943
 30
0.0
 11
96.505654230869837
 21
67.512244991382943
 31
0.0
  0
LINE
  5
1CEE
  8
0
 10
96.505654230869837
 20
61.512244991382943
 30
0.0
 11
100.7056542308698
 21
61.512244991382943
 31
0.0
  0
POLYLINE
  5
1F1F
  8
0
 66
     1
 10
0.0
 20
0.0
 30
0.0
  0
VERTEX
  5
22EE
  8
0
 10
107.8571484548378
 20
108.54258987678
 30
0.0
  0
VERTEX
  5
22EF
  8
0
 10
107.9045703334122
 20
108.62567815583429
 30
0.0
  0
VERTEX
  5
22F0
  8
0
 10
107.9949234548901
 20
108.7897667336502
 30
0.0
  0
VERTEX
  5
22F1
  8
0
 10
108.07942049146379
 20
108.9512721736433
 30
0.0
  0
VERTEX
  5
22F2
  8
0
 10
108.1195182362422
 20
109.0311294715778
 30
0.0
  0
VERTEX
  5
22F3
  8
0
 10
108.1582041919943
 20
109.1104278926659
 30
0.0
  0
VERTEX
  5
22F4
  8
0
 10
108.2314008967963
 20
109.2674596528219
 30
0.0
  0
VERTEX
  5
22F5
  8
0
 10
108.2991212026479
 20
109.4225866340595
 30
0.0
  0
VERTEX
  5
22F6
  8
0
 10
108.3614605164952
 20
109.5760224562249
 30
0.0
  0
VERTEX
  5
22F7
  8
0
 10
108.4184995036498
 20
109.7279761606118
 30
0.0
  0
VERTEX
  5
22F8
  8
0
 10
108.4703044349048
 20
109.8786531604911
 30
0.0
  0
VERTEX
  5
22F9
  8
0
 10
108.49426096648369
 20
109.9535763246801
 30
0.0
  0
VERTEX
  5
22FA
  8
0
 10
108.5169274356976
 20
110.0282561697143
 30
0.0
  0
VERTEX
  5
22FB
  8
0
 10
108.558406639202
 20
110.17698611823781
 30
0.0
  0
VERTEX
  5
22FC
  8
0
 10
108.59476624400661
 20
110.32504306332051
 30
0.0
  0
VERTEX
  5
22FD
  8
0
 10
108.62601647580669
 20
110.4726271051897
 30
0.0
  0
VERTEX
  5
22FE
  8
0
 10
108.652153451286
 20
110.6199393161676
 30
0.0
  0
VERTEX
  5
22FF
  8
0
 10
108.67315894104691
 20
110.76718269259629
 30
0.0
  0
VERTEX
  5
2300
  8
0
 10
108.6817276772951
 20
110.8408427717728
 30
0.0
  0
VERTEX
  5
2301
  8
0
 10
108.68900002705701
 20
110.91456313941789
 30
0.0
  0
VERTEX
  5
2302
  8
0
 10
108.69962864856861
 20
111.0622904979556
 30
0.0
  0
VERTEX
  5
2303
  8
0
 10
108.7049810287987
 20
111.21057962834411
 30
0.0
  0
VERTEX
  5
2304
  8
0
 10
108.7056542308698
 20
111.2850036554307
 30
0.0
  0
SEQEND
  5
2305
  8
0
  0
LINE
  5
1F20
  8
0
 10
103.5541600069018
 20
108.54258987678
 30
0.0
 11
107.8571484548378
 21
108.54258987678
 31
0.0
  0
POLYLINE
  5
1F21
  8
0
 66
     1
 10
0.0
 20
0.0
 30
0.0
  0
VERTEX
  5
2306
  8
0
 10
102.7056542308698
 20
111.2850036554307
 30
0.0
  0
VERTEX
  5
2307
  8
0
 10
102.7063274329409
 20
111.21057962834411
 30
0.0
  0
VERTEX
  5
2308
  8
0
 10
102.7116798131709
 20
111.0622904979556
 30
0.0
  0
VERTEX
  5
2309
  8
0
 10
102.7223084346826
 20
110.91456313941789
 30
0.0
  0
VERTEX
  5
230A
  8
0
 10
102.72958078444449
 20
110.8408427717728
 30
0.0
  0
VERTEX
  5
230B
  8
0
 10
102.7381495206927
 20
110.76718269259629
 30
0.0
  0
VERTEX
  5
230C
  8
0
 10
102.7591550104536
 20
110.6199393161674
 30
0.0
  0
VERTEX
  5
230D
  8
0
 10
102.7852919859329
 20
110.4726271051897
 30
0.0
  0
VERTEX
  5
230E
  8
0
 10
102.816542217733
 20
110.32504306332051
 30
0.0
  0
VERTEX
  5
230F
  8
0
 10
102.8529018225376
 20
110.17698611823781
 30
0.0
  0
VERTEX
  5
2310
  8
0
 10
102.894381026042
 20
110.0282561697143
 30
0.0
  0
VERTEX
  5
2311
  8
0
 10
102.9170474952558
 20
109.9535763246801
 30
0.0
  0
VERTEX
  5
2312
  8
0
 10
102.9410040268348
 20
109.8786531604911
 30
0.0
  0
VERTEX
  5
2313
  8
0
 10
102.9928089580898
 20
109.7279761606118
 30
0.0
  0
VERTEX
  5
2314
  8
0
 10
103.04984794524439
 20
109.5760224562249
 30
0.0
  0
VERTEX
  5
2315
  8
0
 10
103.1121872590917
 20
109.4225866340595
 30
0.0
  0
VERTEX
  5
2316
  8
0
 10
103.17990756494331
 20
109.2674596528219
 30
0.0
  0
VERTEX
  5
2317
  8
0
 10
103.25310426974519
 20
109.1104278926659
 30
0.0
  0
VERTEX
  5
2318
  8
0
 10
103.29179022549739
 20
109.0311294715778
 30
0.0
  0
VERTEX
  5
2319
  8
0
 10
103.3318879702757
 20
108.9512721736433
 30
0.0
  0
VERTEX
  5
231A
  8
0
 10
103.4163850068494
 20
108.7897667336502
 30
0.0
  0
VERTEX
  5
231B
  8
0
 10
103.5067381283274
 20
108.62567815583429
 30
0.0
  0
VERTEX
  5
231C
  8
0
 10
103.5541600069018
 20
108.54258987678
 30
0.0
  0
SEQEND
  5
231D
  8
0
  0
POLYLINE
  5
1F22
  8
0
 66
     1
 10
0.0
 20
0.0
 30
0.0
  0
VERTEX
  5
231E
  8
0
 10
103.5541600069018
 20
114.0274174340815
 30
0.0
  0
VERTEX
  5
231F
  8
0
 10
103.5067381283274
 20
113.94432915502711
 30
0.0
  0
VERTEX
  5
2320
  8
0
 10
103.4163850068494
 20
113.7802405772112
 30
0.0
  0
VERTEX
  5
2321
  8
0
 10
103.3318879702757
 20
113.6187351372181
 30
0.0
  0
VERTEX
  5
2322
  8
0
 10
103.29179022549739
 20
113.5388778392835
 30
0.0
  0
VERTEX
  5
2323
  8
0
 10
103.25310426974519
 20
113.4595794181955
 30
0.0
  0
VERTEX
  5
2324
  8
0
 10
103.17990756494331
 20
113.3025476580394
 30
0.0
  0
VERTEX
  5
2325
  8
0
 10
103.1121872590917
 20
113.1474206768019
 30
0.0
  0
VERTEX
  5
2326
  8
0
 10
103.04984794524439
 20
112.99398485463649
 30
0.0
  0
VERTEX
  5
2327
  8
0
 10
102.9928089580898
 20
112.8420311502497
 30
0.0
  0
VERTEX
  5
2328
  8
0
 10
102.9410040268348
 20
112.6913541503703
 30
0.0
  0
VERTEX
  5
2329
  8
0
 10
102.9170474952558
 20
112.6164309861811
 30
0.0
  0
VERTEX
  5
232A
  8
0
 10
102.894381026042
 20
112.5417511411472
 30
0.0
  0
VERTEX
  5
232B
  8
0
 10
102.8529018225376
 20
112.39302119262371
 30
0.0
  0
VERTEX
  5
232C
  8
0
 10
102.816542217733
 20
112.24496424754091
 30
0.0
  0
VERTEX
  5
232D
  8
0
 10
102.7852919859329
 20
112.0973802056717
 30
0.0
  0
VERTEX
  5
232E
  8
0
 10
102.7591550104536
 20
111.9500679946939
 30
0.0
  0
VERTEX
  5
232F
  8
0
 10
102.7381495206927
 20
111.80282461826511
 30
0.0
  0
VERTEX
  5
2330
  8
0
 10
102.72958078444449
 20
111.7291645390886
 30
0.0
  0
VERTEX
  5
2331
  8
0
 10
102.7223084346826
 20
111.65544417144331
 30
0.0
  0
VERTEX
  5
2332
  8
0
 10
102.7116798131709
 20
111.5077168129058
 30
0.0
  0
VERTEX
  5
2333
  8
0
 10
102.7063274329409
 20
111.35942768251719
 30
0.0
  0
VERTEX
  5
2334
  8
0
 10
102.7056542308698
 20
111.2850036554307
 30
0.0
  0
SEQEND
  5
2335
  8
0
  0
POLYLINE
  5
1F23
  8
0
 66
     1
 10
0.0
 20
0.0
 30
0.0
  0
VERTEX
  5
2336
  8
0
 10
108.7056542308698
 20
111.2850036554307
 30
0.0
  0
VERTEX
  5
2337
  8
0
 10
108.7049810287987
 20
111.35942768251719
 30
0.0
  0
VERTEX
  5
2338
  8
0
 10
108.69962864856861
 20
111.5077168129058
 30
0.0
  0
VERTEX
  5
2339
  8
0
 10
108.68900002705701
 20
111.65544417144331
 30
0.0
  0
VERTEX
  5
233A
  8
0
 10
108.6817276772951
 20
111.7291645390886
 30
0.0
  0
VERTEX
  5
233B
  8
0
 10
108.67315894104691
 20
111.80282461826511
 30
0.0
  0
VERTEX
  5
233C
  8
0
 10
108.652153451286
 20
111.9500679946939
 30
0.0
  0
VERTEX
  5
233D
  8
0
 10
108.62601647580669
 20
112.0973802056717
 30
0.0
  0
VERTEX
  5
233E
  8
0
 10
108.59476624400661
 20
112.24496424754091
 30
0.0
  0
VERTEX
  5
233F
  8
0
 10
108.558406639202
 20
112.39302119262371
 30
0.0
  0
VERTEX
  5
2340
  8
0
 10
108.5169274356976
 20
112.5417511411472
 30
0.0
  0
VERTEX
  5
2341
  8
0
 10
108.49426096648369
 20
112.6164309861811
 30
0.0
  0
VERTEX
  5
2342
  8
0
 10
108.4703044349048
 20
112.6913541503703
 30
0.0
  0
VERTEX
  5
2343
  8
0
 10
108.4184995036498
 20
112.8420311502497
 30
0.0
  0
VERTEX
  5
2344
  8
0
 10
108.3614605164952
 20
112.99398485463649
 30
0.0
  0
VERTEX
  5
2345
  8
0
 10
108.2991212026479
 20
113.1474206768019
 30
0.0
  0
VERTEX
  5
2346
  8
0
 10
108.2314008967963
 20
113.3025476580394
 30
0.0
  0
VERTEX
  5
2347
  8
0
 10
108.1582041919943
 20
113.4595794181955
 30
0.0
  0
VERTEX
  5
2348
  8
0
 10
108.1195182362422
 20
113.5388778392835
 30
0.0
  0
VERTEX
  5
2349
  8
0
 10
108.07942049146379
 20
113.6187351372181
 30
0.0
  0
VERTEX
  5
234A
  8
0
 10
107.9949234548901
 20
113.7802405772112
 30
0.0
  0
VERTEX
  5
234B
  8
0
 10
107.9045703334122
 20
113.94432915502711
 30
0.0
  0
VERTEX
  5
234C
  8
0
 10
107.8571484548378
 20
114.0274174340815
 30
0.0
  0
SEQEND
  5
234D
  8
0
  0
POLYLINE
  5
1F24
  8
0
 66
     1
 10
0.0
 20
0.0
 30
0.0
  0
VERTEX
  5
234E
  8
0
 10
107.8571484548378
 20
124.9970725486843
 30
0.0
  0
VERTEX
  5
234F
  8
0
 10
107.9045703334122
 20
125.0801608277386
 30
0.0
  0
VERTEX
  5
2350
  8
0
 10
107.9949234548901
 20
125.2442494055545
 30
0.0
  0
VERTEX
  5
2351
  8
0
 10
108.07942049146379
 20
125.4057548455477
 30
0.0
  0
VERTEX
  5
2352
  8
0
 10
108.1195182362422
 20
125.4856121434823
 30
0.0
  0
VERTEX
  5
2353
  8
0
 10
108.1582041919943
 20
125.5649105645702
 30
0.0
  0
VERTEX
  5
2354
  8
0
 10
108.2314008967963
 20
125.7219423247263
 30
0.0
  0
VERTEX
  5
2355
  8
0
 10
108.2991212026479
 20
125.8770693059638
 30
0.0
  0
VERTEX
  5
2356
  8
0
 10
108.3614605164952
 20
126.03050512812921
 30
0.0
  0
VERTEX
  5
2357
  8
0
 10
108.4184995036498
 20
126.1824588325161
 30
0.0
  0
VERTEX
  5
2358
  8
0
 10
108.4703044349048
 20
126.3331358323954
 30
0.0
  0
VERTEX
  5
2359
  8
0
 10
108.49426096648369
 20
126.4080589965846
 30
0.0
  0
VERTEX
  5
235A
  8
0
 10
108.5169274356976
 20
126.4827388416186
 30
0.0
  0
VERTEX
  5
235B
  8
0
 10
108.558406639202
 20
126.63146879014209
 30
0.0
  0
VERTEX
  5
235C
  8
0
 10
108.59476624400661
 20
126.77952573522479
 30
0.0
  0
VERTEX
  5
235D
  8
0
 10
108.62601647580669
 20
126.927109777094
 30
0.0
  0
VERTEX
  5
235E
  8
0
 10
108.652153451286
 20
127.0744219880719
 30
0.0
  0
VERTEX
  5
235F
  8
0
 10
108.67315894104691
 20
127.22166536450059
 30
0.0
  0
VERTEX
  5
2360
  8
0
 10
108.6817276772951
 20
127.2953254436771
 30
0.0
  0
VERTEX
  5
2361
  8
0
 10
108.68900002705701
 20
127.36904581132239
 30
0.0
  0
VERTEX
  5
2362
  8
0
 10
108.69962864856861
 20
127.5167731698599
 30
0.0
  0
VERTEX
  5
2363
  8
0
 10
108.7049810287987
 20
127.66506230024849
 30
0.0
  0
VERTEX
  5
2364
  8
0
 10
108.7056542308698
 20
127.739486327335
 30
0.0
  0
SEQEND
  5
2365
  8
0
  0
POLYLINE
  5
1F25
  8
0
 66
     1
 10
0.0
 20
0.0
 30
0.0
  0
VERTEX
  5
2366
  8
0
 10
102.7056542308698
 20
127.739486327335
 30
0.0
  0
VERTEX
  5
2367
  8
0
 10
102.7063274329409
 20
127.66506230024849
 30
0.0
  0
VERTEX
  5
2368
  8
0
 10
102.7116798131709
 20
127.5167731698599
 30
0.0
  0
VERTEX
  5
2369
  8
0
 10
102.7223084346826
 20
127.36904581132239
 30
0.0
  0
VERTEX
  5
236A
  8
0
 10
102.72958078444449
 20
127.2953254436771
 30
0.0
  0
VERTEX
  5
236B
  8
0
 10
102.7381495206927
 20
127.22166536450059
 30
0.0
  0
VERTEX
  5
236C
  8
0
 10
102.7591550104536
 20
127.0744219880719
 30
0.0
  0
VERTEX
  5
236D
  8
0
 10
102.7852919859329
 20
126.927109777094
 30
0.0
  0
VERTEX
  5
236E
  8
0
 10
102.816542217733
 20
126.77952573522479
 30
0.0
  0
VERTEX
  5
236F
  8
0
 10
102.8529018225376
 20
126.63146879014209
 30
0.0
  0
VERTEX
  5
2370
  8
0
 10
102.894381026042
 20
126.4827388416186
 30
0.0
  0
VERTEX
  5
2371
  8
0
 10
102.9170474952558
 20
126.4080589965846
 30
0.0
  0
VERTEX
  5
2372
  8
0
 10
102.9410040268348
 20
126.3331358323954
 30
0.0
  0
VERTEX
  5
2373
  8
0
 10
102.9928089580898
 20
126.1824588325161
 30
0.0
  0
VERTEX
  5
2374
  8
0
 10
103.04984794524439
 20
126.03050512812921
 30
0.0
  0
VERTEX
  5
2375
  8
0
 10
103.1121872590917
 20
125.8770693059639
 30
0.0
  0
VERTEX
  5
2376
  8
0
 10
103.17990756494331
 20
125.7219423247263
 30
0.0
  0
VERTEX
  5
2377
  8
0
 10
103.25310426974519
 20
125.5649105645702
 30
0.0
  0
VERTEX
  5
2378
  8
0
 10
103.29179022549739
 20
125.4856121434823
 30
0.0
  0
VERTEX
  5
2379
  8
0
 10
103.3318879702756
 20
125.4057548455477
 30
0.0
  0
VERTEX
  5
237A
  8
0
 10
103.4163850068494
 20
125.2442494055545
 30
0.0
  0
VERTEX
  5
237B
  8
0
 10
103.5067381283274
 20
125.0801608277386
 30
0.0
  0
VERTEX
  5
237C
  8
0
 10
103.5541600069018
 20
124.9970725486843
 30
0.0
  0
SEQEND
  5
237D
  8
0
  0
POLYLINE
  5
1F26
  8
0
 66
     1
 10
0.0
 20
0.0
 30
0.0
  0
VERTEX
  5
237E
  8
0
 10
103.5541600069018
 20
130.4819001059858
 30
0.0
  0
VERTEX
  5
237F
  8
0
 10
103.5067381283274
 20
130.39881182693139
 30
0.0
  0
VERTEX
  5
2380
  8
0
 10
103.4163850068494
 20
130.23472324911549
 30
0.0
  0
VERTEX
  5
2381
  8
0
 10
103.3318879702757
 20
130.07321780912241
 30
0.0
  0
VERTEX
  5
2382
  8
0
 10
103.29179022549739
 20
129.99336051118789
 30
0.0
  0
VERTEX
  5
2383
  8
0
 10
103.25310426974519
 20
129.9140620900998
 30
0.0
  0
VERTEX
  5
2384
  8
0
 10
103.17990756494331
 20
129.7570303299438
 30
0.0
  0
VERTEX
  5
2385
  8
0
 10
103.1121872590917
 20
129.60190334870629
 30
0.0
  0
VERTEX
  5
2386
  8
0
 10
103.04984794524439
 20
129.44846752654081
 30
0.0
  0
VERTEX
  5
2387
  8
0
 10
102.9928089580898
 20
129.296513822154
 30
0.0
  0
VERTEX
  5
2388
  8
0
 10
102.9410040268348
 20
129.14583682227459
 30
0.0
  0
VERTEX
  5
2389
  8
0
 10
102.9170474952558
 20
129.0709136580856
 30
0.0
  0
VERTEX
  5
238A
  8
0
 10
102.894381026042
 20
128.9962338130515
 30
0.0
  0
VERTEX
  5
238B
  8
0
 10
102.8529018225376
 20
128.84750386452799
 30
0.0
  0
VERTEX
  5
238C
  8
0
 10
102.816542217733
 20
128.69944691944519
 30
0.0
  0
VERTEX
  5
238D
  8
0
 10
102.7852919859329
 20
128.55186287757601
 30
0.0
  0
VERTEX
  5
238E
  8
0
 10
102.7591550104536
 20
128.40455066659831
 30
0.0
  0
VERTEX
  5
238F
  8
0
 10
102.7381495206927
 20
128.25730729016951
 30
0.0
  0
VERTEX
  5
2390
  8
0
 10
102.72958078444449
 20
128.18364721099289
 30
0.0
  0
VERTEX
  5
2391
  8
0
 10
102.7223084346826
 20
128.10992684334781
 30
0.0
  0
VERTEX
  5
2392
  8
0
 10
102.7116798131709
 20
127.9621994848102
 30
0.0
  0
VERTEX
  5
2393
  8
0
 10
102.7063274329409
 20
127.81391035442159
 30
0.0
  0
VERTEX
  5
2394
  8
0
 10
102.7056542308698
 20
127.739486327335
 30
0.0
  0
SEQEND
  5
2395
  8
0
  0
LINE
  5
1F27
  8
0
 10
103.5541600069018
 20
130.4819001059858
 30
0.0
 11
107.8571484548378
 21
130.4819001059858
 31
0.0
  0
POLYLINE
  5
1F28
  8
0
 66
     1
 10
0.0
 20
0.0
 30
0.0
  0
VERTEX
  5
2396
  8
0
 10
108.7056542308698
 20
127.739486327335
 30
0.0
  0
VERTEX
  5
2397
  8
0
 10
108.7049810287987
 20
127.81391035442159
 30
0.0
  0
VERTEX
  5
2398
  8
0
 10
108.69962864856861
 20
127.9621994848102
 30
0.0
  0
VERTEX
  5
2399
  8
0
 10
108.68900002705701
 20
128.10992684334781
 30
0.0
  0
VERTEX
  5
239A
  8
0
 10
108.6817276772951
 20
128.18364721099289
 30
0.0
  0
VERTEX
  5
239B
  8
0
 10
108.67315894104691
 20
128.25730729016951
 30
0.0
  0
VERTEX
  5
239C
  8
0
 10
108.652153451286
 20
128.40455066659831
 30
0.0
  0
VERTEX
  5
239D
  8
0
 10
108.62601647580669
 20
128.55186287757601
 30
0.0
  0
VERTEX
  5
239E
  8
0
 10
108.59476624400661
 20
128.69944691944519
 30
0.0
  0
VERTEX
  5
239F
  8
0
 10
108.558406639202
 20
128.84750386452799
 30
0.0
  0
VERTEX
  5
23A0
  8
0
 10
108.5169274356976
 20
128.9962338130515
 30
0.0
  0
VERTEX
  5
23A1
  8
0
 10
108.49426096648369
 20
129.0709136580856
 30
0.0
  0
VERTEX
  5
23A2
  8
0
 10
108.4703044349048
 20
129.14583682227459
 30
0.0
  0
VERTEX
  5
23A3
  8
0
 10
108.4184995036498
 20
129.296513822154
 30
0.0
  0
VERTEX
  5
23A4
  8
0
 10
108.3614605164952
 20
129.44846752654081
 30
0.0
  0
VERTEX
  5
23A5
  8
0
 10
108.2991212026479
 20
129.60190334870629
 30
0.0
  0
VERTEX
  5
23A6
  8
0
 10
108.2314008967963
 20
129.7570303299438
 30
0.0
  0
VERTEX
  5
23A7
  8
0
 10
108.1582041919943
 20
129.9140620900998
 30
0.0
  0
VERTEX
  5
23A8
  8
0
 10
108.1195182362422
 20
129.99336051118789
 30
0.0
  0
VERTEX
  5
23A9
  8
0
 10
108.07942049146379
 20
130.07321780912241
 30
0.0
  0
VERTEX
  5
23AA
  8
0
 10
107.9949234548901
 20
130.23472324911549
 30
0.0
  0
VERTEX
  5
23AB
  8
0
 10
107.9045703334122
 20
130.39881182693139
 30
0.0
  0
VERTEX
  5
23AC
  8
0
 10
107.8571484548378
 20
130.4819001059858
 30
0.0
  0
SEQEND
  5
23AD
  8
0
  0
POLYLINE
  5
1F29
  8
0
 66
     1
 10
0.0
 20
0.0
 30
0.0
  0
VERTEX
  5
23AE
  8
0
 10
107.8571484548378
 20
114.0274174340815
 30
0.0
  0
VERTEX
  5
23AF
  8
0
 10
107.9045703334122
 20
114.19359399219
 30
0.0
  0
VERTEX
  5
23B0
  8
0
 10
107.9949234548901
 20
114.52177114782189
 30
0.0
  0
VERTEX
  5
23B1
  8
0
 10
108.07942049146379
 20
114.84478202780799
 30
0.0
  0
VERTEX
  5
23B2
  8
0
 10
108.1195182362422
 20
115.0044966236772
 30
0.0
  0
VERTEX
  5
23B3
  8
0
 10
108.1582041919943
 20
115.16309346585339
 30
0.0
  0
VERTEX
  5
23B4
  8
0
 10
108.2314008967963
 20
115.4771569861653
 30
0.0
  0
VERTEX
  5
23B5
  8
0
 10
108.2991212026479
 20
115.7874109486405
 30
0.0
  0
VERTEX
  5
23B6
  8
0
 10
108.3614605164952
 20
116.0942825929712
 30
0.0
  0
VERTEX
  5
23B7
  8
0
 10
108.4184995036498
 20
116.39819000174499
 30
0.0
  0
VERTEX
  5
23B8
  8
0
 10
108.4703044349048
 20
116.6995440015035
 30
0.0
  0
VERTEX
  5
23B9
  8
0
 10
108.49426096648369
 20
116.8493903298819
 30
0.0
  0
VERTEX
  5
23BA
  8
0
 10
108.5169274356976
 20
116.9987500199498
 30
0.0
  0
VERTEX
  5
23BB
  8
0
 10
108.558406639202
 20
117.296209916997
 30
0.0
  0
VERTEX
  5
23BC
  8
0
 10
108.59476624400661
 20
117.5923238071624
 30
0.0
  0
VERTEX
  5
23BD
  8
0
 10
108.62601647580669
 20
117.8874918909009
 30
0.0
  0
VERTEX
  5
23BE
  8
0
 10
108.652153451286
 20
118.18211631285639
 30
0.0
  0
VERTEX
  5
23BF
  8
0
 10
108.67315894104691
 20
118.476603065714
 30
0.0
  0
VERTEX
  5
23C0
  8
0
 10
108.6817276772951
 20
118.6239232240671
 30
0.0
  0
VERTEX
  5
23C1
  8
0
 10
108.68900002705701
 20
118.7713639593575
 30
0.0
  0
VERTEX
  5
23C2
  8
0
 10
108.69962864856861
 20
119.0668186764326
 30
0.0
  0
VERTEX
  5
23C3
  8
0
 10
108.7049810287987
 20
119.3633969372098
 30
0.0
  0
VERTEX
  5
23C4
  8
0
 10
108.7056542308698
 20
119.5122449913829
 30
0.0
  0
SEQEND
  5
23C5
  8
0
  0
POLYLINE
  5
1F2A
  8
0
 66
     1
 10
0.0
 20
0.0
 30
0.0
  0
VERTEX
  5
23C6
  8
0
 10
102.7056542308698
 20
119.5122449913829
 30
0.0
  0
VERTEX
  5
23C7
  8
0
 10
102.7063274329409
 20
119.3633969372098
 30
0.0
  0
VERTEX
  5
23C8
  8
0
 10
102.7116798131709
 20
119.0668186764326
 30
0.0
  0
VERTEX
  5
23C9
  8
0
 10
102.7223084346826
 20
118.7713639593575
 30
0.0
  0
VERTEX
  5
23CA
  8
0
 10
102.72958078444449
 20
118.6239232240671
 30
0.0
  0
VERTEX
  5
23CB
  8
0
 10
102.7381495206927
 20
118.476603065714
 30
0.0
  0
VERTEX
  5
23CC
  8
0
 10
102.7591550104536
 20
118.18211631285639
 30
0.0
  0
VERTEX
  5
23CD
  8
0
 10
102.7852919859329
 20
117.8874918909009
 30
0.0
  0
VERTEX
  5
23CE
  8
0
 10
102.816542217733
 20
117.5923238071625
 30
0.0
  0
VERTEX
  5
23CF
  8
0
 10
102.8529018225376
 20
117.296209916997
 30
0.0
  0
VERTEX
  5
23D0
  8
0
 10
102.894381026042
 20
116.9987500199498
 30
0.0
  0
VERTEX
  5
23D1
  8
0
 10
102.9170474952558
 20
116.8493903298819
 30
0.0
  0
VERTEX
  5
23D2
  8
0
 10
102.9410040268348
 20
116.6995440015035
 30
0.0
  0
VERTEX
  5
23D3
  8
0
 10
102.9928089580898
 20
116.39819000174499
 30
0.0
  0
VERTEX
  5
23D4
  8
0
 10
103.04984794524439
 20
116.0942825929712
 30
0.0
  0
VERTEX
  5
23D5
  8
0
 10
103.1121872590917
 20
115.7874109486405
 30
0.0
  0
VERTEX
  5
23D6
  8
0
 10
103.17990756494331
 20
115.4771569861653
 30
0.0
  0
VERTEX
  5
23D7
  8
0
 10
103.25310426974519
 20
115.16309346585339
 30
0.0
  0
VERTEX
  5
23D8
  8
0
 10
103.29179022549739
 20
115.0044966236772
 30
0.0
  0
VERTEX
  5
23D9
  8
0
 10
103.3318879702757
 20
114.84478202780799
 30
0.0
  0
VERTEX
  5
23DA
  8
0
 10
103.4163850068494
 20
114.52177114782189
 30
0.0
  0
VERTEX
  5
23DB
  8
0
 10
103.5067381283274
 20
114.19359399219
 30
0.0
  0
VERTEX
  5
23DC
  8
0
 10
103.5541600069018
 20
114.0274174340815
 30
0.0
  0
SEQEND
  5
23DD
  8
0
  0
POLYLINE
  5
1F2B
  8
0
 66
     1
 10
0.0
 20
0.0
 30
0.0
  0
VERTEX
  5
23DE
  8
0
 10
103.5541600069018
 20
124.9970725486843
 30
0.0
  0
VERTEX
  5
23DF
  8
0
 10
103.5067381283274
 20
124.8308959905757
 30
0.0
  0
VERTEX
  5
23E0
  8
0
 10
103.4163850068494
 20
124.50271883494381
 30
0.0
  0
VERTEX
  5
23E1
  8
0
 10
103.3318879702757
 20
124.17970795495771
 30
0.0
  0
VERTEX
  5
23E2
  8
0
 10
103.29179022549729
 20
124.0199933590885
 30
0.0
  0
VERTEX
  5
23E3
  8
0
 10
103.25310426974519
 20
123.86139651691229
 30
0.0
  0
VERTEX
  5
23E4
  8
0
 10
103.17990756494331
 20
123.5473329966004
 30
0.0
  0
VERTEX
  5
23E5
  8
0
 10
103.1121872590917
 20
123.2370790341252
 30
0.0
  0
VERTEX
  5
23E6
  8
0
 10
103.04984794524439
 20
122.9302073897945
 30
0.0
  0
VERTEX
  5
23E7
  8
0
 10
102.9928089580898
 20
122.62629998102079
 30
0.0
  0
VERTEX
  5
23E8
  8
0
 10
102.9410040268348
 20
122.3249459812622
 30
0.0
  0
VERTEX
  5
23E9
  8
0
 10
102.9170474952558
 20
122.1750996528839
 30
0.0
  0
VERTEX
  5
23EA
  8
0
 10
102.894381026042
 20
122.0257399628159
 30
0.0
  0
VERTEX
  5
23EB
  8
0
 10
102.8529018225376
 20
121.7282800657688
 30
0.0
  0
VERTEX
  5
23EC
  8
0
 10
102.816542217733
 20
121.4321661756033
 30
0.0
  0
VERTEX
  5
23ED
  8
0
 10
102.7852919859329
 20
121.1369980918648
 30
0.0
  0
VERTEX
  5
23EE
  8
0
 10
102.7591550104536
 20
120.84237366990931
 30
0.0
  0
VERTEX
  5
23EF
  8
0
 10
102.7381495206927
 20
120.5478869170517
 30
0.0
  0
VERTEX
  5
23F0
  8
0
 10
102.72958078444449
 20
120.4005667586987
 30
0.0
  0
VERTEX
  5
23F1
  8
0
 10
102.7223084346826
 20
120.2531260234083
 30
0.0
  0
VERTEX
  5
23F2
  8
0
 10
102.7116798131709
 20
119.9576713063331
 30
0.0
  0
VERTEX
  5
23F3
  8
0
 10
102.7063274329409
 20
119.6610930455559
 30
0.0
  0
VERTEX
  5
23F4
  8
0
 10
102.7056542308698
 20
119.5122449913829
 30
0.0
  0
SEQEND
  5
23F5
  8
0
  0
POLYLINE
  5
1F2C
  8
0
 66
     1
 10
0.0
 20
0.0
 30
0.0
  0
VERTEX
  5
23F6
  8
0
 10
108.7056542308698
 20
119.5122449913829
 30
0.0
  0
VERTEX
  5
23F7
  8
0
 10
108.7049810287987
 20
119.6610930455559
 30
0.0
  0
VERTEX
  5
23F8
  8
0
 10
108.69962864856861
 20
119.9576713063331
 30
0.0
  0
VERTEX
  5
23F9
  8
0
 10
108.68900002705701
 20
120.2531260234083
 30
0.0
  0
VERTEX
  5
23FA
  8
0
 10
108.6817276772951
 20
120.4005667586987
 30
0.0
  0
VERTEX
  5
23FB
  8
0
 10
108.67315894104691
 20
120.5478869170517
 30
0.0
  0
VERTEX
  5
23FC
  8
0
 10
108.652153451286
 20
120.84237366990931
 30
0.0
  0
VERTEX
  5
23FD
  8
0
 10
108.62601647580669
 20
121.1369980918648
 30
0.0
  0
VERTEX
  5
23FE
  8
0
 10
108.59476624400661
 20
121.4321661756033
 30
0.0
  0
VERTEX
  5
23FF
  8
0
 10
108.558406639202
 20
121.7282800657688
 30
0.0
  0
VERTEX
  5
2400
  8
0
 10
108.5169274356976
 20
122.0257399628159
 30
0.0
  0
VERTEX
  5
2401
  8
0
 10
108.49426096648369
 20
122.1750996528839
 30
0.0
  0
VERTEX
  5
2402
  8
0
 10
108.4703044349048
 20
122.3249459812622
 30
0.0
  0
VERTEX
  5
2403
  8
0
 10
108.4184995036498
 20
122.62629998102079
 30
0.0
  0
VERTEX
  5
2404
  8
0
 10
108.3614605164952
 20
122.9302073897945
 30
0.0
  0
VERTEX
  5
2405
  8
0
 10
108.2991212026479
 20
123.2370790341252
 30
0.0
  0
VERTEX
  5
2406
  8
0
 10
108.2314008967963
 20
123.5473329966004
 30
0.0
  0
VERTEX
  5
2407
  8
0
 10
108.1582041919943
 20
123.86139651691229
 30
0.0
  0
VERTEX
  5
2408
  8
0
 10
108.1195182362422
 20
124.0199933590885
 30
0.0
  0
VERTEX
  5
2409
  8
0
 10
108.07942049146379
 20
124.17970795495771
 30
0.0
  0
VERTEX
  5
240A
  8
0
 10
107.9949234548901
 20
124.50271883494381
 30
0.0
  0
VERTEX
  5
240B
  8
0
 10
107.9045703334122
 20
124.8308959905757
 30
0.0
  0
VERTEX
  5
240C
  8
0
 10
107.8571484548378
 20
124.9970725486843
 30
0.0
  0
SEQEND
  5
240D
  8
0
  0
LINE
  5
1F2D
  8
0
 10
103.5541600069018
 20
124.9970725486843
 30
0.0
 11
107.8571484548378
 21
124.9970725486843
 31
0.0
  0
LINE
  5
1F2E
  8
0
 10
103.5541600069018
 20
114.0274174340815
 30
0.0
 11
107.8571484548378
 21
114.0274174340815
 31
0.0
  0
LINE
  5
1F2F
  8
0
 10
108.7056542308698
 20
129.01224499138289
 30
0.0
 11
108.7056542308698
 21
110.0122449913829
 31
0.0
  0
LINE
  5
1F30
  8
0
 10
102.7056542308698
 20
129.01224499138289
 30
0.0
 11
102.7056542308698
 21
110.0122449913829
 31
0.0
  0
LINE
  5
1F31
  8
0
 10
107.8571484548378
 20
108.54258987678
 30
0.0
 11
108.7056542308698
 21
110.0122449913829
 31
0.0
  0
LINE
  5
1F32
  8
0
 10
108.7056542308698
 20
129.01224499138289
 30
0.0
 11
107.8571484548378
 21
130.4819001059858
 31
0.0
  0
LINE
  5
1F33
  8
0
 10
102.7056542308698
 20
110.0122449913829
 30
0.0
 11
103.5541600069018
 21
108.54258987678
 31
0.0
  0
LINE
  5
1F34
  8
0
 10
103.5541600069018
 20
130.4819001059858
 30
0.0
 11
102.7056542308698
 21
129.01224499138289
 31
0.0
  0
LINE
  5
1F35
  8
0
 10
51.691161129628391
 20
124.9970725442226
 30
0.0
 11
51.691161129628391
 21
114.0274174296201
 31
0.0
  0
LINE
  5
1F36
  8
0
 10
51.691161129621122
 20
114.0274174385431
 30
0.0
 11
42.191161129628391
 21
108.5425898812409
 31
0.0
  0
LINE
  5
1F37
  8
0
 10
42.191161137362741
 20
108.542589885712
 30
0.0
 11
32.691161137362741
 21
114.0274174430115
 31
0.0
  0
LINE
  5
1F38
  8
0
 10
32.691161145089808
 20
114.0274174385486
 30
0.0
 11
32.691161145089808
 21
124.9970725531511
 31
0.0
  0
LINE
  5
1F39
  8
0
 10
32.691161145089808
 20
124.99707254422169
 30
0.0
 11
42.191161145089801
 21
130.48190010152391
 31
0.0
  0
LINE
  5
1F3A
  8
0
 10
42.191161137362741
 20
130.4819000970528
 30
0.0
 11
51.691161137362741
 21
124.9970725397534
 31
0.0
  0
ARC
  5
202F
  8
0
 10
94.824651883306544
 20
69.262244991382886
 30
0.0
 40
13.719683889994901
 50
339.74384199960542
 51
20.25615800039462
  0
ARC
  5
2030
  8
0
 10
116.5866565784324
 20
69.262244991382886
 30
0.0
 40
13.719683889994901
 50
159.74384199960531
 51
200.25615800039461
  0
LINE
  5
2031
  8
0
 10
108.7056542308698
 20
73.73283322667578
 30
0.0
 11
108.7056542308698
 21
55.291656756089878
 31
0.0
  0
LINE
  5
2032
  8
0
 10
102.7056542308698
 20
55.291656756088742
 30
0.0
 11
102.7056542308698
 21
73.73283322667703
 31
0.0
  0
LINE
  5
2033
  8
0
 10
108.5443357733015
 20
74.012244991382886
 30
0.0
 11
102.8669726884374
 21
74.012244991382886
 31
0.0
  0
LINE
  5
2034
  8
0
 10
102.8669726884374
 20
74.012244991382886
 30
0.0
 11
102.7056542308691
 21
73.732833226675893
 31
0.0
  0
LINE
  5
2035
  8
0
 10
108.5443357733015
 20
74.012244991382886
 30
0.0
 11
108.7056542308698
 21
73.732833226675893
 31
0.0
  0
ARC
  5
2036
  8
0
 10
94.824651883306544
 20
59.762244991382893
 30
0.0
 40
13.719683889994901
 50
339.74384199960542
 51
20.25615800039462
  0
ARC
  5
2037
  8
0
 10
116.5866565784324
 20
59.762244991382893
 30
0.0
 40
13.719683889994901
 50
159.74384199960531
 51
200.25615800039461
  0
LINE
  5
2038
  8
0
 10
107.6958299972701
 20
64.512244991382886
 30
0.0
 11
103.7154784644685
 21
64.512244991382886
 31
0.0
  0
LINE
  5
2039
  8
0
 10
108.5443357733015
 20
55.012244991382879
 30
0.0
 11
102.8669726884374
 21
55.012244991382879
 31
0.0
  0
LINE
  5
203A
  8
0
 10
102.8669726884374
 20
55.012244991382879
 30
0.0
 11
102.7056542308691
 21
55.291656756089878
 31
0.0
  0
LINE
  5
203B
  8
0
 10
108.5443357733015
 20
55.012244991382879
 30
0.0
 11
108.7056542308698
 21
55.291656756089878
 31
0.0
  0
CIRCLE
  5
20DC
  8
0
 10
42.191161137360297
 20
119.5122449913829
 30
0.0
 40
9.0
  0
LINE
  5
216A
  8
0
 10
118.7056542308698
 20
112.86579838197601
 30
0.0
 11
119.0592076214631
 21
112.5122449913828
 31
0.0
  0
LINE
  5
216B
  8
0
 10
119.0592076214631
 20
126.5122449913828
 30
0.0
 11
118.7056542308698
 21
126.1586916007895
 31
0.0
  0
LINE
  5
216C
  8
0
 10
118.0804394485305
 20
111.429341222728
 30
0.0
 11
118.7056542308698
 21
112.5122449913828
 31
0.0
  0
LINE
  5
216D
  8
0
 10
118.7056542308698
 20
126.5122449913828
 30
0.0
 11
118.0804394485305
 21
127.5951487600376
 31
0.0
  0
LINE
  5
216E
  8
0
 10
119.0592076214631
 20
126.5122449913828
 30
0.0
 11
119.0592076214631
 21
122.2122449913827
 31
0.0
  0
LINE
  5
216F
  8
0
 10
118.7056542308698
 20
126.5122449913828
 30
0.0
 11
118.7056542308698
 21
122.5122449913828
 31
0.0
  0
POLYLINE
  5
2170
  8
0
 66
     1
 10
0.0
 20
0.0
 30
0.0
  0
VERTEX
  5
240E
  8
0
 10
118.0804394485305
 20
127.5951487600376
 30
0.0
  0
VERTEX
  5
240F
  8
0
 10
118.11546426249051
 20
127.5337797758598
 30
0.0
  0
VERTEX
  5
2410
  8
0
 10
118.18217602070879
 20
127.41261216494181
 30
0.0
  0
VERTEX
  5
2411
  8
0
 10
118.2445377318481
 20
127.29338806913739
 30
0.0
  0
VERTEX
  5
2412
  8
0
 10
118.2741219513774
 20
127.2344500758839
 30
0.0
  0
VERTEX
  5
2413
  8
0
 10
118.3026586534009
 20
127.1759330209324
 30
0.0
  0
VERTEX
  5
2414
  8
0
 10
118.3566357023076
 20
127.0600785097636
 30
0.0
  0
VERTEX
  5
2415
  8
0
 10
118.40655398135129
 20
126.9456611705956
 30
0.0
  0
VERTEX
  5
2416
  8
0
 10
118.4524872209067
 20
126.8325220132466
 30
0.0
  0
VERTEX
  5
2417
  8
0
 10
118.49449814081269
 20
126.7205056847944
 30
0.0
  0
VERTEX
  5
2418
  8
0
 10
118.5326387360937
 20
126.6094597578646
 30
0.0
  0
VERTEX
  5
2419
  8
0
 10
118.5502710315991
 20
126.55425369062171
 30
0.0
  0
VERTEX
  5
241A
  8
0
 10
118.5669504892638
 20
126.49923403794359
 30
0.0
  0
VERTEX
  5
241B
  8
0
 10
118.5974645110128
 20
126.3896798830892
 30
0.0
  0
VERTEX
  5
241C
  8
0
 10
118.62420161015611
 20
126.2806495295368
 30
0.0
  0
VERTEX
  5
241D
  8
0
 10
118.64717229282419
 20
126.1719954167087
 30
0.0
  0
VERTEX
  5
241E
  8
0
 10
118.66637668994809
 20
126.0635695050447
 30
0.0
  0
VERTEX
  5
241F
  8
0
 10
118.6818044111444
 20
125.95522257986249
 30
0.0
  0
VERTEX
  5
2420
  8
0
 10
118.6880958411991
 20
125.9010316103403
 30
0.0
  0
VERTEX
  5
2421
  8
0
 10
118.6934343221036
 20
125.8468035341359
 30
0.0
  0
VERTEX
  5
2422
  8
0
 10
118.701234241504
 20
125.7381586226217
 30
0.0
  0
VERTEX
  5
2423
  8
0
 10
118.7051605522967
 20
125.629130679173
 30
0.0
  0
VERTEX
  5
2424
  8
0
 10
118.7056542308698
 20
125.5744228178738
 30
0.0
  0
SEQEND
  5
2425
  8
0
  0
POLYLINE
  5
2171
  8
0
 66
     1
 10
0.0
 20
0.0
 30
0.0
  0
VERTEX
  5
2426
  8
0
 10
118.7056542308698
 20
125.5744228178738
 30
0.0
  0
VERTEX
  5
2427
  8
0
 10
118.7051605522967
 20
125.5197149565747
 30
0.0
  0
VERTEX
  5
2428
  8
0
 10
118.701234241504
 20
125.41068701312589
 30
0.0
  0
VERTEX
  5
2429
  8
0
 10
118.6934343221036
 20
125.3020421016117
 30
0.0
  0
VERTEX
  5
242A
  8
0
 10
118.6880958411991
 20
125.24781402540739
 30
0.0
  0
VERTEX
  5
242B
  8
0
 10
118.6818044111444
 20
125.1936230558852
 30
0.0
  0
VERTEX
  5
242C
  8
0
 10
118.66637668994809
 20
125.08527613070299
 30
0.0
  0
VERTEX
  5
242D
  8
0
 10
118.64717229282419
 20
124.97685021903899
 30
0.0
  0
VERTEX
  5
242E
  8
0
 10
118.62420161015611
 20
124.868196106211
 30
0.0
  0
VERTEX
  5
242F
  8
0
 10
118.5974645110128
 20
124.7591657526585
 30
0.0
  0
VERTEX
  5
2430
  8
0
 10
118.5669504892638
 20
124.6496115978041
 30
0.0
  0
VERTEX
  5
2431
  8
0
 10
118.5502710315991
 20
124.5945919451259
 30
0.0
  0
VERTEX
  5
2432
  8
0
 10
118.5326387360937
 20
124.53938587788311
 30
0.0
  0
VERTEX
  5
2433
  8
0
 10
118.49449814081269
 20
124.4283399509533
 30
0.0
  0
VERTEX
  5
2434
  8
0
 10
118.4524872209067
 20
124.3163236225011
 30
0.0
  0
VERTEX
  5
2435
  8
0
 10
118.40655398135129
 20
124.20318446515201
 30
0.0
  0
VERTEX
  5
2436
  8
0
 10
118.3566357023075
 20
124.08876712598411
 30
0.0
  0
VERTEX
  5
2437
  8
0
 10
118.3026586534009
 20
123.9729126148152
 30
0.0
  0
VERTEX
  5
2438
  8
0
 10
118.2741219513774
 20
123.91439555986371
 30
0.0
  0
VERTEX
  5
2439
  8
0
 10
118.2445377318481
 20
123.8554575666103
 30
0.0
  0
VERTEX
  5
243A
  8
0
 10
118.18217602070879
 20
123.7362334708059
 30
0.0
  0
VERTEX
  5
243B
  8
0
 10
118.11546426249051
 20
123.61506585988781
 30
0.0
  0
VERTEX
  5
243C
  8
0
 10
118.0804394485305
 20
123.5536968757101
 30
0.0
  0
SEQEND
  5
243D
  8
0
  0
LINE
  5
2172
  8
0
 10
118.0804394485305
 20
123.5536968757101
 30
0.0
 11
110.7056542308698
 21
123.5536968757101
 31
0.0
  0
POLYLINE
  5
2173
  8
0
 66
     1
 10
0.0
 20
0.0
 30
0.0
  0
VERTEX
  5
243E
  8
0
 10
118.0804394485305
 20
123.5536968757101
 30
0.0
  0
VERTEX
  5
243F
  8
0
 10
118.11546426249051
 20
123.43095890735481
 30
0.0
  0
VERTEX
  5
2440
  8
0
 10
118.18217602070879
 20
123.18862368551871
 30
0.0
  0
VERTEX
  5
2441
  8
0
 10
118.2445377318481
 20
122.9501754939098
 30
0.0
  0
VERTEX
  5
2442
  8
0
 10
118.2741219513774
 20
122.83229950740289
 30
0.0
  0
VERTEX
  5
2443
  8
0
 10
118.3026586534009
 20
122.7152653975
 30
0.0
  0
VERTEX
  5
2444
  8
0
 10
118.3499526356527
 20
122.5122449913828
 30
0.0
  0
SEQEND
  5
2445
  8
0
  0
POLYLINE
  5
2174
  8
0
 66
     1
 10
0.0
 20
0.0
 30
0.0
  0
VERTEX
  5
2446
  8
0
 10
118.3499526356527
 20
116.5122449913827
 30
0.0
  0
VERTEX
  5
2447
  8
0
 10
118.3026586534009
 20
116.3092245852656
 30
0.0
  0
VERTEX
  5
2448
  8
0
 10
118.2741219513774
 20
116.19219047536259
 30
0.0
  0
VERTEX
  5
2449
  8
0
 10
118.2445377318481
 20
116.07431448885571
 30
0.0
  0
VERTEX
  5
244A
  8
0
 10
118.18217602070879
 20
115.83586629724689
 30
0.0
  0
VERTEX
  5
244B
  8
0
 10
118.11546426249051
 20
115.59353107541079
 30
0.0
  0
VERTEX
  5
244C
  8
0
 10
118.0804394485305
 20
115.4707931070554
 30
0.0
  0
SEQEND
  5
244D
  8
0
  0
LINE
  5
2175
  8
0
 10
118.0804394485305
 20
115.4707931070554
 30
0.0
 11
110.7056542308698
 21
115.4707931070554
 31
0.0
  0
POLYLINE
  5
2176
  8
0
 66
     1
 10
0.0
 20
0.0
 30
0.0
  0
VERTEX
  5
244E
  8
0
 10
118.0804394485305
 20
115.4707931070554
 30
0.0
  0
VERTEX
  5
244F
  8
0
 10
118.11546426249051
 20
115.4094241228777
 30
0.0
  0
VERTEX
  5
2450
  8
0
 10
118.18217602070879
 20
115.2882565119597
 30
0.0
  0
VERTEX
  5
2451
  8
0
 10
118.2445377318481
 20
115.1690324161553
 30
0.0
  0
VERTEX
  5
2452
  8
0
 10
118.2741219513774
 20
115.1100944229018
 30
0.0
  0
VERTEX
  5
2453
  8
0
 10
118.3026586534009
 20
115.0515773679503
 30
0.0
  0
VERTEX
  5
2454
  8
0
 10
118.3566357023075
 20
114.9357228567815
 30
0.0
  0
VERTEX
  5
2455
  8
0
 10
118.40655398135129
 20
114.8213055176135
 30
0.0
  0
VERTEX
  5
2456
  8
0
 10
118.4524872209067
 20
114.7081663602645
 30
0.0
  0
VERTEX
  5
2457
  8
0
 10
118.49449814081269
 20
114.5961500318122
 30
0.0
  0
VERTEX
  5
2458
  8
0
 10
118.5326387360937
 20
114.4851041048825
 30
0.0
  0
VERTEX
  5
2459
  8
0
 10
118.5502710315991
 20
114.4298980376396
 30
0.0
  0
VERTEX
  5
245A
  8
0
 10
118.5669504892638
 20
114.37487838496141
 30
0.0
  0
VERTEX
  5
245B
  8
0
 10
118.5974645110128
 20
114.265324230107
 30
0.0
  0
VERTEX
  5
245C
  8
0
 10
118.62420161015611
 20
114.1562938765547
 30
0.0
  0
VERTEX
  5
245D
  8
0
 10
118.64717229282419
 20
114.04763976372659
 30
0.0
  0
VERTEX
  5
245E
  8
0
 10
118.66637668994809
 20
113.93921385206249
 30
0.0
  0
VERTEX
  5
245F
  8
0
 10
118.6818044111444
 20
113.8308669268803
 30
0.0
  0
VERTEX
  5
2460
  8
0
 10
118.6880958411991
 20
113.77667595735819
 30
0.0
  0
VERTEX
  5
2461
  8
0
 10
118.6934343221036
 20
113.7224478811538
 30
0.0
  0
VERTEX
  5
2462
  8
0
 10
118.701234241504
 20
113.61380296963959
 30
0.0
  0
VERTEX
  5
2463
  8
0
 10
118.7051605522967
 20
113.5047750261909
 30
0.0
  0
VERTEX
  5
2464
  8
0
 10
118.7056542308698
 20
113.45006716489181
 30
0.0
  0
SEQEND
  5
2465
  8
0
  0
POLYLINE
  5
2177
  8
0
 66
     1
 10
0.0
 20
0.0
 30
0.0
  0
VERTEX
  5
2466
  8
0
 10
118.7056542308698
 20
113.45006716489181
 30
0.0
  0
VERTEX
  5
2467
  8
0
 10
118.7051605522967
 20
113.3953593035927
 30
0.0
  0
VERTEX
  5
2468
  8
0
 10
118.701234241504
 20
113.28633136014381
 30
0.0
  0
VERTEX
  5
2469
  8
0
 10
118.6934343221036
 20
113.1776864486295
 30
0.0
  0
VERTEX
  5
246A
  8
0
 10
118.6880958411991
 20
113.1234583724253
 30
0.0
  0
VERTEX
  5
246B
  8
0
 10
118.6818044111444
 20
113.06926740290309
 30
0.0
  0
VERTEX
  5
246C
  8
0
 10
118.66637668994809
 20
112.9609204777209
 30
0.0
  0
VERTEX
  5
246D
  8
0
 10
118.64717229282419
 20
112.85249456605681
 30
0.0
  0
VERTEX
  5
246E
  8
0
 10
118.62420161015611
 20
112.7438404532287
 30
0.0
  0
VERTEX
  5
246F
  8
0
 10
118.5974645110128
 20
112.6348100996763
 30
0.0
  0
VERTEX
  5
2470
  8
0
 10
118.5669504892638
 20
112.52525594482201
 30
0.0
  0
VERTEX
  5
2471
  8
0
 10
118.5502710315991
 20
112.4702362921438
 30
0.0
  0
VERTEX
  5
2472
  8
0
 10
118.5326387360937
 20
112.4150302249009
 30
0.0
  0
VERTEX
  5
2473
  8
0
 10
118.49449814081269
 20
112.3039842979712
 30
0.0
  0
VERTEX
  5
2474
  8
0
 10
118.4524872209067
 20
112.191967969519
 30
0.0
  0
VERTEX
  5
2475
  8
0
 10
118.40655398135129
 20
112.0788288121699
 30
0.0
  0
VERTEX
  5
2476
  8
0
 10
118.3566357023076
 20
111.964411473002
 30
0.0
  0
VERTEX
  5
2477
  8
0
 10
118.3026586534009
 20
111.8485569618331
 30
0.0
  0
VERTEX
  5
2478
  8
0
 10
118.2741219513774
 20
111.7900399068816
 30
0.0
  0
VERTEX
  5
2479
  8
0
 10
118.2445377318481
 20
111.73110191362809
 30
0.0
  0
VERTEX
  5
247A
  8
0
 10
118.18217602070879
 20
111.6118778178238
 30
0.0
  0
VERTEX
  5
247B
  8
0
 10
118.11546426249051
 20
111.4907102069057
 30
0.0
  0
VERTEX
  5
247C
  8
0
 10
118.0804394485305
 20
111.429341222728
 30
0.0
  0
SEQEND
  5
247D
  8
0
  0
LINE
  5
2178
  8
0
 10
110.7056542308698
 20
111.429341222728
 30
0.0
 11
110.7056542308698
 21
127.5951487600376
 31
0.0
  0
LINE
  5
2179
  8
0
 10
118.0804394485305
 20
111.429341222728
 30
0.0
 11
110.7056542308698
 21
111.429341222728
 31
0.0
  0
LINE
  5
217A
  8
0
 10
118.0804394485305
 20
127.5951487600376
 30
0.0
 11
110.7056542308698
 21
127.5951487600376
 31
0.0
  0
LINE
  5
217B
  8
0
 10
112.70565423086801
 20
122.2122449913827
 30
0.0
 11
112.70565423086801
 21
116.8122449913828
 31
0.0
  0
LINE
  5
217C
  8
0
 10
119.059207621463
 20
116.8122449913827
 30
0.0
 11
112.7056542308698
 21
116.8122449913828
 31
0.0
  0
LINE
  5
217D
  8
0
 10
118.7056542308698
 20
116.5122449913827
 30
0.0
 11
112.00565423086969
 21
116.5122449913827
 31
0.0
  0
LINE
  5
217E
  8
0
 10
112.00565423086969
 20
116.5122449913827
 30
0.0
 11
112.00565423086969
 21
122.5122449913828
 31
0.0
  0
LINE
  5
217F
  8
0
 10
119.059207621463
 20
122.2122449913827
 30
0.0
 11
112.7056542308698
 21
122.2122449913827
 31
0.0
  0
LINE
  5
2180
  8
0
 10
112.00565423086969
 20
122.5122449913828
 30
0.0
 11
118.7056542308698
 21
122.5122449913828
 31
0.0
  0
LINE
  5
2181
  8
0
 10
118.7056542308698
 20
116.5122449913827
 30
0.0
 11
118.7056542308698
 21
112.5122449913828
 31
0.0
  0
LINE
  5
2182
  8
0
 10
119.0592076214631
 20
116.8122449913828
 30
0.0
 11
119.0592076214631
 21
112.5122449913828
 31
0.0
  0
ARC
  5
2183
  8
0
 10
110.30565423086981
 20
114.11224499138279
 30
0.0
 40
0.4
 50
0.0
 51
90.0
  0
ARC
  5
2184
  8
0
 10
110.30565423086981
 20
124.91224499138281
 30
0.0
 40
0.4
 50
270.0
 51
0.0
  0
TEXT
  5
2235
  8
0
 62
     3
 10
0.0
 20
0.0
 30
0.0
 40
5.0
  1
NDXNS12LW
  7
STANDARD1
  0
ENDSEC
  0
EOF
