  0
SECTION
  2
HEADER
  9
$ACADVER
  1
AC1009
  9
$INSBASE
 10
0.0
 20
0.0
 30
0.0
  9
$EXTMIN
 10
0.0
 20
-1.4802182810368341
 30
0.0
  9
$EXTMAX
 10
283.94906448350218
 20
196.43949601237489
 30
0.0
  9
$LIMMIN
 10
0.0
 20
0.0
  9
$LIMMAX
 10
187.5
 20
135.0
  9
$ORTHOMODE
 70
     1
  9
$REGENMODE
 70
     1
  9
$FILLMODE
 70
     1
  9
$QTEXTMODE
 70
     0
  9
$MIRRTEXT
 70
     0
  9
$DRAGMODE
 70
     2
  9
$LTSCALE
 40
5.0
  9
$OSMODE
 70
  3071
  9
$ATTMODE
 70
     1
  9
$TEXTSIZE
 40
4.0
  9
$TRACEWID
 40
0.05
  9
$TEXTSTYLE
  7
STANDARD
  9
$CLAYER
  8
0
  9
$CELTYPE
  6
BYLAYER
  9
$CECOLOR
 62
   256
  9
$DIMSCALE
 40
0.5
  9
$DIMASZ
 40
3.0
  9
$DIMEXO
 40
2.0
  9
$DIMDLI
 40
0.38
  9
$DIMRND
 40
0.0
  9
$DIMDLE
 40
0.0
  9
$DIMEXE
 40
2.0
  9
$DIMTP
 40
0.0
  9
$DIMTM
 40
0.0
  9
$DIMTXT
 40
3.0
  9
$DIMCEN
 40
0.0
  9
$DIMTSZ
 40
0.0
  9
$DIMTOL
 70
     0
  9
$DIMLIM
 70
     0
  9
$DIMTIH
 70
     0
  9
$DIMTOH
 70
     0
  9
$DIMSE1
 70
     0
  9
$DIMSE2
 70
     0
  9
$DIMTAD
 70
     1
  9
$DIMZIN
 70
     0
  9
$DIMBLK
  1

  9
$DIMASO
 70
     0
  9
$DIMSHO
 70
     0
  9
$DIMPOST
  1

  9
$DIMAPOST
  1

  9
$DIMALT
 70
     0
  9
$DIMALTD
 70
     2
  9
$DIMALTF
 40
25.399999999999999
  9
$DIMLFAC
 40
1.0
  9
$DIMTOFL
 70
     0
  9
$DIMTVP
 40
1.6000000000000001
  9
$DIMTIX
 70
     1
  9
$DIMSOXD
 70
     0
  9
$DIMSAH
 70
     0
  9
$DIMBLK1
  1

  9
$DIMBLK2
  1

  9
$DIMSTYLE
  2
STANDARD
  9
$DIMCLRD
 70
     0
  9
$DIMCLRE
 70
     0
  9
$DIMCLRT
 70
     0
  9
$DIMTFAC
 40
1.0
  9
$DIMGAP
 40
0.09
  9
$LUNITS
 70
     2
  9
$LUPREC
 70
     4
  9
$SKETCHINC
 40
0.1
  9
$FILLETRAD
 40
1.0
  9
$AUNITS
 70
     0
  9
$AUPREC
 70
     0
  9
$MENU
  1
E:\r13\win\SUPPORT\ACAD
  9
$ELEVATION
 40
0.0
  9
$PELEVATION
 40
0.0
  9
$THICKNESS
 40
0.0
  9
$LIMCHECK
 70
     0
  9
$BLIPMODE
 70
     0
  9
$CHAMFERA
 40
0.0
  9
$CHAMFERB
 40
0.0
  9
$SKPOLY
 70
     0
  9
$TDCREATE
 40
2449840.6143865739
  9
$TDUPDATE
 40
2456597.689808785
  9
$TDINDWG
 40
0.2429498843
  9
$TDUSRTIMER
 40
0.2429498843
  9
$USRTIMER
 70
     1
  9
$ANGBASE
 50
0.0
  9
$ANGDIR
 70
     0
  9
$PDMODE
 70
     0
  9
$PDSIZE
 40
0.0
  9
$PLINEWID
 40
0.0
  9
$COORDS
 70
     1
  9
$SPLFRAME
 70
     0
  9
$SPLINETYPE
 70
     6
  9
$SPLINESEGS
 70
     8
  9
$ATTDIA
 70
     0
  9
$ATTREQ
 70
     1
  9
$HANDLING
 70
     1
  9
$HANDSEED
  5
227A
  9
$SURFTAB1
 70
     6
  9
$SURFTAB2
 70
     6
  9
$SURFTYPE
 70
     6
  9
$SURFU
 70
     6
  9
$SURFV
 70
     6
  9
$UCSNAME
  2

  9
$UCSORG
 10
0.0
 20
0.0
 30
0.0
  9
$UCSXDIR
 10
1.0
 20
0.0
 30
0.0
  9
$UCSYDIR
 10
0.0
 20
1.0
 30
0.0
  9
$PUCSNAME
  2

  9
$PUCSORG
 10
0.0
 20
0.0
 30
0.0
  9
$PUCSXDIR
 10
1.0
 20
0.0
 30
0.0
  9
$PUCSYDIR
 10
0.0
 20
1.0
 30
0.0
  9
$USERI1
 70
     0
  9
$USERI2
 70
     1
  9
$USERI3
 70
     1
  9
$USERI4
 70
     0
  9
$USERI5
 70
     0
  9
$USERR1
 40
0.0
  9
$USERR2
 40
0.0
  9
$USERR3
 40
0.0
  9
$USERR4
 40
0.0
  9
$USERR5
 40
0.0
  9
$WORLDVIEW
 70
     1
  9
$SHADEDGE
 70
     3
  9
$SHADEDIF
 70
    70
  9
$TILEMODE
 70
     1
  9
$MAXACTVP
 70
    16
  9
$PLIMCHECK
 70
     0
  9
$PEXTMIN
 10
1.0000000000000000E+020
 20
1.0000000000000000E+020
 30
1.0000000000000000E+020
  9
$PEXTMAX
 10
-1.0000000000000000E+020
 20
-1.0000000000000000E+020
 30
-1.0000000000000000E+020
  9
$PLIMMIN
 10
0.0
 20
0.0
  9
$PLIMMAX
 10
12.0
 20
9.0
  9
$UNITMODE
 70
     0
  9
$VISRETAIN
 70
     0
  9
$PLINEGEN
 70
     0
  9
$PSLTSCALE
 70
     0
  0
ENDSEC
  0
SECTION
  2
TABLES
  0
TABLE
  2
VPORT
 70
     1
  0
VPORT
  2
*ACTIVE
 70
     0
 10
0.0
 20
0.0
 11
1.0
 21
1.0
 12
141.9745329028716
 22
97.906376060004376
 13
0.0
 23
0.0
 14
5.0
 24
5.0
 15
5.0
 25
5.0
 16
0.0
 26
0.0
 36
1.0
 17
0.0
 27
0.0
 37
0.0
 40
201.0673128597582
 41
2.304913294797688
 42
50.0
 43
0.0
 44
0.0
 50
0.0
 51
0.0
 71
     0
 72
   100
 73
     1
 74
     0
 75
     0
 76
     0
 77
     0
 78
     0
  0
ENDTAB
  0
TABLE
  2
LTYPE
 70
     4
  0
LTYPE
  2
CONTINUOUS
 70
     0
  3
Solid Line
 72
    65
 73
     0
 40
0.0
  0
LTYPE
  2
CENTER
 70
     0
  3
____ _ ____ _ ____ _ ____ _ ____ _ ____ _ ____
 72
    65
 73
     4
 40
2.0
 49
1.25
 49
-0.25
 49
0.25
 49
-0.25
  0
LTYPE
  2
HIDDEN
 70
     0
  3
_ _ _ _ _ _ _ _ _ _ _ _ _ _ _ _ _ _ _ _ _ _ _
 72
    65
 73
     2
 40
0.375
 49
0.25
 49
-0.125
  0
LTYPE
  2
PHANTOM2
 70
     0
  3
___ _ _ ___ _ _ ___ _ _ ___ _ _
 72
    65
 73
     6
 40
1.25
 49
0.625
 49
-0.125
 49
0.125
 49
-0.125
 49
0.125
 49
-0.125
  0
ENDTAB
  0
TABLE
  2
LAYER
 70
     4
  0
LAYER
  2
0
 70
     0
 62
     7
  6
CONTINUOUS
  0
LAYER
  2
1
 70
     0
 62
     1
  6
CENTER
  0
LAYER
  2
3
 70
     0
 62
     3
  6
CONTINUOUS
  0
LAYER
  2
2
 70
     0
 62
     2
  6
HIDDEN
  0
ENDTAB
  0
TABLE
  2
STYLE
 70
     2
  0
STYLE
  2
STANDARD
 70
     0
 40
0.0
 41
1.0
 50
0.0
 71
     0
 42
4.0
  3
TXT
  4
BIGFONT
  0
STYLE
  2
STANDARD1
 70
     0
 40
0.0
 41
1.0
 50
0.0
 71
     0
 42
3.0
  3
txt
  4

  0
ENDTAB
  0
TABLE
  2
VIEW
 70
     1
  0
VIEW
  2
ALL
 70
     0
 40
179.66152299999999
 10
141.903918
 20
89.830760999999995
 41
0.0
 11
0.0
 21
0.0
 31
1.0
 12
0.0
 22
0.0
 32
0.0
 42
0.0
 43
0.0
 44
0.0
 50
0.0
 71
     0
  0
ENDTAB
  0
TABLE
  2
UCS
 70
     0
  0
ENDTAB
  0
TABLE
  2
APPID
 70
     4
  0
APPID
  2
ACAD
 70
     0
  0
APPID
  2
DCO15
 70
     0
  0
APPID
  2
ACAD_MLEADERVER
 70
     0
  0
APPID
  2
ACAD_NAV_VCDISPLAY
 70
     0
  0
ENDTAB
  0
TABLE
  2
DIMSTYLE
 70
     1
  0
DIMSTYLE
  2
STANDARD
 70
     0
  3

  4

  5

  6

  7

 40
1.0
 41
0.18
 42
0.0625
 43
0.38
 44
0.18
 45
0.0
 46
0.0
 47
0.0
 48
0.0
140
0.18
141
0.09
142
0.0
143
25.399999999999999
144
1.0
145
0.0
146
1.0
147
0.09
 71
     0
 72
     0
 73
     1
 74
     1
 75
     0
 76
     0
 77
     0
 78
     0
170
     0
171
     2
172
     0
173
     0
174
     0
175
     0
176
     0
177
     0
178
     0
  0
ENDTAB
  0
ENDSEC
  0
SECTION
  2
BLOCKS
  0
BLOCK
  8
0
  2
$MODEL_SPACE
 70
     0
 10
0.0
 20
0.0
 30
0.0
  3
$MODEL_SPACE
  1

  0
ENDBLK
  5
1BD
  8
0
  0
BLOCK
 67
     1
  8
0
  2
$PAPER_SPACE
 70
     0
 10
0.0
 20
0.0
 30
0.0
  3
$PAPER_SPACE
  1

  0
ENDBLK
  5
1BB
 67
     1
  8
0
  0
ENDSEC
  0
SECTION
  2
ENTITIES
  0
ARC
  5
1831
  8
2
 10
218.24906448350211
 20
174.93949601237489
 30
0.0
 40
26.0
 50
149.0584544146536
 51
210.9415455853464
  0
ARC
  5
1832
  8
0
 10
193.94906448350221
 20
188.93949601237489
 30
0.0
 40
2.5000000000000169
 50
36.869897645845327
 51
90.0
  0
ARC
  5
1833
  8
0
 10
193.94906448350221
 20
160.93949601237489
 30
0.0
 40
2.5000000000000151
 50
270.0
 51
323.1301023541547
  0
LINE
  5
1834
  8
0
 10
193.63837823484499
 20
158.43949601237489
 30
0.0
 11
193.94906448350221
 21
158.43949601237489
 31
0.0
  0
LINE
  5
1835
  8
0
 10
193.94906448350221
 20
191.43949601237489
 30
0.0
 11
193.63837823484499
 21
191.43949601237489
 31
0.0
  0
LINE
  5
1836
  8
0
 10
184.3490644835021
 20
165.43949601237489
 30
0.0
 11
193.63837823484499
 21
158.43949601237489
 31
0.0
  0
LINE
  5
1837
  8
0
 10
193.63837823484499
 20
191.43949601237489
 30
0.0
 11
184.3490644835021
 21
184.43949601237489
 31
0.0
  0
LINE
  5
1838
  8
0
 10
172.51474990845139
 20
165.43949601237489
 30
0.0
 11
184.3490644835021
 21
165.43949601237489
 31
0.0
  0
LINE
  5
1839
  8
0
 10
184.3490644835021
 20
184.43949601237489
 30
0.0
 11
172.51474990845139
 21
184.43949601237489
 31
0.0
  0
LINE
  5
183C
  8
0
 10
144.2490644835022
 20
170.93949601237489
 30
0.0
 11
149.94906448350221
 21
170.93949601237489
 31
0.0
  0
LINE
  5
183D
  8
0
 10
149.94906448350221
 20
178.93949601237489
 30
0.0
 11
144.2490644835022
 21
178.93949601237489
 31
0.0
  0
LINE
  5
183E
  8
0
 10
142.53771107794071
 20
171.92754636175439
 30
0.0
 11
144.2490644835022
 21
170.93949601237489
 31
0.0
  0
LINE
  5
183F
  8
0
 10
144.2490644835022
 20
178.93949601237489
 30
0.0
 11
142.53771107794071
 21
177.95144566299541
 31
0.0
  0
LINE
  5
1840
  8
0
 10
150.8690644835022
 20
166.93949601237489
 30
0.0
 11
158.14906448350209
 21
166.93949601237489
 31
0.0
  0
LINE
  5
1841
  8
0
 10
158.14906448350209
 20
182.93949601237489
 30
0.0
 11
150.8690644835022
 21
182.93949601237489
 31
0.0
  0
LINE
  5
1842
  8
0
 10
149.94906448350221
 20
167.8594960123749
 30
0.0
 11
150.8690644835022
 21
166.93949601237489
 31
0.0
  0
LINE
  5
1843
  8
0
 10
150.8690644835022
 20
182.93949601237489
 30
0.0
 11
149.94906448350221
 21
182.0194960123749
 31
0.0
  0
LINE
  5
1846
  8
0
 10
195.9490644835021
 20
190.43949601237489
 30
0.0
 11
195.9490644835021
 21
159.43949601237489
 31
0.0
  0
LINE
  5
1847
  8
0
 10
193.94906448350221
 20
191.43949601237489
 30
0.0
 11
193.94906448350221
 21
158.43949601237489
 31
0.0
  0
LINE
  5
1848
  8
0
 10
193.63837823484499
 20
191.43949601237489
 30
0.0
 11
193.63837823484499
 21
158.43949601237489
 31
0.0
  0
LINE
  5
1849
  8
0
 10
184.3490644835021
 20
184.43949601237489
 30
0.0
 11
184.3490644835021
 21
165.43949601237489
 31
0.0
  0
LINE
  5
184B
  8
0
 10
144.2490644835022
 20
178.93949601237489
 30
0.0
 11
144.2490644835022
 21
170.93949601237489
 31
0.0
  0
LINE
  5
184D
  8
0
 10
150.8690644835022
 20
182.93949601237489
 30
0.0
 11
150.8690644835022
 21
166.93949601237489
 31
0.0
  0
LINE
  5
184E
  8
0
 10
149.94906448350221
 20
182.0194960123749
 30
0.0
 11
149.94906448350221
 21
167.8594960123749
 31
0.0
  0
LINE
  5
185B
  8
3
 10
149.94906448350221
 20
167.8594960123749
 30
0.0
 11
158.74379668796149
 21
167.8594960123749
 31
0.0
  0
LINE
  5
185C
  8
3
 10
149.94906448350221
 20
182.0194960123749
 30
0.0
 11
158.74379668796161
 21
182.0194960123749
 31
0.0
  0
LINE
  5
185D
  8
1
 10
200.94906448350221
 20
174.93949601237489
 30
0.0
 11
136.94906448350221
 21
174.93949601237489
 31
0.0
  0
CIRCLE
  5
1864
  8
0
 10
75.449064483502184
 20
174.93949601237489
 30
0.0
 40
16.499999999999989
  0
CIRCLE
  5
1866
  8
0
 10
75.449064483502184
 20
174.93949601237489
 30
0.0
 40
8.0
  0
CIRCLE
  5
1867
  8
0
 10
75.449064483502184
 20
174.93949601237489
 30
0.0
 40
3.999999999999996
  0
CIRCLE
  5
1868
  8
3
 10
75.449064483502184
 20
174.93949601237489
 30
0.0
 40
7.0799999999999983
  0
LINE
  5
1869
  8
1
 10
53.949064483502177
 20
174.93949601237489
 30
0.0
 11
96.949064483502184
 21
174.93949601237489
 31
0.0
  0
LINE
  5
186A
  8
1
 10
75.449064483502184
 20
153.43949601237489
 30
0.0
 11
75.449064483502184
 21
196.43949601237489
 31
0.0
  0
LINE
  5
193B
  8
1
 10
262.44906448350218
 20
153.43949601237489
 30
0.0
 11
262.44906448350218
 21
196.43949601237489
 31
0.0
  0
LINE
  5
193C
  8
1
 10
240.94906448350221
 20
174.93949601237489
 30
0.0
 11
283.94906448350218
 21
174.93949601237489
 31
0.0
  0
CIRCLE
  5
193D
  8
0
 10
262.44906448350218
 20
174.93949601237489
 30
0.0
 40
16.499999999999989
  0
CIRCLE
  5
193E
  8
0
 10
262.44906448350218
 20
174.93949601237489
 30
0.0
 40
15.5
  0
CIRCLE
  5
193F
  8
0
 10
262.44906448350218
 20
174.93949601237489
 30
0.0
 40
13.36824595823999
  0
LINE
  5
1940
  8
1
 10
200.94906448350221
 20
104.9394960123749
 30
0.0
 11
136.94906448350221
 21
104.9394960123749
 31
0.0
  0
LINE
  5
1941
  8
0
 10
149.94906448350221
 20
112.0194960123749
 30
0.0
 11
149.94906448350221
 21
97.859496012374905
 31
0.0
  0
LINE
  5
1942
  8
0
 10
150.8690644835022
 20
112.9394960123749
 30
0.0
 11
150.8690644835022
 21
96.939496012374946
 31
0.0
  0
LINE
  5
1945
  8
0
 10
172.51474990845139
 20
114.4394960123749
 30
0.0
 11
172.51474990845139
 21
95.439496012374946
 31
0.0
  0
LINE
  5
1946
  8
0
 10
184.3490644835021
 20
114.4394960123749
 30
0.0
 11
184.3490644835021
 21
95.439496012374946
 31
0.0
  0
LINE
  5
1947
  8
0
 10
193.63837823484499
 20
121.4394960123749
 30
0.0
 11
193.63837823484499
 21
88.439496012374946
 31
0.0
  0
LINE
  5
1948
  8
0
 10
193.94906448350221
 20
121.4394960123749
 30
0.0
 11
193.94906448350221
 21
88.439496012374946
 31
0.0
  0
LINE
  5
1949
  8
0
 10
195.9490644835021
 20
120.4394960123749
 30
0.0
 11
195.9490644835021
 21
89.439496012374946
 31
0.0
  0
LINE
  5
194A
  8
0
 10
150.8690644835022
 20
112.9394960123749
 30
0.0
 11
149.94906448350221
 21
112.0194960123749
 31
0.0
  0
LINE
  5
194B
  8
0
 10
149.94906448350221
 20
97.859496012374905
 30
0.0
 11
150.8690644835022
 21
96.939496012374946
 31
0.0
  0
LINE
  5
1950
  8
0
 10
172.51474990845139
 20
114.4394960123749
 30
0.0
 11
171.94906448350221
 21
113.8738105874256
 31
0.0
  0
LINE
  5
1951
  8
0
 10
171.94906448350221
 20
96.005181437324225
 30
0.0
 11
172.51474990845139
 21
95.439496012374946
 31
0.0
  0
LINE
  5
1952
  8
0
 10
184.3490644835021
 20
114.4394960123749
 30
0.0
 11
172.51474990845139
 21
114.4394960123749
 31
0.0
  0
LINE
  5
1953
  8
0
 10
172.51474990845139
 20
95.439496012374946
 30
0.0
 11
184.3490644835021
 21
95.439496012374946
 31
0.0
  0
LINE
  5
1954
  8
0
 10
193.63837823484499
 20
121.4394960123749
 30
0.0
 11
184.3490644835021
 21
114.4394960123749
 31
0.0
  0
LINE
  5
1955
  8
0
 10
184.3490644835021
 20
95.439496012374946
 30
0.0
 11
193.63837823484499
 21
88.439496012374946
 31
0.0
  0
LINE
  5
1956
  8
0
 10
193.94906448350221
 20
121.4394960123749
 30
0.0
 11
193.63837823484499
 21
121.4394960123749
 31
0.0
  0
LINE
  5
1957
  8
0
 10
193.63837823484499
 20
88.439496012374946
 30
0.0
 11
193.94906448350221
 21
88.439496012374946
 31
0.0
  0
ARC
  5
1958
  8
0
 10
193.94906448350221
 20
90.939496012374946
 30
0.0
 40
2.5000000000000151
 50
270.0
 51
323.1301023541547
  0
ARC
  5
1959
  8
0
 10
193.94906448350221
 20
118.9394960123749
 30
0.0
 40
2.5000000000000169
 50
36.869897645845327
 51
90.0
  0
ARC
  5
195A
  8
2
 10
218.24906448350211
 20
104.9394960123749
 30
0.0
 40
26.0
 50
149.0584544146536
 51
210.9415455853464
  0
LINE
  5
195B
  8
0
 10
171.10055870747021
 20
104.9394960123749
 30
0.0
 11
161.94906448350221
 21
104.9394960123749
 31
0.0
  0
POLYLINE
  5
195C
  8
0
 66
     1
 10
0.0
 20
0.0
 30
0.0
  0
VERTEX
  5
2170
  8
0
 10
171.94906448350221
 20
109.6894960123749
 30
0.0
  0
VERTEX
  5
2171
  8
0
 10
171.94840338634859
 20
109.56175408172069
 30
0.0
  0
VERTEX
  5
2172
  8
0
 10
171.9431408827362
 20
109.30702558267789
 30
0.0
  0
VERTEX
  5
2173
  8
0
 10
171.93267474093781
 20
109.0529965970015
 30
0.0
  0
VERTEX
  5
2174
  8
0
 10
171.92550545664889
 20
108.9261309548083
 30
0.0
  0
VERTEX
  5
2175
  8
0
 10
171.9170515500328
 20
108.7993048804438
 30
0.0
  0
VERTEX
  5
2176
  8
0
 10
171.8963028830336
 20
108.5455944516782
 30
0.0
  0
VERTEX
  5
2177
  8
0
 10
171.87044570067101
 20
108.2915138401159
 30
0.0
  0
VERTEX
  5
2178
  8
0
 10
171.83948264637559
 20
108.03671439853581
 30
0.0
  0
VERTEX
  5
2179
  8
0
 10
171.80340223756801
 20
107.780848662872
 30
0.0
  0
VERTEX
  5
217A
  8
0
 10
171.7621789569144
 20
107.5235687424951
 30
0.0
  0
VERTEX
  5
217B
  8
0
 10
171.7396269282425
 20
107.39428923796579
 30
0.0
  0
VERTEX
  5
217C
  8
0
 10
171.7157732458582
 20
107.26452472502071
 30
0.0
  0
VERTEX
  5
217D
  8
0
 10
171.66413140144391
 20
107.00336308009381
 30
0.0
  0
VERTEX
  5
217E
  8
0
 10
171.60718537619579
 20
106.7397250467545
 30
0.0
  0
VERTEX
  5
217F
  8
0
 10
171.5448524795662
 20
106.47324498888609
 30
0.0
  0
VERTEX
  5
2180
  8
0
 10
171.47703497820621
 20
106.2035487028925
 30
0.0
  0
VERTEX
  5
2181
  8
0
 10
171.4036195910013
 20
105.9302516611256
 30
0.0
  0
VERTEX
  5
2182
  8
0
 10
171.36477288939031
 20
105.7921294185558
 30
0.0
  0
VERTEX
  5
2183
  8
0
 10
171.32447687344199
 20
105.6529571736948
 30
0.0
  0
VERTEX
  5
2184
  8
0
 10
171.2394604844157
 20
105.37125445009021
 30
0.0
  0
VERTEX
  5
2185
  8
0
 10
171.1484063269034
 20
105.08471654054379
 30
0.0
  0
VERTEX
  5
2186
  8
0
 10
171.10055870747021
 20
104.9394960123749
 30
0.0
  0
SEQEND
  5
2187
  8
0
  0
POLYLINE
  5
195D
  8
0
 66
     1
 10
0.0
 20
0.0
 30
0.0
  0
VERTEX
  5
2188
  8
0
 10
171.10055870747021
 20
114.4394960123749
 30
0.0
  0
VERTEX
  5
2189
  8
0
 10
171.1484063269034
 20
114.294275484206
 30
0.0
  0
VERTEX
  5
218A
  8
0
 10
171.2394604844157
 20
114.0077375746596
 30
0.0
  0
VERTEX
  5
218B
  8
0
 10
171.32447687344199
 20
113.7260348510551
 30
0.0
  0
VERTEX
  5
218C
  8
0
 10
171.36477288939031
 20
113.5868626061941
 30
0.0
  0
VERTEX
  5
218D
  8
0
 10
171.4036195910013
 20
113.4487403636241
 30
0.0
  0
VERTEX
  5
218E
  8
0
 10
171.47703497820621
 20
113.1754433218573
 30
0.0
  0
VERTEX
  5
218F
  8
0
 10
171.5448524795662
 20
112.9057470358636
 30
0.0
  0
VERTEX
  5
2190
  8
0
 10
171.60718537619579
 20
112.63926697799531
 30
0.0
  0
VERTEX
  5
2191
  8
0
 10
171.66413140144391
 20
112.375628944656
 30
0.0
  0
VERTEX
  5
2192
  8
0
 10
171.7157732458582
 20
112.1144672997291
 30
0.0
  0
VERTEX
  5
2193
  8
0
 10
171.7396269282425
 20
111.984702786784
 30
0.0
  0
VERTEX
  5
2194
  8
0
 10
171.7621789569144
 20
111.85542328225461
 30
0.0
  0
VERTEX
  5
2195
  8
0
 10
171.80340223756801
 20
111.5981433618778
 30
0.0
  0
VERTEX
  5
2196
  8
0
 10
171.83948264637559
 20
111.342277626214
 30
0.0
  0
VERTEX
  5
2197
  8
0
 10
171.87044570067101
 20
111.08747818463399
 30
0.0
  0
VERTEX
  5
2198
  8
0
 10
171.8963028830336
 20
110.83339757307159
 30
0.0
  0
VERTEX
  5
2199
  8
0
 10
171.9170515500328
 20
110.57968714430589
 30
0.0
  0
VERTEX
  5
219A
  8
0
 10
171.92550545664889
 20
110.45286106994141
 30
0.0
  0
VERTEX
  5
219B
  8
0
 10
171.93267474093781
 20
110.3259954277483
 30
0.0
  0
VERTEX
  5
219C
  8
0
 10
171.9431408827362
 20
110.0719664420718
 30
0.0
  0
VERTEX
  5
219D
  8
0
 10
171.94840338634859
 20
109.8172379430292
 30
0.0
  0
VERTEX
  5
219E
  8
0
 10
171.94906448350221
 20
109.6894960123749
 30
0.0
  0
SEQEND
  5
219F
  8
0
  0
LINE
  5
195E
  8
0
 10
171.94906448350221
 20
114.4394960123749
 30
0.0
 11
161.94906448350221
 21
114.4394960123749
 31
0.0
  0
POLYLINE
  5
195F
  8
0
 66
     1
 10
0.0
 20
0.0
 30
0.0
  0
VERTEX
  5
21A0
  8
0
 10
171.94906448350221
 20
100.1894960123749
 30
0.0
  0
VERTEX
  5
21A1
  8
0
 10
171.94840338634859
 20
100.3172379430292
 30
0.0
  0
VERTEX
  5
21A2
  8
0
 10
171.9431408827362
 20
100.5719664420718
 30
0.0
  0
VERTEX
  5
21A3
  8
0
 10
171.93267474093781
 20
100.8259954277483
 30
0.0
  0
VERTEX
  5
21A4
  8
0
 10
171.92550545664889
 20
100.95286106994141
 30
0.0
  0
VERTEX
  5
21A5
  8
0
 10
171.9170515500328
 20
101.07968714430589
 30
0.0
  0
VERTEX
  5
21A6
  8
0
 10
171.8963028830336
 20
101.33339757307159
 30
0.0
  0
VERTEX
  5
21A7
  8
0
 10
171.87044570067101
 20
101.58747818463399
 30
0.0
  0
VERTEX
  5
21A8
  8
0
 10
171.83948264637559
 20
101.8422776262139
 30
0.0
  0
VERTEX
  5
21A9
  8
0
 10
171.80340223756801
 20
102.0981433618778
 30
0.0
  0
VERTEX
  5
21AA
  8
0
 10
171.7621789569144
 20
102.35542328225461
 30
0.0
  0
VERTEX
  5
21AB
  8
0
 10
171.7396269282425
 20
102.484702786784
 30
0.0
  0
VERTEX
  5
21AC
  8
0
 10
171.7157732458582
 20
102.6144672997291
 30
0.0
  0
VERTEX
  5
21AD
  8
0
 10
171.66413140144391
 20
102.875628944656
 30
0.0
  0
VERTEX
  5
21AE
  8
0
 10
171.60718537619579
 20
103.13926697799531
 30
0.0
  0
VERTEX
  5
21AF
  8
0
 10
171.5448524795662
 20
103.4057470358636
 30
0.0
  0
VERTEX
  5
21B0
  8
0
 10
171.47703497820621
 20
103.6754433218573
 30
0.0
  0
VERTEX
  5
21B1
  8
0
 10
171.4036195910013
 20
103.9487403636241
 30
0.0
  0
VERTEX
  5
21B2
  8
0
 10
171.36477288939031
 20
104.0868626061941
 30
0.0
  0
VERTEX
  5
21B3
  8
0
 10
171.32447687344199
 20
104.2260348510551
 30
0.0
  0
VERTEX
  5
21B4
  8
0
 10
171.2394604844157
 20
104.5077375746596
 30
0.0
  0
VERTEX
  5
21B5
  8
0
 10
171.1484063269034
 20
104.794275484206
 30
0.0
  0
VERTEX
  5
21B6
  8
0
 10
171.10055870747021
 20
104.9394960123749
 30
0.0
  0
SEQEND
  5
21B7
  8
0
  0
POLYLINE
  5
1960
  8
0
 66
     1
 10
0.0
 20
0.0
 30
0.0
  0
VERTEX
  5
21B8
  8
0
 10
171.10055870747021
 20
95.439496012374946
 30
0.0
  0
VERTEX
  5
21B9
  8
0
 10
171.1484063269034
 20
95.584716540543866
 30
0.0
  0
VERTEX
  5
21BA
  8
0
 10
171.2394604844157
 20
95.871254450090248
 30
0.0
  0
VERTEX
  5
21BB
  8
0
 10
171.32447687344199
 20
96.152957173694801
 30
0.0
  0
VERTEX
  5
21BC
  8
0
 10
171.36477288939031
 20
96.292129418555703
 30
0.0
  0
VERTEX
  5
21BD
  8
0
 10
171.4036195910013
 20
96.430251661125624
 30
0.0
  0
VERTEX
  5
21BE
  8
0
 10
171.47703497820621
 20
96.703548702892533
 30
0.0
  0
VERTEX
  5
21BF
  8
0
 10
171.5448524795662
 20
96.973244988886165
 30
0.0
  0
VERTEX
  5
21C0
  8
0
 10
171.60718537619579
 20
97.239725046754472
 30
0.0
  0
VERTEX
  5
21C1
  8
0
 10
171.66413140144391
 20
97.503363080093834
 30
0.0
  0
VERTEX
  5
21C2
  8
0
 10
171.7157732458582
 20
97.764524725020749
 30
0.0
  0
VERTEX
  5
21C3
  8
0
 10
171.7396269282425
 20
97.894289237965765
 30
0.0
  0
VERTEX
  5
21C4
  8
0
 10
171.7621789569144
 20
98.023568742495115
 30
0.0
  0
VERTEX
  5
21C5
  8
0
 10
171.80340223756801
 20
98.280848662872074
 30
0.0
  0
VERTEX
  5
21C6
  8
0
 10
171.83948264637559
 20
98.536714398535835
 30
0.0
  0
VERTEX
  5
21C7
  8
0
 10
171.87044570067101
 20
98.791513840115897
 30
0.0
  0
VERTEX
  5
21C8
  8
0
 10
171.8963028830336
 20
99.045594451678141
 30
0.0
  0
VERTEX
  5
21C9
  8
0
 10
171.9170515500328
 20
99.299304880443799
 30
0.0
  0
VERTEX
  5
21CA
  8
0
 10
171.92550545664889
 20
99.426130954808343
 30
0.0
  0
VERTEX
  5
21CB
  8
0
 10
171.93267474093781
 20
99.552996597001481
 30
0.0
  0
VERTEX
  5
21CC
  8
0
 10
171.9431408827362
 20
99.807025582677909
 30
0.0
  0
VERTEX
  5
21CD
  8
0
 10
171.94840338634859
 20
100.06175408172069
 30
0.0
  0
VERTEX
  5
21CE
  8
0
 10
171.94906448350221
 20
100.1894960123749
 30
0.0
  0
SEQEND
  5
21CF
  8
0
  0
LINE
  5
1961
  8
0
 10
171.94906448350221
 20
95.439496012374946
 30
0.0
 11
161.94906448350221
 21
95.439496012374946
 31
0.0
  0
LINE
  5
1962
  8
0
 10
161.94906448350221
 20
95.439496012374946
 30
0.0
 11
161.94906448350221
 21
114.4394960123749
 31
0.0
  0
LINE
  5
1963
  8
0
 10
171.94906448350221
 20
114.4394960123749
 30
0.0
 11
171.94906448350221
 21
95.439496012374946
 31
0.0
  0
LINE
  5
19BD
  8
0
 10
161.4490644835021
 20
181.93949601237489
 30
0.0
 11
159.01508988728651
 21
181.939496012375
 31
0.0
  0
LINE
  5
19BE
  8
0
 10
158.14906448350209
 20
182.93949601237489
 30
0.0
 11
158.5820771853943
 21
182.189496012375
 31
0.0
  0
LINE
  5
19BF
  8
0
 10
158.14906448350209
 20
182.93949601237489
 30
0.0
 11
158.14906448350209
 21
166.93949601237671
 31
0.0
  0
ARC
  5
19C0
  8
0
 10
159.01508988728651
 20
182.439496012375
 30
0.0
 40
0.5
 50
209.99999999999801
 51
270.0
  0
ARC
  5
19C3
  8
0
 10
159.01508988728651
 20
167.43949601237489
 30
0.0
 40
0.5
 50
90.0
 51
150.00000000000199
  0
LINE
  5
19C4
  8
0
 10
158.14906448350209
 20
166.93949601237489
 30
0.0
 11
158.5820771853943
 21
167.6894960123748
 31
0.0
  0
LINE
  5
19C5
  8
0
 10
161.4490644835021
 20
167.93949601237489
 30
0.0
 11
159.01508988728651
 21
167.93949601237489
 31
0.0
  0
LINE
  5
19C6
  8
0
 10
161.44906448350201
 20
97.939496012374946
 30
0.0
 11
159.01508988728651
 21
97.939496012374946
 31
0.0
  0
LINE
  5
19C7
  8
0
 10
158.14906448350209
 20
96.939496012375002
 30
0.0
 11
158.58207718539421
 21
97.689496012374889
 31
0.0
  0
ARC
  5
19C8
  8
0
 10
159.01508988728651
 20
97.439496012374946
 30
0.0
 40
0.5
 50
90.0
 51
150.00000000000199
  0
ARC
  5
19C9
  8
0
 10
161.44906448350201
 20
97.439496012374946
 30
0.0
 40
0.5
 50
0.0
 51
90.000000000001606
  0
LINE
  5
19CA
  8
0
 10
158.14906448350209
 20
112.9394960123749
 30
0.0
 11
158.14906448350209
 21
96.939496012376836
 31
0.0
  0
LINE
  5
19CB
  8
3
 10
149.94906448350221
 20
97.859496012374976
 30
0.0
 11
158.74379668796161
 21
97.859496012374976
 31
0.0
  0
LINE
  5
19CC
  8
0
 10
150.86906448350209
 20
96.939496012374946
 30
0.0
 11
158.14906448350209
 21
96.939496012374946
 31
0.0
  0
ARC
  5
19CD
  8
0
 10
161.44906448350201
 20
112.4394960123749
 30
0.0
 40
0.5
 50
269.99999999999841
 51
0.0
  0
ARC
  5
19CE
  8
0
 10
159.01508988728651
 20
112.439496012375
 30
0.0
 40
0.5
 50
209.99999999999801
 51
270.0
  0
LINE
  5
19CF
  8
0
 10
158.14906448350209
 20
112.9394960123749
 30
0.0
 11
158.58207718539421
 21
112.189496012375
 31
0.0
  0
LINE
  5
19D0
  8
0
 10
161.44906448350201
 20
111.9394960123749
 30
0.0
 11
159.01508988728651
 21
111.939496012375
 31
0.0
  0
LINE
  5
19D1
  8
3
 10
149.94906448350221
 20
112.0194960123749
 30
0.0
 11
158.74379668796161
 21
112.0194960123749
 31
0.0
  0
LINE
  5
19D2
  8
0
 10
158.14906448350209
 20
112.9394960123749
 30
0.0
 11
150.86906448350209
 21
112.9394960123749
 31
0.0
  0
LINE
  5
1AE3
  8
0
 10
84.949064475768296
 20
180.4243235652153
 30
0.0
 11
84.949064475768296
 21
169.4546684506127
 31
0.0
  0
LINE
  5
1AE4
  8
0
 10
84.94906447576102
 20
169.4546684595357
 30
0.0
 11
75.449064475768296
 21
163.9698409022335
 31
0.0
  0
LINE
  5
1AE5
  8
0
 10
75.449064483502639
 20
163.9698409067046
 30
0.0
 11
65.949064483502639
 21
169.4546684640041
 31
0.0
  0
LINE
  5
1AE6
  8
0
 10
65.949064491229706
 20
169.45466845954121
 30
0.0
 11
65.949064491229706
 21
180.42432357414381
 31
0.0
  0
LINE
  5
1AE7
  8
0
 10
65.949064491229706
 20
180.42432356521431
 30
0.0
 11
75.449064491229706
 21
185.9091511225165
 31
0.0
  0
LINE
  5
1AE8
  8
0
 10
75.449064483502639
 20
185.90915111804549
 30
0.0
 11
84.949064483502625
 21
180.42432356074599
 31
0.0
  0
ARC
  5
1CE4
  8
0
 10
149.94906448350221
 20
174.93949601237489
 30
0.0
 40
8.0
 50
157.88333686751551
 51
202.1166631324833
  0
LINE
  5
1CE5
  8
0
 10
142.5377110779408
 20
177.9514456629955
 30
0.0
 11
142.53771107794071
 21
171.92754636175439
 31
0.0
  0
LINE
  5
1CE6
  8
0
 10
142.5377110779408
 20
107.9514456629955
 30
0.0
 11
142.53771107794071
 21
101.92754636175439
 31
0.0
  0
ARC
  5
1CE7
  8
0
 10
149.94906448350221
 20
104.9394960123749
 30
0.0
 40
8.0
 50
157.88333686751551
 51
202.1166631324833
  0
LINE
  5
1CE8
  8
0
 10
144.2490644835022
 20
108.9394960123749
 30
0.0
 11
144.2490644835022
 21
100.9394960123749
 31
0.0
  0
LINE
  5
1CE9
  8
0
 10
142.53771107794071
 20
101.92754636175439
 30
0.0
 11
144.2490644835022
 21
100.9394960123749
 31
0.0
  0
LINE
  5
1CEA
  8
0
 10
144.2490644835022
 20
100.9394960123749
 30
0.0
 11
149.94906448350221
 21
100.9394960123749
 31
0.0
  0
LINE
  5
1CEB
  8
0
 10
144.2490644835022
 20
108.9394960123749
 30
0.0
 11
142.53771107794071
 21
107.9514456629954
 31
0.0
  0
LINE
  5
1CEC
  8
0
 10
149.94906448350221
 20
108.9394960123749
 30
0.0
 11
144.2490644835022
 21
108.9394960123749
 31
0.0
  0
CIRCLE
  5
1CEE
  8
0
 10
75.449064483502184
 20
174.93949601237489
 30
0.0
 40
3.011949650620465
  0
LINE
  5
204C
  8
0
 10
172.51474990845139
 20
171.2394960123749
 30
0.0
 11
172.51474990845139
 21
165.43949601237489
 31
0.0
  0
LINE
  5
204D
  8
0
 10
171.94906448350221
 20
170.93949601237489
 30
0.0
 11
171.94906448350221
 21
165.43949601237489
 31
0.0
  0
LINE
  5
204E
  8
0
 10
171.94906448350221
 20
170.93949601237489
 30
0.0
 11
163.24906448350211
 21
170.93949601237489
 31
0.0
  0
LINE
  5
204F
  8
0
 10
172.51474990845131
 20
171.2394960123749
 30
0.0
 11
163.9490644835019
 21
171.2394960123749
 31
0.0
  0
LINE
  5
2050
  8
0
 10
163.24906448350211
 20
170.93949601237489
 30
0.0
 11
163.24906448350211
 21
178.93949601237489
 31
0.0
  0
LINE
  5
2051
  8
0
 10
163.24906448350211
 20
178.93949601237489
 30
0.0
 11
171.94906448350221
 21
178.93949601237489
 31
0.0
  0
LINE
  5
2052
  8
0
 10
163.9490644835021
 20
178.63949601237479
 30
0.0
 11
163.9490644835019
 21
171.2394960123749
 31
0.0
  0
LINE
  5
2053
  8
0
 10
172.51474990845131
 20
178.63949601237479
 30
0.0
 11
163.9490644835021
 21
178.63949601237479
 31
0.0
  0
ARC
  5
2054
  8
0
 10
161.4490644835021
 20
167.43949601237489
 30
0.0
 40
0.5
 50
0.0
 51
90.0
  0
ARC
  5
2055
  8
0
 10
161.4490644835021
 20
182.43949601237489
 30
0.0
 40
0.5
 50
270.0
 51
0.0
  0
LINE
  5
2056
  8
0
 10
171.1005587074703
 20
185.9091511269778
 30
0.0
 11
161.94906448350221
 21
185.9091511269778
 31
0.0
  0
LINE
  5
2057
  8
0
 10
171.1005587074703
 20
163.969840897772
 30
0.0
 11
161.94906448350221
 21
163.969840897772
 31
0.0
  0
LINE
  5
2058
  8
0
 10
161.9490644835019
 20
163.969840897772
 30
0.0
 11
161.94906448350221
 21
185.9091511269778
 31
0.0
  0
POLYLINE
  5
2059
  8
0
 66
     1
 10
0.0
 20
0.0
 30
0.0
  0
VERTEX
  5
21D0
  8
0
 10
171.94906448350221
 20
166.71225467642279
 30
0.0
  0
VERTEX
  5
21D1
  8
0
 10
171.94840338634859
 20
166.63850283837269
 30
0.0
  0
VERTEX
  5
21D2
  8
0
 10
171.94314088273609
 20
166.49143527088009
 30
0.0
  0
VERTEX
  5
21D3
  8
0
 10
171.93267474093781
 20
166.3447715676179
 30
0.0
  0
VERTEX
  5
21D4
  8
0
 10
171.92550545664901
 20
166.27152565494669
 30
0.0
  0
VERTEX
  5
21D5
  8
0
 10
171.91705155003271
 20
166.19830258677209
 30
0.0
  0
VERTEX
  5
21D6
  8
0
 10
171.89630288303371
 20
166.05182280242801
 30
0.0
  0
VERTEX
  5
21D7
  8
0
 10
171.87044570067101
 20
165.9051292929467
 30
0.0
  0
VERTEX
  5
21D8
  8
0
 10
171.83948264637559
 20
165.75802076676101
 30
0.0
  0
VERTEX
  5
21D9
  8
0
 10
171.80340223756801
 20
165.61029661539919
 30
0.0
  0
VERTEX
  5
21DA
  8
0
 10
171.7621789569144
 20
165.4617559841125
 30
0.0
  0
VERTEX
  5
21DB
  8
0
 10
171.7396269282425
 20
165.38711642737181
 30
0.0
  0
VERTEX
  5
21DC
  8
0
 10
171.71577324585809
 20
165.31219685089161
 30
0.0
  0
VERTEX
  5
21DD
  8
0
 10
171.66413140144391
 20
165.16141510489109
 30
0.0
  0
VERTEX
  5
21DE
  8
0
 10
171.6071853761957
 20
165.00920361537399
 30
0.0
  0
VERTEX
  5
21DF
  8
0
 10
171.54485247956629
 20
164.85535128223009
 30
0.0
  0
VERTEX
  5
21E0
  8
0
 10
171.47703497820609
 20
164.6996420589123
 30
0.0
  0
VERTEX
  5
21E1
  8
0
 10
171.40361959100139
 20
164.54185393827939
 30
0.0
  0
VERTEX
  5
21E2
  8
0
 10
171.3647728893902
 20
164.46210902435061
 30
0.0
  0
VERTEX
  5
21E3
  8
0
 10
171.32447687344199
 20
164.3817578913164
 30
0.0
  0
VERTEX
  5
21E4
  8
0
 10
171.23946048441559
 20
164.2191167480118
 30
0.0
  0
VERTEX
  5
21E5
  8
0
 10
171.1484063269034
 20
164.05368400880221
 30
0.0
  0
VERTEX
  5
21E6
  8
0
 10
171.1005587074703
 20
163.969840897772
 30
0.0
  0
SEQEND
  5
21E7
  8
0
  0
POLYLINE
  5
205A
  8
0
 66
     1
 10
0.0
 20
0.0
 30
0.0
  0
VERTEX
  5
21E8
  8
0
 10
171.1005587074703
 20
169.4546684550734
 30
0.0
  0
VERTEX
  5
21E9
  8
0
 10
171.1484063269034
 20
169.37082534404331
 30
0.0
  0
VERTEX
  5
21EA
  8
0
 10
171.23946048441559
 20
169.20539260483361
 30
0.0
  0
VERTEX
  5
21EB
  8
0
 10
171.32447687344199
 20
169.04275146152909
 30
0.0
  0
VERTEX
  5
21EC
  8
0
 10
171.3647728893902
 20
168.96240032849479
 30
0.0
  0
VERTEX
  5
21ED
  8
0
 10
171.40361959100139
 20
168.88265541456599
 30
0.0
  0
VERTEX
  5
21EE
  8
0
 10
171.47703497820609
 20
168.7248672939333
 30
0.0
  0
VERTEX
  5
21EF
  8
0
 10
171.54485247956629
 20
168.5691580706154
 30
0.0
  0
VERTEX
  5
21F0
  8
0
 10
171.6071853761957
 20
168.41530573747141
 30
0.0
  0
VERTEX
  5
21F1
  8
0
 10
171.66413140144391
 20
168.26309424795431
 30
0.0
  0
VERTEX
  5
21F2
  8
0
 10
171.71577324585809
 20
168.1123125019538
 30
0.0
  0
VERTEX
  5
21F3
  8
0
 10
171.7396269282425
 20
168.03739292547371
 30
0.0
  0
VERTEX
  5
21F4
  8
0
 10
171.7621789569144
 20
167.96275336873299
 30
0.0
  0
VERTEX
  5
21F5
  8
0
 10
171.80340223756801
 20
167.8142127374463
 30
0.0
  0
VERTEX
  5
21F6
  8
0
 10
171.83948264637559
 20
167.6664885860844
 30
0.0
  0
VERTEX
  5
21F7
  8
0
 10
171.87044570067101
 20
167.51938005989871
 30
0.0
  0
VERTEX
  5
21F8
  8
0
 10
171.89630288303371
 20
167.3726865504174
 30
0.0
  0
VERTEX
  5
21F9
  8
0
 10
171.91705155003271
 20
167.2262067660734
 30
0.0
  0
VERTEX
  5
21FA
  8
0
 10
171.92550545664901
 20
167.15298369789869
 30
0.0
  0
VERTEX
  5
21FB
  8
0
 10
171.93267474093781
 20
167.07973778522771
 30
0.0
  0
VERTEX
  5
21FC
  8
0
 10
171.94314088273609
 20
166.93307408196529
 30
0.0
  0
VERTEX
  5
21FD
  8
0
 10
171.94840338634859
 20
166.7860065144728
 30
0.0
  0
VERTEX
  5
21FE
  8
0
 10
171.94906448350221
 20
166.71225467642279
 30
0.0
  0
SEQEND
  5
21FF
  8
0
  0
LINE
  5
205B
  8
0
 10
171.1005587074703
 20
169.4546684550734
 30
0.0
 11
161.94906448350221
 21
169.4546684550734
 31
0.0
  0
POLYLINE
  5
205C
  8
0
 66
     1
 10
0.0
 20
0.0
 30
0.0
  0
VERTEX
  5
2200
  8
0
 10
171.48252827004171
 20
170.93949601237489
 30
0.0
  0
VERTEX
  5
2201
  8
0
 10
171.47703497820609
 20
170.91427077735389
 30
0.0
  0
VERTEX
  5
2202
  8
0
 10
171.40361959100139
 20
170.5986945360882
 30
0.0
  0
VERTEX
  5
2203
  8
0
 10
171.3647728893902
 20
170.43920470823059
 30
0.0
  0
VERTEX
  5
2204
  8
0
 10
171.32447687344199
 20
170.27850244216219
 30
0.0
  0
VERTEX
  5
2205
  8
0
 10
171.23946048441559
 20
169.95322015555311
 30
0.0
  0
VERTEX
  5
2206
  8
0
 10
171.1484063269034
 20
169.62235467713381
 30
0.0
  0
VERTEX
  5
2207
  8
0
 10
171.1005587074703
 20
169.4546684550734
 30
0.0
  0
SEQEND
  5
2208
  8
0
  0
POLYLINE
  5
205D
  8
0
 66
     1
 10
0.0
 20
0.0
 30
0.0
  0
VERTEX
  5
2209
  8
0
 10
171.1005587074703
 20
180.42432356967629
 30
0.0
  0
VERTEX
  5
220A
  8
0
 10
171.1484063269034
 20
180.25663734761599
 30
0.0
  0
VERTEX
  5
220B
  8
0
 10
171.2394604844157
 20
179.92577186919669
 30
0.0
  0
VERTEX
  5
220C
  8
0
 10
171.32447687344199
 20
179.60048958258761
 30
0.0
  0
VERTEX
  5
220D
  8
0
 10
171.3647728893902
 20
179.43978731651919
 30
0.0
  0
VERTEX
  5
220E
  8
0
 10
171.40361959100139
 20
179.2802974886616
 30
0.0
  0
VERTEX
  5
220F
  8
0
 10
171.47703497820609
 20
178.96472124739589
 30
0.0
  0
VERTEX
  5
2210
  8
0
 10
171.48252827004171
 20
178.93949601237489
 30
0.0
  0
SEQEND
  5
2211
  8
0
  0
LINE
  5
205E
  8
0
 10
171.1005587074703
 20
180.42432356967629
 30
0.0
 11
161.94906448350221
 21
180.42432356967629
 31
0.0
  0
POLYLINE
  5
205F
  8
0
 66
     1
 10
0.0
 20
0.0
 30
0.0
  0
VERTEX
  5
2212
  8
0
 10
171.94906448350221
 20
183.1667373483271
 30
0.0
  0
VERTEX
  5
2213
  8
0
 10
171.94840338634859
 20
183.092985510277
 30
0.0
  0
VERTEX
  5
2214
  8
0
 10
171.9431408827362
 20
182.9459179427844
 30
0.0
  0
VERTEX
  5
2215
  8
0
 10
171.93267474093781
 20
182.79925423952221
 30
0.0
  0
VERTEX
  5
2216
  8
0
 10
171.92550545664901
 20
182.726008326851
 30
0.0
  0
VERTEX
  5
2217
  8
0
 10
171.91705155003271
 20
182.65278525867649
 30
0.0
  0
VERTEX
  5
2218
  8
0
 10
171.89630288303371
 20
182.50630547433229
 30
0.0
  0
VERTEX
  5
2219
  8
0
 10
171.87044570067101
 20
182.35961196485101
 30
0.0
  0
VERTEX
  5
221A
  8
0
 10
171.8394826463757
 20
182.21250343866541
 30
0.0
  0
VERTEX
  5
221B
  8
0
 10
171.80340223756801
 20
182.06477928730351
 30
0.0
  0
VERTEX
  5
221C
  8
0
 10
171.7621789569144
 20
181.91623865601679
 30
0.0
  0
VERTEX
  5
221D
  8
0
 10
171.7396269282425
 20
181.8415990992761
 30
0.0
  0
VERTEX
  5
221E
  8
0
 10
171.71577324585809
 20
181.76667952279601
 30
0.0
  0
VERTEX
  5
221F
  8
0
 10
171.66413140144391
 20
181.61589777679549
 30
0.0
  0
VERTEX
  5
2220
  8
0
 10
171.6071853761957
 20
181.46368628727839
 30
0.0
  0
VERTEX
  5
2221
  8
0
 10
171.54485247956629
 20
181.30983395413449
 30
0.0
  0
VERTEX
  5
2222
  8
0
 10
171.47703497820609
 20
181.15412473081659
 30
0.0
  0
VERTEX
  5
2223
  8
0
 10
171.40361959100139
 20
180.9963366101837
 30
0.0
  0
VERTEX
  5
2224
  8
0
 10
171.3647728893902
 20
180.9165916962549
 30
0.0
  0
VERTEX
  5
2225
  8
0
 10
171.32447687344199
 20
180.83624056322071
 30
0.0
  0
VERTEX
  5
2226
  8
0
 10
171.2394604844157
 20
180.67359941991609
 30
0.0
  0
VERTEX
  5
2227
  8
0
 10
171.1484063269034
 20
180.50816668070649
 30
0.0
  0
VERTEX
  5
2228
  8
0
 10
171.1005587074703
 20
180.42432356967629
 30
0.0
  0
SEQEND
  5
2229
  8
0
  0
POLYLINE
  5
2060
  8
0
 66
     1
 10
0.0
 20
0.0
 30
0.0
  0
VERTEX
  5
222A
  8
0
 10
171.1005587074703
 20
185.9091511269778
 30
0.0
  0
VERTEX
  5
222B
  8
0
 10
171.1484063269034
 20
185.8253080159476
 30
0.0
  0
VERTEX
  5
222C
  8
0
 10
171.2394604844157
 20
185.65987527673789
 30
0.0
  0
VERTEX
  5
222D
  8
0
 10
171.32447687344199
 20
185.49723413343341
 30
0.0
  0
VERTEX
  5
222E
  8
0
 10
171.3647728893902
 20
185.4168830003992
 30
0.0
  0
VERTEX
  5
222F
  8
0
 10
171.40361959100139
 20
185.3371380864705
 30
0.0
  0
VERTEX
  5
2230
  8
0
 10
171.47703497820609
 20
185.17934996583759
 30
0.0
  0
VERTEX
  5
2231
  8
0
 10
171.54485247956629
 20
185.02364074251969
 30
0.0
  0
VERTEX
  5
2232
  8
0
 10
171.6071853761957
 20
184.8697884093757
 30
0.0
  0
VERTEX
  5
2233
  8
0
 10
171.66413140144391
 20
184.71757691985869
 30
0.0
  0
VERTEX
  5
2234
  8
0
 10
171.71577324585809
 20
184.56679517385811
 30
0.0
  0
VERTEX
  5
2235
  8
0
 10
171.7396269282425
 20
184.491875597378
 30
0.0
  0
VERTEX
  5
2236
  8
0
 10
171.7621789569144
 20
184.41723604063731
 30
0.0
  0
VERTEX
  5
2237
  8
0
 10
171.80340223756801
 20
184.26869540935061
 30
0.0
  0
VERTEX
  5
2238
  8
0
 10
171.8394826463757
 20
184.12097125798871
 30
0.0
  0
VERTEX
  5
2239
  8
0
 10
171.87044570067101
 20
183.97386273180319
 30
0.0
  0
VERTEX
  5
223A
  8
0
 10
171.89630288303371
 20
183.82716922232169
 30
0.0
  0
VERTEX
  5
223B
  8
0
 10
171.91705155003271
 20
183.68068943797769
 30
0.0
  0
VERTEX
  5
223C
  8
0
 10
171.92550545664901
 20
183.60746636980309
 30
0.0
  0
VERTEX
  5
223D
  8
0
 10
171.93267474093781
 20
183.53422045713199
 30
0.0
  0
VERTEX
  5
223E
  8
0
 10
171.9431408827362
 20
183.3875567538696
 30
0.0
  0
VERTEX
  5
223F
  8
0
 10
171.94840338634859
 20
183.24048918637709
 30
0.0
  0
VERTEX
  5
2240
  8
0
 10
171.94906448350221
 20
183.1667373483271
 30
0.0
  0
SEQEND
  5
2241
  8
0
  0
LINE
  5
2061
  8
0
 10
171.94906448350221
 20
184.43949601237489
 30
0.0
 11
171.94906448350221
 21
178.93949601237489
 31
0.0
  0
LINE
  5
2062
  8
0
 10
172.51474990845139
 20
184.43949601237489
 30
0.0
 11
172.51474990845139
 21
178.63949601237479
 31
0.0
  0
LINE
  5
2063
  8
0
 10
171.94906448350221
 20
184.43949601237489
 30
0.0
 11
171.1005587074703
 21
185.9091511269778
 31
0.0
  0
LINE
  5
2064
  8
0
 10
171.1005587074703
 20
163.969840897772
 30
0.0
 11
171.94906448350221
 21
165.43949601237489
 31
0.0
  0
LINE
  5
2065
  8
0
 10
172.51474990845139
 20
184.43949601237489
 30
0.0
 11
171.94906448350221
 21
183.87381058742571
 31
0.0
  0
LINE
  5
2066
  8
0
 10
171.94906448350221
 20
166.00518143732421
 30
0.0
 11
172.51474990845139
 21
165.43949601237489
 31
0.0
  0
TEXT
  5
2117
  8
0
 62
     3
 10
0.0
 20
0.0
 30
0.0
 40
5.0
  1
NDXNS16L
  7
STANDARD1
  0
ENDSEC
  0
EOF
