  0
SECTION
  2
HEADER
  9
$ACADVER
  1
AC1009
  9
$INSBASE
 10
0.0
 20
0.0
 30
0.0
  9
$EXTMIN
 10
0.0
 20
-1.4802182810368341
 30
0.0
  9
$EXTMAX
 10
283.94906448350218
 20
196.43949601237489
 30
0.0
  9
$LIMMIN
 10
0.0
 20
0.0
  9
$LIMMAX
 10
187.5
 20
135.0
  9
$ORTHOMODE
 70
     1
  9
$REGENMODE
 70
     1
  9
$FILLMODE
 70
     1
  9
$QTEXTMODE
 70
     0
  9
$MIRRTEXT
 70
     0
  9
$DRAGMODE
 70
     2
  9
$LTSCALE
 40
5.0
  9
$OSMODE
 70
  3071
  9
$ATTMODE
 70
     1
  9
$TEXTSIZE
 40
4.0
  9
$TRACEWID
 40
0.05
  9
$TEXTSTYLE
  7
STANDARD
  9
$CLAYER
  8
0
  9
$CELTYPE
  6
BYLAYER
  9
$CECOLOR
 62
   256
  9
$DIMSCALE
 40
0.5
  9
$DIMASZ
 40
3.0
  9
$DIMEXO
 40
2.0
  9
$DIMDLI
 40
0.38
  9
$DIMRND
 40
0.0
  9
$DIMDLE
 40
0.0
  9
$DIMEXE
 40
2.0
  9
$DIMTP
 40
0.0
  9
$DIMTM
 40
0.0
  9
$DIMTXT
 40
3.0
  9
$DIMCEN
 40
0.0
  9
$DIMTSZ
 40
0.0
  9
$DIMTOL
 70
     0
  9
$DIMLIM
 70
     0
  9
$DIMTIH
 70
     0
  9
$DIMTOH
 70
     0
  9
$DIMSE1
 70
     0
  9
$DIMSE2
 70
     0
  9
$DIMTAD
 70
     1
  9
$DIMZIN
 70
     0
  9
$DIMBLK
  1

  9
$DIMASO
 70
     0
  9
$DIMSHO
 70
     0
  9
$DIMPOST
  1

  9
$DIMAPOST
  1

  9
$DIMALT
 70
     0
  9
$DIMALTD
 70
     2
  9
$DIMALTF
 40
25.399999999999999
  9
$DIMLFAC
 40
1.0
  9
$DIMTOFL
 70
     0
  9
$DIMTVP
 40
1.6000000000000001
  9
$DIMTIX
 70
     1
  9
$DIMSOXD
 70
     0
  9
$DIMSAH
 70
     0
  9
$DIMBLK1
  1

  9
$DIMBLK2
  1

  9
$DIMSTYLE
  2
STANDARD
  9
$DIMCLRD
 70
     0
  9
$DIMCLRE
 70
     0
  9
$DIMCLRT
 70
     0
  9
$DIMTFAC
 40
1.0
  9
$DIMGAP
 40
0.09
  9
$LUNITS
 70
     2
  9
$LUPREC
 70
     4
  9
$SKETCHINC
 40
0.1
  9
$FILLETRAD
 40
1.0
  9
$AUNITS
 70
     0
  9
$AUPREC
 70
     0
  9
$MENU
  1
E:\r13\win\SUPPORT\ACAD
  9
$ELEVATION
 40
0.0
  9
$PELEVATION
 40
0.0
  9
$THICKNESS
 40
0.0
  9
$LIMCHECK
 70
     0
  9
$BLIPMODE
 70
     0
  9
$CHAMFERA
 40
0.0
  9
$CHAMFERB
 40
0.0
  9
$SKPOLY
 70
     0
  9
$TDCREATE
 40
2449840.6143865739
  9
$TDUPDATE
 40
2456597.6898237732
  9
$TDINDWG
 40
0.2439600463
  9
$TDUSRTIMER
 40
0.2439600463
  9
$USRTIMER
 70
     1
  9
$ANGBASE
 50
0.0
  9
$ANGDIR
 70
     0
  9
$PDMODE
 70
     0
  9
$PDSIZE
 40
0.0
  9
$PLINEWID
 40
0.0
  9
$COORDS
 70
     1
  9
$SPLFRAME
 70
     0
  9
$SPLINETYPE
 70
     6
  9
$SPLINESEGS
 70
     8
  9
$ATTDIA
 70
     0
  9
$ATTREQ
 70
     1
  9
$HANDLING
 70
     1
  9
$HANDSEED
  5
2DC0
  9
$SURFTAB1
 70
     6
  9
$SURFTAB2
 70
     6
  9
$SURFTYPE
 70
     6
  9
$SURFU
 70
     6
  9
$SURFV
 70
     6
  9
$UCSNAME
  2

  9
$UCSORG
 10
0.0
 20
0.0
 30
0.0
  9
$UCSXDIR
 10
1.0
 20
0.0
 30
0.0
  9
$UCSYDIR
 10
0.0
 20
1.0
 30
0.0
  9
$PUCSNAME
  2

  9
$PUCSORG
 10
0.0
 20
0.0
 30
0.0
  9
$PUCSXDIR
 10
1.0
 20
0.0
 30
0.0
  9
$PUCSYDIR
 10
0.0
 20
1.0
 30
0.0
  9
$USERI1
 70
     0
  9
$USERI2
 70
     1
  9
$USERI3
 70
     1
  9
$USERI4
 70
     0
  9
$USERI5
 70
     0
  9
$USERR1
 40
0.0
  9
$USERR2
 40
0.0
  9
$USERR3
 40
0.0
  9
$USERR4
 40
0.0
  9
$USERR5
 40
0.0
  9
$WORLDVIEW
 70
     1
  9
$SHADEDGE
 70
     3
  9
$SHADEDIF
 70
    70
  9
$TILEMODE
 70
     1
  9
$MAXACTVP
 70
    16
  9
$PLIMCHECK
 70
     0
  9
$PEXTMIN
 10
1.0000000000000000E+020
 20
1.0000000000000000E+020
 30
1.0000000000000000E+020
  9
$PEXTMAX
 10
-1.0000000000000000E+020
 20
-1.0000000000000000E+020
 30
-1.0000000000000000E+020
  9
$PLIMMIN
 10
0.0
 20
0.0
  9
$PLIMMAX
 10
12.0
 20
9.0
  9
$UNITMODE
 70
     0
  9
$VISRETAIN
 70
     0
  9
$PLINEGEN
 70
     0
  9
$PSLTSCALE
 70
     0
  0
ENDSEC
  0
SECTION
  2
TABLES
  0
TABLE
  2
VPORT
 70
     1
  0
VPORT
  2
*ACTIVE
 70
     0
 10
0.0
 20
0.0
 11
1.0
 21
1.0
 12
141.9745329028716
 22
97.906376060004376
 13
0.0
 23
0.0
 14
5.0
 24
5.0
 15
5.0
 25
5.0
 16
0.0
 26
0.0
 36
1.0
 17
0.0
 27
0.0
 37
0.0
 40
201.0673128597582
 41
2.304913294797688
 42
50.0
 43
0.0
 44
0.0
 50
0.0
 51
0.0
 71
     0
 72
   100
 73
     1
 74
     0
 75
     0
 76
     0
 77
     0
 78
     0
  0
ENDTAB
  0
TABLE
  2
LTYPE
 70
     4
  0
LTYPE
  2
CONTINUOUS
 70
     0
  3
Solid Line
 72
    65
 73
     0
 40
0.0
  0
LTYPE
  2
CENTER
 70
     0
  3
____ _ ____ _ ____ _ ____ _ ____ _ ____ _ ____
 72
    65
 73
     4
 40
2.0
 49
1.25
 49
-0.25
 49
0.25
 49
-0.25
  0
LTYPE
  2
HIDDEN
 70
     0
  3
_ _ _ _ _ _ _ _ _ _ _ _ _ _ _ _ _ _ _ _ _ _ _
 72
    65
 73
     2
 40
0.375
 49
0.25
 49
-0.125
  0
LTYPE
  2
PHANTOM2
 70
     0
  3
___ _ _ ___ _ _ ___ _ _ ___ _ _
 72
    65
 73
     6
 40
1.25
 49
0.625
 49
-0.125
 49
0.125
 49
-0.125
 49
0.125
 49
-0.125
  0
ENDTAB
  0
TABLE
  2
LAYER
 70
     4
  0
LAYER
  2
0
 70
     0
 62
     7
  6
CONTINUOUS
  0
LAYER
  2
1
 70
     0
 62
     1
  6
CENTER
  0
LAYER
  2
3
 70
     0
 62
     3
  6
CONTINUOUS
  0
LAYER
  2
2
 70
     0
 62
     2
  6
HIDDEN
  0
ENDTAB
  0
TABLE
  2
STYLE
 70
     2
  0
STYLE
  2
STANDARD
 70
     0
 40
0.0
 41
1.0
 50
0.0
 71
     0
 42
4.0
  3
TXT
  4
BIGFONT
  0
STYLE
  2
STANDARD1
 70
     0
 40
0.0
 41
1.0
 50
0.0
 71
     0
 42
3.0
  3
txt
  4

  0
ENDTAB
  0
TABLE
  2
VIEW
 70
     1
  0
VIEW
  2
ALL
 70
     0
 40
179.66152299999999
 10
141.903918
 20
89.830760999999995
 41
0.0
 11
0.0
 21
0.0
 31
1.0
 12
0.0
 22
0.0
 32
0.0
 42
0.0
 43
0.0
 44
0.0
 50
0.0
 71
     0
  0
ENDTAB
  0
TABLE
  2
UCS
 70
     0
  0
ENDTAB
  0
TABLE
  2
APPID
 70
     4
  0
APPID
  2
ACAD
 70
     0
  0
APPID
  2
DCO15
 70
     0
  0
APPID
  2
ACAD_MLEADERVER
 70
     0
  0
APPID
  2
ACAD_NAV_VCDISPLAY
 70
     0
  0
ENDTAB
  0
TABLE
  2
DIMSTYLE
 70
     1
  0
DIMSTYLE
  2
STANDARD
 70
     0
  3

  4

  5

  6

  7

 40
1.0
 41
0.18
 42
0.0625
 43
0.38
 44
0.18
 45
0.0
 46
0.0
 47
0.0
 48
0.0
140
0.18
141
0.09
142
0.0
143
25.399999999999999
144
1.0
145
0.0
146
1.0
147
0.09
 71
     0
 72
     0
 73
     1
 74
     1
 75
     0
 76
     0
 77
     0
 78
     0
170
     0
171
     2
172
     0
173
     0
174
     0
175
     0
176
     0
177
     0
178
     0
  0
ENDTAB
  0
ENDSEC
  0
SECTION
  2
BLOCKS
  0
BLOCK
  8
0
  2
$MODEL_SPACE
 70
     0
 10
0.0
 20
0.0
 30
0.0
  3
$MODEL_SPACE
  1

  0
ENDBLK
  5
1BD
  8
0
  0
BLOCK
 67
     1
  8
0
  2
$PAPER_SPACE
 70
     0
 10
0.0
 20
0.0
 30
0.0
  3
$PAPER_SPACE
  1

  0
ENDBLK
  5
1BB
 67
     1
  8
0
  0
ENDSEC
  0
SECTION
  2
ENTITIES
  0
ARC
  5
1831
  8
2
 10
218.24906448350211
 20
174.93949601237489
 30
0.0
 40
26.0
 50
149.0584544146536
 51
210.9415455853464
  0
ARC
  5
1832
  8
0
 10
193.94906448350221
 20
188.93949601237489
 30
0.0
 40
2.5000000000000169
 50
36.869897645845327
 51
90.0
  0
ARC
  5
1833
  8
0
 10
193.94906448350221
 20
160.93949601237489
 30
0.0
 40
2.5000000000000151
 50
270.0
 51
323.1301023541547
  0
LINE
  5
1834
  8
0
 10
193.63837823484499
 20
158.43949601237489
 30
0.0
 11
193.94906448350221
 21
158.43949601237489
 31
0.0
  0
LINE
  5
1835
  8
0
 10
193.94906448350221
 20
191.43949601237489
 30
0.0
 11
193.63837823484499
 21
191.43949601237489
 31
0.0
  0
LINE
  5
1836
  8
0
 10
184.3490644835021
 20
165.43949601237489
 30
0.0
 11
193.63837823484499
 21
158.43949601237489
 31
0.0
  0
LINE
  5
1837
  8
0
 10
193.63837823484499
 20
191.43949601237489
 30
0.0
 11
184.3490644835021
 21
184.43949601237489
 31
0.0
  0
LINE
  5
1838
  8
0
 10
172.51474990845139
 20
165.43949601237489
 30
0.0
 11
184.3490644835021
 21
165.43949601237489
 31
0.0
  0
LINE
  5
1839
  8
0
 10
184.3490644835021
 20
184.43949601237489
 30
0.0
 11
172.51474990845139
 21
184.43949601237489
 31
0.0
  0
LINE
  5
183A
  8
0
 10
171.94906448350221
 20
166.00518143732421
 30
0.0
 11
172.51474990845139
 21
165.43949601237489
 31
0.0
  0
LINE
  5
183B
  8
0
 10
172.51474990845139
 20
184.43949601237489
 30
0.0
 11
171.94906448350221
 21
183.87381058742571
 31
0.0
  0
LINE
  5
183C
  8
0
 10
144.2490644835022
 20
170.93949601237489
 30
0.0
 11
149.94906448350221
 21
170.93949601237489
 31
0.0
  0
LINE
  5
183D
  8
0
 10
149.94906448350221
 20
178.93949601237489
 30
0.0
 11
144.2490644835022
 21
178.93949601237489
 31
0.0
  0
LINE
  5
183E
  8
0
 10
142.53771107794071
 20
171.92754636175439
 30
0.0
 11
144.2490644835022
 21
170.93949601237489
 31
0.0
  0
LINE
  5
183F
  8
0
 10
144.2490644835022
 20
178.93949601237489
 30
0.0
 11
142.53771107794071
 21
177.95144566299541
 31
0.0
  0
LINE
  5
1840
  8
0
 10
150.8690644835022
 20
166.93949601237489
 30
0.0
 11
151.94906448350221
 21
166.93949601237489
 31
0.0
  0
LINE
  5
1841
  8
0
 10
151.94906448350221
 20
182.93949601237489
 30
0.0
 11
150.8690644835022
 21
182.93949601237489
 31
0.0
  0
LINE
  5
1842
  8
0
 10
149.94906448350221
 20
167.8594960123749
 30
0.0
 11
150.8690644835022
 21
166.93949601237489
 31
0.0
  0
LINE
  5
1843
  8
0
 10
150.8690644835022
 20
182.93949601237489
 30
0.0
 11
149.94906448350221
 21
182.0194960123749
 31
0.0
  0
LINE
  5
1844
  8
0
 10
171.10055870747021
 20
163.969840897772
 30
0.0
 11
171.94906448350221
 21
165.43949601237489
 31
0.0
  0
LINE
  5
1845
  8
0
 10
171.94906448350221
 20
184.43949601237489
 30
0.0
 11
171.10055870747021
 21
185.9091511269778
 31
0.0
  0
LINE
  5
1846
  8
0
 10
195.9490644835021
 20
190.43949601237489
 30
0.0
 11
195.9490644835021
 21
159.43949601237489
 31
0.0
  0
LINE
  5
1847
  8
0
 10
193.94906448350221
 20
191.43949601237489
 30
0.0
 11
193.94906448350221
 21
158.43949601237489
 31
0.0
  0
LINE
  5
1848
  8
0
 10
193.63837823484499
 20
191.43949601237489
 30
0.0
 11
193.63837823484499
 21
158.43949601237489
 31
0.0
  0
LINE
  5
1849
  8
0
 10
184.3490644835021
 20
184.43949601237489
 30
0.0
 11
184.3490644835021
 21
165.43949601237489
 31
0.0
  0
LINE
  5
184A
  8
0
 10
172.51474990845139
 20
184.43949601237489
 30
0.0
 11
172.51474990845139
 21
165.43949601237489
 31
0.0
  0
LINE
  5
184B
  8
0
 10
144.2490644835022
 20
178.93949601237489
 30
0.0
 11
144.2490644835022
 21
170.93949601237489
 31
0.0
  0
LINE
  5
184D
  8
0
 10
150.8690644835022
 20
182.93949601237489
 30
0.0
 11
150.8690644835022
 21
166.93949601237489
 31
0.0
  0
LINE
  5
184E
  8
0
 10
149.94906448350221
 20
182.0194960123749
 30
0.0
 11
149.94906448350221
 21
167.8594960123749
 31
0.0
  0
LINE
  5
184F
  8
0
 10
171.94906448350221
 20
184.43949601237489
 30
0.0
 11
171.94906448350221
 21
165.43949601237489
 31
0.0
  0
POLYLINE
  5
1850
  8
0
 66
     1
 10
0.0
 20
0.0
 30
0.0
  0
VERTEX
  5
2B78
  8
0
 10
171.10055870747021
 20
185.9091511269778
 30
0.0
  0
VERTEX
  5
2B79
  8
0
 10
171.1484063269034
 20
185.8253080159476
 30
0.0
  0
VERTEX
  5
2B7A
  8
0
 10
171.2394604844157
 20
185.65987527673789
 30
0.0
  0
VERTEX
  5
2B7B
  8
0
 10
171.32447687344199
 20
185.49723413343341
 30
0.0
  0
VERTEX
  5
2B7C
  8
0
 10
171.36477288939031
 20
185.4168830003992
 30
0.0
  0
VERTEX
  5
2B7D
  8
0
 10
171.4036195910013
 20
185.3371380864705
 30
0.0
  0
VERTEX
  5
2B7E
  8
0
 10
171.47703497820621
 20
185.17934996583759
 30
0.0
  0
VERTEX
  5
2B7F
  8
0
 10
171.5448524795662
 20
185.02364074251969
 30
0.0
  0
VERTEX
  5
2B80
  8
0
 10
171.60718537619579
 20
184.8697884093757
 30
0.0
  0
VERTEX
  5
2B81
  8
0
 10
171.66413140144391
 20
184.71757691985869
 30
0.0
  0
VERTEX
  5
2B82
  8
0
 10
171.7157732458582
 20
184.56679517385811
 30
0.0
  0
VERTEX
  5
2B83
  8
0
 10
171.7396269282425
 20
184.491875597378
 30
0.0
  0
VERTEX
  5
2B84
  8
0
 10
171.7621789569144
 20
184.41723604063731
 30
0.0
  0
VERTEX
  5
2B85
  8
0
 10
171.80340223756801
 20
184.26869540935061
 30
0.0
  0
VERTEX
  5
2B86
  8
0
 10
171.83948264637559
 20
184.12097125798871
 30
0.0
  0
VERTEX
  5
2B87
  8
0
 10
171.87044570067101
 20
183.97386273180319
 30
0.0
  0
VERTEX
  5
2B88
  8
0
 10
171.8963028830336
 20
183.82716922232169
 30
0.0
  0
VERTEX
  5
2B89
  8
0
 10
171.9170515500328
 20
183.68068943797769
 30
0.0
  0
VERTEX
  5
2B8A
  8
0
 10
171.92550545664889
 20
183.60746636980309
 30
0.0
  0
VERTEX
  5
2B8B
  8
0
 10
171.93267474093781
 20
183.53422045713199
 30
0.0
  0
VERTEX
  5
2B8C
  8
0
 10
171.9431408827362
 20
183.3875567538696
 30
0.0
  0
VERTEX
  5
2B8D
  8
0
 10
171.94840338634859
 20
183.24048918637709
 30
0.0
  0
VERTEX
  5
2B8E
  8
0
 10
171.94906448350221
 20
183.1667373483271
 30
0.0
  0
SEQEND
  5
2B8F
  8
0
  0
POLYLINE
  5
1851
  8
0
 66
     1
 10
0.0
 20
0.0
 30
0.0
  0
VERTEX
  5
2B90
  8
0
 10
171.94906448350221
 20
183.1667373483271
 30
0.0
  0
VERTEX
  5
2B91
  8
0
 10
171.94840338634859
 20
183.092985510277
 30
0.0
  0
VERTEX
  5
2B92
  8
0
 10
171.9431408827362
 20
182.9459179427844
 30
0.0
  0
VERTEX
  5
2B93
  8
0
 10
171.93267474093781
 20
182.79925423952221
 30
0.0
  0
VERTEX
  5
2B94
  8
0
 10
171.92550545664889
 20
182.726008326851
 30
0.0
  0
VERTEX
  5
2B95
  8
0
 10
171.9170515500328
 20
182.65278525867649
 30
0.0
  0
VERTEX
  5
2B96
  8
0
 10
171.8963028830336
 20
182.50630547433229
 30
0.0
  0
VERTEX
  5
2B97
  8
0
 10
171.87044570067101
 20
182.35961196485101
 30
0.0
  0
VERTEX
  5
2B98
  8
0
 10
171.83948264637559
 20
182.21250343866541
 30
0.0
  0
VERTEX
  5
2B99
  8
0
 10
171.80340223756801
 20
182.06477928730351
 30
0.0
  0
VERTEX
  5
2B9A
  8
0
 10
171.7621789569144
 20
181.91623865601679
 30
0.0
  0
VERTEX
  5
2B9B
  8
0
 10
171.7396269282425
 20
181.8415990992761
 30
0.0
  0
VERTEX
  5
2B9C
  8
0
 10
171.7157732458582
 20
181.76667952279601
 30
0.0
  0
VERTEX
  5
2B9D
  8
0
 10
171.66413140144391
 20
181.61589777679549
 30
0.0
  0
VERTEX
  5
2B9E
  8
0
 10
171.60718537619579
 20
181.46368628727839
 30
0.0
  0
VERTEX
  5
2B9F
  8
0
 10
171.5448524795662
 20
181.30983395413449
 30
0.0
  0
VERTEX
  5
2BA0
  8
0
 10
171.47703497820621
 20
181.15412473081659
 30
0.0
  0
VERTEX
  5
2BA1
  8
0
 10
171.4036195910013
 20
180.9963366101837
 30
0.0
  0
VERTEX
  5
2BA2
  8
0
 10
171.36477288939031
 20
180.9165916962549
 30
0.0
  0
VERTEX
  5
2BA3
  8
0
 10
171.32447687344199
 20
180.83624056322071
 30
0.0
  0
VERTEX
  5
2BA4
  8
0
 10
171.2394604844157
 20
180.67359941991609
 30
0.0
  0
VERTEX
  5
2BA5
  8
0
 10
171.1484063269034
 20
180.50816668070649
 30
0.0
  0
VERTEX
  5
2BA6
  8
0
 10
171.10055870747021
 20
180.42432356967629
 30
0.0
  0
SEQEND
  5
2BA7
  8
0
  0
LINE
  5
1852
  8
0
 10
171.10055870747021
 20
180.42432356967629
 30
0.0
 11
161.94906448350221
 21
180.42432356967629
 31
0.0
  0
POLYLINE
  5
1853
  8
0
 66
     1
 10
0.0
 20
0.0
 30
0.0
  0
VERTEX
  5
2BA8
  8
0
 10
171.10055870747021
 20
180.42432356967629
 30
0.0
  0
VERTEX
  5
2BA9
  8
0
 10
171.1484063269034
 20
180.25663734761599
 30
0.0
  0
VERTEX
  5
2BAA
  8
0
 10
171.2394604844157
 20
179.92577186919669
 30
0.0
  0
VERTEX
  5
2BAB
  8
0
 10
171.32447687344199
 20
179.60048958258761
 30
0.0
  0
VERTEX
  5
2BAC
  8
0
 10
171.36477288939031
 20
179.43978731651919
 30
0.0
  0
VERTEX
  5
2BAD
  8
0
 10
171.4036195910013
 20
179.2802974886616
 30
0.0
  0
VERTEX
  5
2BAE
  8
0
 10
171.47703497820621
 20
178.96472124739589
 30
0.0
  0
VERTEX
  5
2BAF
  8
0
 10
171.5448524795662
 20
178.65330280076009
 30
0.0
  0
VERTEX
  5
2BB0
  8
0
 10
171.60718537619579
 20
178.3455981344722
 30
0.0
  0
VERTEX
  5
2BB1
  8
0
 10
171.66413140144391
 20
178.04117515543811
 30
0.0
  0
VERTEX
  5
2BB2
  8
0
 10
171.7157732458582
 20
177.7396116634371
 30
0.0
  0
VERTEX
  5
2BB3
  8
0
 10
171.7396269282425
 20
177.58977251047679
 30
0.0
  0
VERTEX
  5
2BB4
  8
0
 10
171.7621789569144
 20
177.44049339699529
 30
0.0
  0
VERTEX
  5
2BB5
  8
0
 10
171.80340223756801
 20
177.14341213442199
 30
0.0
  0
VERTEX
  5
2BB6
  8
0
 10
171.83948264637559
 20
176.84796383169819
 30
0.0
  0
VERTEX
  5
2BB7
  8
0
 10
171.87044570067101
 20
176.55374677932701
 30
0.0
  0
VERTEX
  5
2BB8
  8
0
 10
171.8963028830336
 20
176.26035976036431
 30
0.0
  0
VERTEX
  5
2BB9
  8
0
 10
171.9170515500328
 20
175.96740019167621
 30
0.0
  0
VERTEX
  5
2BBA
  8
0
 10
171.92550545664889
 20
175.82095405532689
 30
0.0
  0
VERTEX
  5
2BBB
  8
0
 10
171.93267474093781
 20
175.6744622299847
 30
0.0
  0
VERTEX
  5
2BBC
  8
0
 10
171.9431408827362
 20
175.3811348234602
 30
0.0
  0
VERTEX
  5
2BBD
  8
0
 10
171.94840338634859
 20
175.08699968847489
 30
0.0
  0
VERTEX
  5
2BBE
  8
0
 10
171.94906448350221
 20
174.93949601237489
 30
0.0
  0
SEQEND
  5
2BBF
  8
0
  0
POLYLINE
  5
1854
  8
0
 66
     1
 10
0.0
 20
0.0
 30
0.0
  0
VERTEX
  5
2BC0
  8
0
 10
171.94906448350221
 20
174.93949601237489
 30
0.0
  0
VERTEX
  5
2BC1
  8
0
 10
171.94840338634859
 20
174.7919923362748
 30
0.0
  0
VERTEX
  5
2BC2
  8
0
 10
171.9431408827362
 20
174.49785720128961
 30
0.0
  0
VERTEX
  5
2BC3
  8
0
 10
171.93267474093781
 20
174.20452979476511
 30
0.0
  0
VERTEX
  5
2BC4
  8
0
 10
171.92550545664889
 20
174.0580379694228
 30
0.0
  0
VERTEX
  5
2BC5
  8
0
 10
171.9170515500328
 20
173.9115918330736
 30
0.0
  0
VERTEX
  5
2BC6
  8
0
 10
171.8963028830336
 20
173.6186322643855
 30
0.0
  0
VERTEX
  5
2BC7
  8
0
 10
171.87044570067101
 20
173.32524524542271
 30
0.0
  0
VERTEX
  5
2BC8
  8
0
 10
171.83948264637559
 20
173.0310281930515
 30
0.0
  0
VERTEX
  5
2BC9
  8
0
 10
171.80340223756801
 20
172.7355798903277
 30
0.0
  0
VERTEX
  5
2BCA
  8
0
 10
171.7621789569144
 20
172.4384986277544
 30
0.0
  0
VERTEX
  5
2BCB
  8
0
 10
171.7396269282425
 20
172.28921951427299
 30
0.0
  0
VERTEX
  5
2BCC
  8
0
 10
171.7157732458582
 20
172.13938036131279
 30
0.0
  0
VERTEX
  5
2BCD
  8
0
 10
171.66413140144391
 20
171.83781686931161
 30
0.0
  0
VERTEX
  5
2BCE
  8
0
 10
171.60718537619579
 20
171.53339389027749
 30
0.0
  0
VERTEX
  5
2BCF
  8
0
 10
171.5448524795662
 20
171.22568922398969
 30
0.0
  0
VERTEX
  5
2BD0
  8
0
 10
171.47703497820621
 20
170.91427077735389
 30
0.0
  0
VERTEX
  5
2BD1
  8
0
 10
171.4036195910013
 20
170.5986945360882
 30
0.0
  0
VERTEX
  5
2BD2
  8
0
 10
171.36477288939031
 20
170.43920470823059
 30
0.0
  0
VERTEX
  5
2BD3
  8
0
 10
171.32447687344199
 20
170.27850244216219
 30
0.0
  0
VERTEX
  5
2BD4
  8
0
 10
171.23946048441559
 20
169.95322015555311
 30
0.0
  0
VERTEX
  5
2BD5
  8
0
 10
171.1484063269034
 20
169.62235467713381
 30
0.0
  0
VERTEX
  5
2BD6
  8
0
 10
171.10055870747021
 20
169.4546684550734
 30
0.0
  0
SEQEND
  5
2BD7
  8
0
  0
LINE
  5
1855
  8
0
 10
171.10055870747021
 20
169.4546684550734
 30
0.0
 11
161.94906448350221
 21
169.4546684550734
 31
0.0
  0
POLYLINE
  5
1856
  8
0
 66
     1
 10
0.0
 20
0.0
 30
0.0
  0
VERTEX
  5
2BD8
  8
0
 10
171.10055870747021
 20
169.4546684550734
 30
0.0
  0
VERTEX
  5
2BD9
  8
0
 10
171.1484063269034
 20
169.37082534404331
 30
0.0
  0
VERTEX
  5
2BDA
  8
0
 10
171.23946048441559
 20
169.20539260483361
 30
0.0
  0
VERTEX
  5
2BDB
  8
0
 10
171.32447687344199
 20
169.04275146152909
 30
0.0
  0
VERTEX
  5
2BDC
  8
0
 10
171.36477288939031
 20
168.96240032849479
 30
0.0
  0
VERTEX
  5
2BDD
  8
0
 10
171.4036195910013
 20
168.88265541456599
 30
0.0
  0
VERTEX
  5
2BDE
  8
0
 10
171.47703497820621
 20
168.7248672939333
 30
0.0
  0
VERTEX
  5
2BDF
  8
0
 10
171.5448524795662
 20
168.5691580706154
 30
0.0
  0
VERTEX
  5
2BE0
  8
0
 10
171.60718537619579
 20
168.41530573747141
 30
0.0
  0
VERTEX
  5
2BE1
  8
0
 10
171.66413140144391
 20
168.26309424795431
 30
0.0
  0
VERTEX
  5
2BE2
  8
0
 10
171.7157732458582
 20
168.1123125019538
 30
0.0
  0
VERTEX
  5
2BE3
  8
0
 10
171.7396269282425
 20
168.03739292547371
 30
0.0
  0
VERTEX
  5
2BE4
  8
0
 10
171.7621789569144
 20
167.96275336873299
 30
0.0
  0
VERTEX
  5
2BE5
  8
0
 10
171.80340223756801
 20
167.8142127374463
 30
0.0
  0
VERTEX
  5
2BE6
  8
0
 10
171.83948264637559
 20
167.6664885860844
 30
0.0
  0
VERTEX
  5
2BE7
  8
0
 10
171.87044570067101
 20
167.51938005989871
 30
0.0
  0
VERTEX
  5
2BE8
  8
0
 10
171.8963028830336
 20
167.3726865504174
 30
0.0
  0
VERTEX
  5
2BE9
  8
0
 10
171.9170515500328
 20
167.2262067660734
 30
0.0
  0
VERTEX
  5
2BEA
  8
0
 10
171.92550545664889
 20
167.15298369789869
 30
0.0
  0
VERTEX
  5
2BEB
  8
0
 10
171.93267474093781
 20
167.07973778522771
 30
0.0
  0
VERTEX
  5
2BEC
  8
0
 10
171.94314088273609
 20
166.93307408196529
 30
0.0
  0
VERTEX
  5
2BED
  8
0
 10
171.94840338634859
 20
166.7860065144728
 30
0.0
  0
VERTEX
  5
2BEE
  8
0
 10
171.94906448350221
 20
166.71225467642279
 30
0.0
  0
SEQEND
  5
2BEF
  8
0
  0
POLYLINE
  5
1857
  8
0
 66
     1
 10
0.0
 20
0.0
 30
0.0
  0
VERTEX
  5
2BF0
  8
0
 10
171.94906448350221
 20
166.71225467642279
 30
0.0
  0
VERTEX
  5
2BF1
  8
0
 10
171.94840338634859
 20
166.63850283837269
 30
0.0
  0
VERTEX
  5
2BF2
  8
0
 10
171.94314088273609
 20
166.49143527088009
 30
0.0
  0
VERTEX
  5
2BF3
  8
0
 10
171.93267474093781
 20
166.3447715676179
 30
0.0
  0
VERTEX
  5
2BF4
  8
0
 10
171.92550545664889
 20
166.27152565494669
 30
0.0
  0
VERTEX
  5
2BF5
  8
0
 10
171.9170515500328
 20
166.19830258677209
 30
0.0
  0
VERTEX
  5
2BF6
  8
0
 10
171.8963028830336
 20
166.05182280242801
 30
0.0
  0
VERTEX
  5
2BF7
  8
0
 10
171.87044570067101
 20
165.9051292929467
 30
0.0
  0
VERTEX
  5
2BF8
  8
0
 10
171.83948264637559
 20
165.75802076676101
 30
0.0
  0
VERTEX
  5
2BF9
  8
0
 10
171.80340223756801
 20
165.61029661539919
 30
0.0
  0
VERTEX
  5
2BFA
  8
0
 10
171.7621789569144
 20
165.4617559841125
 30
0.0
  0
VERTEX
  5
2BFB
  8
0
 10
171.7396269282425
 20
165.38711642737181
 30
0.0
  0
VERTEX
  5
2BFC
  8
0
 10
171.7157732458582
 20
165.31219685089161
 30
0.0
  0
VERTEX
  5
2BFD
  8
0
 10
171.66413140144391
 20
165.16141510489109
 30
0.0
  0
VERTEX
  5
2BFE
  8
0
 10
171.60718537619579
 20
165.00920361537399
 30
0.0
  0
VERTEX
  5
2BFF
  8
0
 10
171.5448524795662
 20
164.85535128223009
 30
0.0
  0
VERTEX
  5
2C00
  8
0
 10
171.47703497820621
 20
164.6996420589123
 30
0.0
  0
VERTEX
  5
2C01
  8
0
 10
171.4036195910013
 20
164.54185393827939
 30
0.0
  0
VERTEX
  5
2C02
  8
0
 10
171.36477288939031
 20
164.46210902435061
 30
0.0
  0
VERTEX
  5
2C03
  8
0
 10
171.32447687344199
 20
164.3817578913164
 30
0.0
  0
VERTEX
  5
2C04
  8
0
 10
171.23946048441559
 20
164.2191167480118
 30
0.0
  0
VERTEX
  5
2C05
  8
0
 10
171.1484063269034
 20
164.05368400880221
 30
0.0
  0
VERTEX
  5
2C06
  8
0
 10
171.10055870747021
 20
163.969840897772
 30
0.0
  0
SEQEND
  5
2C07
  8
0
  0
LINE
  5
1858
  8
0
 10
161.9490644835019
 20
163.969840897772
 30
0.0
 11
161.94906448350221
 21
185.9091511269778
 31
0.0
  0
LINE
  5
1859
  8
0
 10
171.10055870747021
 20
163.969840897772
 30
0.0
 11
161.94906448350221
 21
163.969840897772
 31
0.0
  0
LINE
  5
185A
  8
0
 10
171.10055870747021
 20
185.9091511269778
 30
0.0
 11
161.94906448350221
 21
185.9091511269778
 31
0.0
  0
LINE
  5
185B
  8
3
 10
149.94906448350221
 20
167.8594960123749
 30
0.0
 11
151.94906448350221
 21
167.8594960123749
 31
0.0
  0
LINE
  5
185C
  8
3
 10
149.94906448350221
 20
182.0194960123749
 30
0.0
 11
151.94906448350221
 21
182.0194960123749
 31
0.0
  0
LINE
  5
185D
  8
1
 10
200.94906448350221
 20
174.93949601237489
 30
0.0
 11
136.94906448350221
 21
174.93949601237489
 31
0.0
  0
CIRCLE
  5
1864
  8
0
 10
75.449064483502184
 20
174.93949601237489
 30
0.0
 40
16.499999999999989
  0
CIRCLE
  5
1866
  8
0
 10
75.449064483502184
 20
174.93949601237489
 30
0.0
 40
8.0
  0
CIRCLE
  5
1867
  8
0
 10
75.449064483502184
 20
174.93949601237489
 30
0.0
 40
3.999999999999996
  0
CIRCLE
  5
1868
  8
3
 10
75.449064483502184
 20
174.93949601237489
 30
0.0
 40
7.0799999999999983
  0
LINE
  5
1869
  8
1
 10
53.949064483502177
 20
174.93949601237489
 30
0.0
 11
96.949064483502184
 21
174.93949601237489
 31
0.0
  0
LINE
  5
186A
  8
1
 10
75.449064483502184
 20
153.43949601237489
 30
0.0
 11
75.449064483502184
 21
196.43949601237489
 31
0.0
  0
LINE
  5
193B
  8
1
 10
262.44906448350218
 20
153.43949601237489
 30
0.0
 11
262.44906448350218
 21
196.43949601237489
 31
0.0
  0
LINE
  5
193C
  8
1
 10
240.94906448350221
 20
174.93949601237489
 30
0.0
 11
283.94906448350218
 21
174.93949601237489
 31
0.0
  0
CIRCLE
  5
193D
  8
0
 10
262.44906448350218
 20
174.93949601237489
 30
0.0
 40
16.499999999999989
  0
CIRCLE
  5
193E
  8
0
 10
262.44906448350218
 20
174.93949601237489
 30
0.0
 40
15.5
  0
CIRCLE
  5
193F
  8
0
 10
262.44906448350218
 20
174.93949601237489
 30
0.0
 40
13.36824595823999
  0
LINE
  5
1940
  8
1
 10
200.94906448350221
 20
104.9394960123749
 30
0.0
 11
136.94906448350221
 21
104.9394960123749
 31
0.0
  0
LINE
  5
1941
  8
0
 10
149.94906448350221
 20
112.0194960123749
 30
0.0
 11
149.94906448350221
 21
97.859496012374905
 31
0.0
  0
LINE
  5
1942
  8
0
 10
150.8690644835022
 20
112.9394960123749
 30
0.0
 11
150.8690644835022
 21
96.939496012374946
 31
0.0
  0
LINE
  5
1945
  8
0
 10
172.51474990845139
 20
114.4394960123749
 30
0.0
 11
172.51474990845139
 21
95.439496012374946
 31
0.0
  0
LINE
  5
1946
  8
0
 10
184.3490644835021
 20
114.4394960123749
 30
0.0
 11
184.3490644835021
 21
95.439496012374946
 31
0.0
  0
LINE
  5
1947
  8
0
 10
193.63837823484499
 20
121.4394960123749
 30
0.0
 11
193.63837823484499
 21
88.439496012374946
 31
0.0
  0
LINE
  5
1948
  8
0
 10
193.94906448350221
 20
121.4394960123749
 30
0.0
 11
193.94906448350221
 21
88.439496012374946
 31
0.0
  0
LINE
  5
1949
  8
0
 10
195.9490644835021
 20
120.4394960123749
 30
0.0
 11
195.9490644835021
 21
89.439496012374946
 31
0.0
  0
LINE
  5
194A
  8
0
 10
150.8690644835022
 20
112.9394960123749
 30
0.0
 11
149.94906448350221
 21
112.0194960123749
 31
0.0
  0
LINE
  5
194B
  8
0
 10
149.94906448350221
 20
97.859496012374905
 30
0.0
 11
150.8690644835022
 21
96.939496012374946
 31
0.0
  0
LINE
  5
1950
  8
0
 10
172.51474990845139
 20
114.4394960123749
 30
0.0
 11
171.94906448350221
 21
113.8738105874256
 31
0.0
  0
LINE
  5
1951
  8
0
 10
171.94906448350221
 20
96.005181437324225
 30
0.0
 11
172.51474990845139
 21
95.439496012374946
 31
0.0
  0
LINE
  5
1952
  8
0
 10
184.3490644835021
 20
114.4394960123749
 30
0.0
 11
172.51474990845139
 21
114.4394960123749
 31
0.0
  0
LINE
  5
1953
  8
0
 10
172.51474990845139
 20
95.439496012374946
 30
0.0
 11
184.3490644835021
 21
95.439496012374946
 31
0.0
  0
LINE
  5
1954
  8
0
 10
193.63837823484499
 20
121.4394960123749
 30
0.0
 11
184.3490644835021
 21
114.4394960123749
 31
0.0
  0
LINE
  5
1955
  8
0
 10
184.3490644835021
 20
95.439496012374946
 30
0.0
 11
193.63837823484499
 21
88.439496012374946
 31
0.0
  0
LINE
  5
1956
  8
0
 10
193.94906448350221
 20
121.4394960123749
 30
0.0
 11
193.63837823484499
 21
121.4394960123749
 31
0.0
  0
LINE
  5
1957
  8
0
 10
193.63837823484499
 20
88.439496012374946
 30
0.0
 11
193.94906448350221
 21
88.439496012374946
 31
0.0
  0
ARC
  5
1958
  8
0
 10
193.94906448350221
 20
90.939496012374946
 30
0.0
 40
2.5000000000000151
 50
270.0
 51
323.1301023541547
  0
ARC
  5
1959
  8
0
 10
193.94906448350221
 20
118.9394960123749
 30
0.0
 40
2.5000000000000169
 50
36.869897645845327
 51
90.0
  0
ARC
  5
195A
  8
2
 10
218.24906448350211
 20
104.9394960123749
 30
0.0
 40
26.0
 50
149.0584544146536
 51
210.9415455853464
  0
LINE
  5
195B
  8
0
 10
171.10055870747021
 20
104.9394960123749
 30
0.0
 11
161.94906448350221
 21
104.9394960123749
 31
0.0
  0
POLYLINE
  5
195C
  8
0
 66
     1
 10
0.0
 20
0.0
 30
0.0
  0
VERTEX
  5
2C08
  8
0
 10
171.94906448350221
 20
109.6894960123749
 30
0.0
  0
VERTEX
  5
2C09
  8
0
 10
171.94840338634859
 20
109.56175408172069
 30
0.0
  0
VERTEX
  5
2C0A
  8
0
 10
171.9431408827362
 20
109.30702558267789
 30
0.0
  0
VERTEX
  5
2C0B
  8
0
 10
171.93267474093781
 20
109.0529965970015
 30
0.0
  0
VERTEX
  5
2C0C
  8
0
 10
171.92550545664889
 20
108.9261309548083
 30
0.0
  0
VERTEX
  5
2C0D
  8
0
 10
171.9170515500328
 20
108.7993048804438
 30
0.0
  0
VERTEX
  5
2C0E
  8
0
 10
171.8963028830336
 20
108.5455944516782
 30
0.0
  0
VERTEX
  5
2C0F
  8
0
 10
171.87044570067101
 20
108.2915138401159
 30
0.0
  0
VERTEX
  5
2C10
  8
0
 10
171.83948264637559
 20
108.03671439853581
 30
0.0
  0
VERTEX
  5
2C11
  8
0
 10
171.80340223756801
 20
107.780848662872
 30
0.0
  0
VERTEX
  5
2C12
  8
0
 10
171.7621789569144
 20
107.5235687424951
 30
0.0
  0
VERTEX
  5
2C13
  8
0
 10
171.7396269282425
 20
107.39428923796579
 30
0.0
  0
VERTEX
  5
2C14
  8
0
 10
171.7157732458582
 20
107.26452472502071
 30
0.0
  0
VERTEX
  5
2C15
  8
0
 10
171.66413140144391
 20
107.00336308009381
 30
0.0
  0
VERTEX
  5
2C16
  8
0
 10
171.60718537619579
 20
106.7397250467545
 30
0.0
  0
VERTEX
  5
2C17
  8
0
 10
171.5448524795662
 20
106.47324498888609
 30
0.0
  0
VERTEX
  5
2C18
  8
0
 10
171.47703497820621
 20
106.2035487028925
 30
0.0
  0
VERTEX
  5
2C19
  8
0
 10
171.4036195910013
 20
105.9302516611256
 30
0.0
  0
VERTEX
  5
2C1A
  8
0
 10
171.36477288939031
 20
105.7921294185558
 30
0.0
  0
VERTEX
  5
2C1B
  8
0
 10
171.32447687344199
 20
105.6529571736948
 30
0.0
  0
VERTEX
  5
2C1C
  8
0
 10
171.2394604844157
 20
105.37125445009021
 30
0.0
  0
VERTEX
  5
2C1D
  8
0
 10
171.1484063269034
 20
105.08471654054379
 30
0.0
  0
VERTEX
  5
2C1E
  8
0
 10
171.10055870747021
 20
104.9394960123749
 30
0.0
  0
SEQEND
  5
2C1F
  8
0
  0
POLYLINE
  5
195D
  8
0
 66
     1
 10
0.0
 20
0.0
 30
0.0
  0
VERTEX
  5
2C20
  8
0
 10
171.10055870747021
 20
114.4394960123749
 30
0.0
  0
VERTEX
  5
2C21
  8
0
 10
171.1484063269034
 20
114.294275484206
 30
0.0
  0
VERTEX
  5
2C22
  8
0
 10
171.2394604844157
 20
114.0077375746596
 30
0.0
  0
VERTEX
  5
2C23
  8
0
 10
171.32447687344199
 20
113.7260348510551
 30
0.0
  0
VERTEX
  5
2C24
  8
0
 10
171.36477288939031
 20
113.5868626061941
 30
0.0
  0
VERTEX
  5
2C25
  8
0
 10
171.4036195910013
 20
113.4487403636241
 30
0.0
  0
VERTEX
  5
2C26
  8
0
 10
171.47703497820621
 20
113.1754433218573
 30
0.0
  0
VERTEX
  5
2C27
  8
0
 10
171.5448524795662
 20
112.9057470358636
 30
0.0
  0
VERTEX
  5
2C28
  8
0
 10
171.60718537619579
 20
112.63926697799531
 30
0.0
  0
VERTEX
  5
2C29
  8
0
 10
171.66413140144391
 20
112.375628944656
 30
0.0
  0
VERTEX
  5
2C2A
  8
0
 10
171.7157732458582
 20
112.1144672997291
 30
0.0
  0
VERTEX
  5
2C2B
  8
0
 10
171.7396269282425
 20
111.984702786784
 30
0.0
  0
VERTEX
  5
2C2C
  8
0
 10
171.7621789569144
 20
111.85542328225461
 30
0.0
  0
VERTEX
  5
2C2D
  8
0
 10
171.80340223756801
 20
111.5981433618778
 30
0.0
  0
VERTEX
  5
2C2E
  8
0
 10
171.83948264637559
 20
111.342277626214
 30
0.0
  0
VERTEX
  5
2C2F
  8
0
 10
171.87044570067101
 20
111.08747818463399
 30
0.0
  0
VERTEX
  5
2C30
  8
0
 10
171.8963028830336
 20
110.83339757307159
 30
0.0
  0
VERTEX
  5
2C31
  8
0
 10
171.9170515500328
 20
110.57968714430589
 30
0.0
  0
VERTEX
  5
2C32
  8
0
 10
171.92550545664889
 20
110.45286106994141
 30
0.0
  0
VERTEX
  5
2C33
  8
0
 10
171.93267474093781
 20
110.3259954277483
 30
0.0
  0
VERTEX
  5
2C34
  8
0
 10
171.9431408827362
 20
110.0719664420718
 30
0.0
  0
VERTEX
  5
2C35
  8
0
 10
171.94840338634859
 20
109.8172379430292
 30
0.0
  0
VERTEX
  5
2C36
  8
0
 10
171.94906448350221
 20
109.6894960123749
 30
0.0
  0
SEQEND
  5
2C37
  8
0
  0
LINE
  5
195E
  8
0
 10
171.94906448350221
 20
114.4394960123749
 30
0.0
 11
161.94906448350221
 21
114.4394960123749
 31
0.0
  0
POLYLINE
  5
195F
  8
0
 66
     1
 10
0.0
 20
0.0
 30
0.0
  0
VERTEX
  5
2C38
  8
0
 10
171.94906448350221
 20
100.1894960123749
 30
0.0
  0
VERTEX
  5
2C39
  8
0
 10
171.94840338634859
 20
100.3172379430292
 30
0.0
  0
VERTEX
  5
2C3A
  8
0
 10
171.9431408827362
 20
100.5719664420718
 30
0.0
  0
VERTEX
  5
2C3B
  8
0
 10
171.93267474093781
 20
100.8259954277483
 30
0.0
  0
VERTEX
  5
2C3C
  8
0
 10
171.92550545664889
 20
100.95286106994141
 30
0.0
  0
VERTEX
  5
2C3D
  8
0
 10
171.9170515500328
 20
101.07968714430589
 30
0.0
  0
VERTEX
  5
2C3E
  8
0
 10
171.8963028830336
 20
101.33339757307159
 30
0.0
  0
VERTEX
  5
2C3F
  8
0
 10
171.87044570067101
 20
101.58747818463399
 30
0.0
  0
VERTEX
  5
2C40
  8
0
 10
171.83948264637559
 20
101.8422776262139
 30
0.0
  0
VERTEX
  5
2C41
  8
0
 10
171.80340223756801
 20
102.0981433618778
 30
0.0
  0
VERTEX
  5
2C42
  8
0
 10
171.7621789569144
 20
102.35542328225461
 30
0.0
  0
VERTEX
  5
2C43
  8
0
 10
171.7396269282425
 20
102.484702786784
 30
0.0
  0
VERTEX
  5
2C44
  8
0
 10
171.7157732458582
 20
102.6144672997291
 30
0.0
  0
VERTEX
  5
2C45
  8
0
 10
171.66413140144391
 20
102.875628944656
 30
0.0
  0
VERTEX
  5
2C46
  8
0
 10
171.60718537619579
 20
103.13926697799531
 30
0.0
  0
VERTEX
  5
2C47
  8
0
 10
171.5448524795662
 20
103.4057470358636
 30
0.0
  0
VERTEX
  5
2C48
  8
0
 10
171.47703497820621
 20
103.6754433218573
 30
0.0
  0
VERTEX
  5
2C49
  8
0
 10
171.4036195910013
 20
103.9487403636241
 30
0.0
  0
VERTEX
  5
2C4A
  8
0
 10
171.36477288939031
 20
104.0868626061941
 30
0.0
  0
VERTEX
  5
2C4B
  8
0
 10
171.32447687344199
 20
104.2260348510551
 30
0.0
  0
VERTEX
  5
2C4C
  8
0
 10
171.2394604844157
 20
104.5077375746596
 30
0.0
  0
VERTEX
  5
2C4D
  8
0
 10
171.1484063269034
 20
104.794275484206
 30
0.0
  0
VERTEX
  5
2C4E
  8
0
 10
171.10055870747021
 20
104.9394960123749
 30
0.0
  0
SEQEND
  5
2C4F
  8
0
  0
POLYLINE
  5
1960
  8
0
 66
     1
 10
0.0
 20
0.0
 30
0.0
  0
VERTEX
  5
2C50
  8
0
 10
171.10055870747021
 20
95.439496012374946
 30
0.0
  0
VERTEX
  5
2C51
  8
0
 10
171.1484063269034
 20
95.584716540543866
 30
0.0
  0
VERTEX
  5
2C52
  8
0
 10
171.2394604844157
 20
95.871254450090248
 30
0.0
  0
VERTEX
  5
2C53
  8
0
 10
171.32447687344199
 20
96.152957173694801
 30
0.0
  0
VERTEX
  5
2C54
  8
0
 10
171.36477288939031
 20
96.292129418555703
 30
0.0
  0
VERTEX
  5
2C55
  8
0
 10
171.4036195910013
 20
96.430251661125624
 30
0.0
  0
VERTEX
  5
2C56
  8
0
 10
171.47703497820621
 20
96.703548702892533
 30
0.0
  0
VERTEX
  5
2C57
  8
0
 10
171.5448524795662
 20
96.973244988886165
 30
0.0
  0
VERTEX
  5
2C58
  8
0
 10
171.60718537619579
 20
97.239725046754472
 30
0.0
  0
VERTEX
  5
2C59
  8
0
 10
171.66413140144391
 20
97.503363080093834
 30
0.0
  0
VERTEX
  5
2C5A
  8
0
 10
171.7157732458582
 20
97.764524725020749
 30
0.0
  0
VERTEX
  5
2C5B
  8
0
 10
171.7396269282425
 20
97.894289237965765
 30
0.0
  0
VERTEX
  5
2C5C
  8
0
 10
171.7621789569144
 20
98.023568742495115
 30
0.0
  0
VERTEX
  5
2C5D
  8
0
 10
171.80340223756801
 20
98.280848662872074
 30
0.0
  0
VERTEX
  5
2C5E
  8
0
 10
171.83948264637559
 20
98.536714398535835
 30
0.0
  0
VERTEX
  5
2C5F
  8
0
 10
171.87044570067101
 20
98.791513840115897
 30
0.0
  0
VERTEX
  5
2C60
  8
0
 10
171.8963028830336
 20
99.045594451678141
 30
0.0
  0
VERTEX
  5
2C61
  8
0
 10
171.9170515500328
 20
99.299304880443799
 30
0.0
  0
VERTEX
  5
2C62
  8
0
 10
171.92550545664889
 20
99.426130954808343
 30
0.0
  0
VERTEX
  5
2C63
  8
0
 10
171.93267474093781
 20
99.552996597001481
 30
0.0
  0
VERTEX
  5
2C64
  8
0
 10
171.9431408827362
 20
99.807025582677909
 30
0.0
  0
VERTEX
  5
2C65
  8
0
 10
171.94840338634859
 20
100.06175408172069
 30
0.0
  0
VERTEX
  5
2C66
  8
0
 10
171.94906448350221
 20
100.1894960123749
 30
0.0
  0
SEQEND
  5
2C67
  8
0
  0
LINE
  5
1961
  8
0
 10
171.94906448350221
 20
95.439496012374946
 30
0.0
 11
161.94906448350221
 21
95.439496012374946
 31
0.0
  0
LINE
  5
1962
  8
0
 10
161.94906448350221
 20
95.439496012374946
 30
0.0
 11
161.94906448350221
 21
114.4394960123749
 31
0.0
  0
LINE
  5
1963
  8
0
 10
171.94906448350221
 20
114.4394960123749
 30
0.0
 11
171.94906448350221
 21
95.439496012374946
 31
0.0
  0
LINE
  5
19BD
  8
0
 10
161.4490644835021
 20
181.93949601237489
 30
0.0
 11
159.94906448350221
 21
181.939496012375
 31
0.0
  0
ARC
  5
19C1
  8
0
 10
161.4490644835021
 20
182.43949601237489
 30
0.0
 40
0.5
 50
269.99999999999841
 51
0.0
  0
ARC
  5
19C2
  8
0
 10
161.4490644835021
 20
167.43949601237489
 30
0.0
 40
0.5
 50
0.0
 51
90.000000000001606
  0
LINE
  5
19C5
  8
0
 10
161.4490644835021
 20
167.93949601237489
 30
0.0
 11
159.94906448350221
 21
167.93949601237489
 31
0.0
  0
LINE
  5
19C6
  8
0
 10
161.44906448350201
 20
97.939496012374946
 30
0.0
 11
159.94906448350221
 21
97.939496012374946
 31
0.0
  0
ARC
  5
19C9
  8
0
 10
161.44906448350201
 20
97.439496012374946
 30
0.0
 40
0.5
 50
0.0
 51
90.000000000001606
  0
LINE
  5
19CB
  8
3
 10
149.94906448350221
 20
97.859496012374976
 30
0.0
 11
151.94906448350221
 21
97.859496012374947
 31
0.0
  0
LINE
  5
19CC
  8
0
 10
150.86906448350209
 20
96.939496012374946
 30
0.0
 11
151.94906448350221
 21
96.939496012374931
 31
0.0
  0
ARC
  5
19CD
  8
0
 10
161.44906448350201
 20
112.4394960123749
 30
0.0
 40
0.5
 50
269.99999999999841
 51
0.0
  0
LINE
  5
19D0
  8
0
 10
161.44906448350201
 20
111.9394960123749
 30
0.0
 11
159.94906448350221
 21
111.939496012375
 31
0.0
  0
LINE
  5
19D1
  8
3
 10
149.94906448350221
 20
112.0194960123749
 30
0.0
 11
151.94906448350221
 21
112.0194960123749
 31
0.0
  0
LINE
  5
19D2
  8
0
 10
151.94906448350221
 20
112.9394960123749
 30
0.0
 11
150.86906448350209
 21
112.9394960123749
 31
0.0
  0
LINE
  5
1AE3
  8
2
 10
84.949064475768296
 20
180.4243235652153
 30
0.0
 11
84.949064475768296
 21
169.4546684506127
 31
0.0
  0
LINE
  5
1AE4
  8
2
 10
84.94906447576102
 20
169.4546684595357
 30
0.0
 11
75.449064475768296
 21
163.9698409022335
 31
0.0
  0
LINE
  5
1AE5
  8
2
 10
75.449064483502639
 20
163.9698409067046
 30
0.0
 11
65.949064483502639
 21
169.4546684640041
 31
0.0
  0
LINE
  5
1AE6
  8
2
 10
65.949064491229706
 20
169.45466845954121
 30
0.0
 11
65.949064491229706
 21
180.42432357414381
 31
0.0
  0
LINE
  5
1AE7
  8
2
 10
65.949064491229706
 20
180.42432356521431
 30
0.0
 11
75.449064491229706
 21
185.9091511225165
 31
0.0
  0
LINE
  5
1AE8
  8
2
 10
75.449064483502639
 20
185.90915111804549
 30
0.0
 11
84.949064483502625
 21
180.42432356074599
 31
0.0
  0
ARC
  5
1CE4
  8
0
 10
149.94906448350221
 20
174.93949601237489
 30
0.0
 40
8.0
 50
157.88333686751551
 51
202.1166631324833
  0
LINE
  5
1CE5
  8
0
 10
142.5377110779408
 20
177.9514456629955
 30
0.0
 11
142.53771107794071
 21
171.92754636175439
 31
0.0
  0
LINE
  5
1CE6
  8
0
 10
142.5377110779408
 20
107.9514456629955
 30
0.0
 11
142.53771107794071
 21
101.92754636175439
 31
0.0
  0
ARC
  5
1CE7
  8
0
 10
149.94906448350221
 20
104.9394960123749
 30
0.0
 40
8.0
 50
157.88333686751551
 51
202.1166631324833
  0
LINE
  5
1CE8
  8
0
 10
144.2490644835022
 20
108.9394960123749
 30
0.0
 11
144.2490644835022
 21
100.9394960123749
 31
0.0
  0
LINE
  5
1CE9
  8
0
 10
142.53771107794071
 20
101.92754636175439
 30
0.0
 11
144.2490644835022
 21
100.9394960123749
 31
0.0
  0
LINE
  5
1CEA
  8
0
 10
144.2490644835022
 20
100.9394960123749
 30
0.0
 11
149.94906448350221
 21
100.9394960123749
 31
0.0
  0
LINE
  5
1CEB
  8
0
 10
144.2490644835022
 20
108.9394960123749
 30
0.0
 11
142.53771107794071
 21
107.9514456629954
 31
0.0
  0
LINE
  5
1CEC
  8
0
 10
149.94906448350221
 20
108.9394960123749
 30
0.0
 11
144.2490644835022
 21
108.9394960123749
 31
0.0
  0
CIRCLE
  5
1CEE
  8
0
 10
75.449064483502184
 20
174.93949601237489
 30
0.0
 40
3.011949650620465
  0
LINE
  5
1E90
  8
0
 10
153.02086125322671
 20
188.79590247292589
 30
0.0
 11
151.94906448350221
 21
186.93949601237489
 31
0.0
  0
LINE
  5
1E91
  8
0
 10
151.94906448350221
 20
162.93949601237489
 30
0.0
 11
153.02086125322671
 21
161.08308955182389
 31
0.0
  0
LINE
  5
1E92
  8
0
 10
159.94906448350221
 20
186.93949601237489
 30
0.0
 11
158.87726771377771
 21
188.79590247292589
 31
0.0
  0
LINE
  5
1E93
  8
0
 10
158.87726771377771
 20
161.08308955182389
 30
0.0
 11
159.94906448350221
 21
162.93949601237489
 31
0.0
  0
LINE
  5
1E94
  8
0
 10
151.94906448350221
 20
186.93949601237489
 30
0.0
 11
151.94906448350221
 21
162.93949601237489
 31
0.0
  0
LINE
  5
1E95
  8
0
 10
159.94906448350221
 20
186.93949601237489
 30
0.0
 11
159.94906448350221
 21
162.93949601237489
 31
0.0
  0
POLYLINE
  5
1E96
  8
0
 66
     1
 10
0.0
 20
0.0
 30
0.0
  0
VERTEX
  5
2C68
  8
0
 10
153.02086125322671
 20
161.08308955182389
 30
0.0
  0
VERTEX
  5
2C69
  8
0
 10
152.96063906332969
 20
161.1886120395101
 30
0.0
  0
VERTEX
  5
2C6A
  8
0
 10
152.845980176176
 20
161.39689520963881
 30
0.0
  0
VERTEX
  5
2C6B
  8
0
 10
152.73885512991299
 20
161.6017587521157
 30
0.0
  0
VERTEX
  5
2C6C
  8
0
 10
152.6880555978826
 20
161.70300378933629
 30
0.0
  0
VERTEX
  5
2C6D
  8
0
 10
152.6390676412413
 20
161.80350725153141
 30
0.0
  0
VERTEX
  5
2C6E
  8
0
 10
152.54644314611451
 20
162.00243437702659
 30
0.0
  0
VERTEX
  5
2C6F
  8
0
 10
152.46082781588871
 20
162.19882432165281
 30
0.0
  0
VERTEX
  5
2C70
  8
0
 10
152.3820877247241
 20
162.3929531639765
 30
0.0
  0
VERTEX
  5
2C71
  8
0
 10
152.31010815892009
 20
162.5850901657079
 30
0.0
  0
VERTEX
  5
2C72
  8
0
 10
152.2447930607631
 20
162.77549901820899
 30
0.0
  0
VERTEX
  5
2C73
  8
0
 10
152.214609662535
 20
162.87013656668191
 30
0.0
  0
VERTEX
  5
2C74
  8
0
 10
152.1860646012311
 20
162.96443905001809
 30
0.0
  0
VERTEX
  5
2C75
  8
0
 10
152.13386287756191
 20
163.15216640702141
 30
0.0
  0
VERTEX
  5
2C76
  8
0
 10
152.08814573329161
 20
163.33893521658339
 30
0.0
  0
VERTEX
  5
2C77
  8
0
 10
152.0488886999388
 20
163.52499874681561
 30
0.0
  0
VERTEX
  5
2C78
  8
0
 10
152.01608506108309
 20
163.7106105722188
 30
0.0
  0
VERTEX
  5
2C79
  8
0
 10
151.98974604118709
 20
163.89602575717791
 30
0.0
  0
VERTEX
  5
2C7A
  8
0
 10
151.9790092521327
 20
163.98874002226739
 30
0.0
  0
VERTEX
  5
2C7B
  8
0
 10
151.9699011231896
 20
164.08150206922551
 30
0.0
  0
VERTEX
  5
2C7C
  8
0
 10
151.95659850067301
 20
164.2673012346466
 30
0.0
  0
VERTEX
  5
2C7D
  8
0
 10
151.9499056723364
 20
164.45369024987551
 30
0.0
  0
VERTEX
  5
2C7E
  8
0
 10
151.94906448350221
 20
164.5471911669616
 30
0.0
  0
SEQEND
  5
2C7F
  8
0
  0
POLYLINE
  5
1E97
  8
0
 66
     1
 10
0.0
 20
0.0
 30
0.0
  0
VERTEX
  5
2C80
  8
0
 10
151.94906448350221
 20
164.5471911669616
 30
0.0
  0
VERTEX
  5
2C81
  8
0
 10
151.9499056723364
 20
164.64069208404851
 30
0.0
  0
VERTEX
  5
2C82
  8
0
 10
151.95659850067301
 20
164.82708109927859
 30
0.0
  0
VERTEX
  5
2C83
  8
0
 10
151.9699011231896
 20
165.01288026470061
 30
0.0
  0
VERTEX
  5
2C84
  8
0
 10
151.9790092521327
 20
165.10564231165921
 30
0.0
  0
VERTEX
  5
2C85
  8
0
 10
151.989746041187
 20
165.19835657674909
 30
0.0
  0
VERTEX
  5
2C86
  8
0
 10
152.01608506108309
 20
165.38377176170891
 30
0.0
  0
VERTEX
  5
2C87
  8
0
 10
152.0488886999388
 20
165.5693835871127
 30
0.0
  0
VERTEX
  5
2C88
  8
0
 10
152.0881457332915
 20
165.7554471173452
 30
0.0
  0
VERTEX
  5
2C89
  8
0
 10
152.1338628775618
 20
165.94221592690741
 30
0.0
  0
VERTEX
  5
2C8A
  8
0
 10
152.1860646012309
 20
166.12994328391079
 30
0.0
  0
VERTEX
  5
2C8B
  8
0
 10
152.21460966253491
 20
166.224245767247
 30
0.0
  0
VERTEX
  5
2C8C
  8
0
 10
152.2447930607629
 20
166.3188833157198
 30
0.0
  0
VERTEX
  5
2C8D
  8
0
 10
152.31010815892
 20
166.50929216822081
 30
0.0
  0
VERTEX
  5
2C8E
  8
0
 10
152.38208772472399
 20
166.70142916995189
 30
0.0
  0
VERTEX
  5
2C8F
  8
0
 10
152.46082781588839
 20
166.8955580122751
 30
0.0
  0
VERTEX
  5
2C90
  8
0
 10
152.54644314611431
 20
167.0919479569007
 30
0.0
  0
VERTEX
  5
2C91
  8
0
 10
152.63906764124121
 20
167.29087508239519
 30
0.0
  0
VERTEX
  5
2C92
  8
0
 10
152.6880555978824
 20
167.39137854458991
 30
0.0
  0
VERTEX
  5
2C93
  8
0
 10
152.73885512991279
 20
167.49262358181011
 30
0.0
  0
VERTEX
  5
2C94
  8
0
 10
152.84598017617591
 20
167.697487124286
 30
0.0
  0
VERTEX
  5
2C95
  8
0
 10
152.96063906332969
 20
167.9057702944138
 30
0.0
  0
VERTEX
  5
2C96
  8
0
 10
153.02086125322671
 20
168.01129278209939
 30
0.0
  0
SEQEND
  5
2C97
  8
0
  0
POLYLINE
  5
1E98
  8
0
 66
     1
 10
0.0
 20
0.0
 30
0.0
  0
VERTEX
  5
2C98
  8
0
 10
158.87726771377771
 20
168.01129278209939
 30
0.0
  0
VERTEX
  5
2C99
  8
0
 10
158.9374899036747
 20
167.9057702944132
 30
0.0
  0
VERTEX
  5
2C9A
  8
0
 10
159.05214879082851
 20
167.69748712428449
 30
0.0
  0
VERTEX
  5
2C9B
  8
0
 10
159.1592738370914
 20
167.49262358180769
 30
0.0
  0
VERTEX
  5
2C9C
  8
0
 10
159.2100733691218
 20
167.39137854458701
 30
0.0
  0
VERTEX
  5
2C9D
  8
0
 10
159.2590613257631
 20
167.29087508239189
 30
0.0
  0
VERTEX
  5
2C9E
  8
0
 10
159.35168582089
 20
167.09194795689669
 30
0.0
  0
VERTEX
  5
2C9F
  8
0
 10
159.4373011511158
 20
166.8955580122705
 30
0.0
  0
VERTEX
  5
2CA0
  8
0
 10
159.51604124228021
 20
166.70142916994689
 30
0.0
  0
VERTEX
  5
2CA1
  8
0
 10
159.5880208080842
 20
166.5092921682155
 30
0.0
  0
VERTEX
  5
2CA2
  8
0
 10
159.65333590624141
 20
166.31888331571429
 30
0.0
  0
VERTEX
  5
2CA3
  8
0
 10
159.6835193044694
 20
166.22424576724151
 30
0.0
  0
VERTEX
  5
2CA4
  8
0
 10
159.71206436577339
 20
166.12994328390531
 30
0.0
  0
VERTEX
  5
2CA5
  8
0
 10
159.7642660894426
 20
165.94221592690189
 30
0.0
  0
VERTEX
  5
2CA6
  8
0
 10
159.80998323371281
 20
165.75544711733991
 30
0.0
  0
VERTEX
  5
2CA7
  8
0
 10
159.8492402670656
 20
165.56938358710769
 30
0.0
  0
VERTEX
  5
2CA8
  8
0
 10
159.88204390592131
 20
165.38377176170451
 30
0.0
  0
VERTEX
  5
2CA9
  8
0
 10
159.90838292581731
 20
165.1983565767454
 30
0.0
  0
VERTEX
  5
2CAA
  8
0
 10
159.9191197148717
 20
165.10564231165591
 30
0.0
  0
VERTEX
  5
2CAB
  8
0
 10
159.9282278438148
 20
165.0128802646978
 30
0.0
  0
VERTEX
  5
2CAC
  8
0
 10
159.9415304663313
 20
164.82708109927671
 30
0.0
  0
VERTEX
  5
2CAD
  8
0
 10
159.94822329466811
 20
164.64069208404791
 30
0.0
  0
VERTEX
  5
2CAE
  8
0
 10
159.94906448350221
 20
164.5471911669616
 30
0.0
  0
SEQEND
  5
2CAF
  8
0
  0
POLYLINE
  5
1E99
  8
0
 66
     1
 10
0.0
 20
0.0
 30
0.0
  0
VERTEX
  5
2CB0
  8
0
 10
159.94906448350221
 20
164.5471911669616
 30
0.0
  0
VERTEX
  5
2CB1
  8
0
 10
159.94822329466811
 20
164.4536902498748
 30
0.0
  0
VERTEX
  5
2CB2
  8
0
 10
159.94153046633139
 20
164.26730123464469
 30
0.0
  0
VERTEX
  5
2CB3
  8
0
 10
159.9282278438148
 20
164.08150206922269
 30
0.0
  0
VERTEX
  5
2CB4
  8
0
 10
159.9191197148717
 20
163.9887400222641
 30
0.0
  0
VERTEX
  5
2CB5
  8
0
 10
159.90838292581731
 20
163.89602575717419
 30
0.0
  0
VERTEX
  5
2CB6
  8
0
 10
159.88204390592151
 20
163.71061057221439
 30
0.0
  0
VERTEX
  5
2CB7
  8
0
 10
159.84924026706571
 20
163.52499874681061
 30
0.0
  0
VERTEX
  5
2CB8
  8
0
 10
159.8099832337129
 20
163.33893521657811
 30
0.0
  0
VERTEX
  5
2CB9
  8
0
 10
159.76426608944271
 20
163.1521664070159
 30
0.0
  0
VERTEX
  5
2CBA
  8
0
 10
159.71206436577339
 20
162.96443905001249
 30
0.0
  0
VERTEX
  5
2CBB
  8
0
 10
159.68351930446951
 20
162.87013656667631
 30
0.0
  0
VERTEX
  5
2CBC
  8
0
 10
159.65333590624149
 20
162.7754990182035
 30
0.0
  0
VERTEX
  5
2CBD
  8
0
 10
159.58802080808451
 20
162.58509016570261
 30
0.0
  0
VERTEX
  5
2CBE
  8
0
 10
159.51604124228049
 20
162.39295316397141
 30
0.0
  0
VERTEX
  5
2CBF
  8
0
 10
159.437301151116
 20
162.1988243216482
 30
0.0
  0
VERTEX
  5
2CC0
  8
0
 10
159.35168582089011
 20
162.00243437702261
 30
0.0
  0
VERTEX
  5
2CC1
  8
0
 10
159.25906132576321
 20
161.80350725152809
 30
0.0
  0
VERTEX
  5
2CC2
  8
0
 10
159.21007336912189
 20
161.70300378933351
 30
0.0
  0
VERTEX
  5
2CC3
  8
0
 10
159.1592738370916
 20
161.6017587521132
 30
0.0
  0
VERTEX
  5
2CC4
  8
0
 10
159.0521487908286
 20
161.39689520963731
 30
0.0
  0
VERTEX
  5
2CC5
  8
0
 10
158.9374899036747
 20
161.18861203950951
 30
0.0
  0
VERTEX
  5
2CC6
  8
0
 10
158.87726771377771
 20
161.08308955182389
 30
0.0
  0
SEQEND
  5
2CC7
  8
0
  0
LINE
  5
1E9A
  8
0
 10
153.02086125322671
 20
168.01129278209939
 30
0.0
 11
158.87726771377771
 21
168.01129278209939
 31
0.0
  0
POLYLINE
  5
1E9B
  8
0
 66
     1
 10
0.0
 20
0.0
 30
0.0
  0
VERTEX
  5
2CC8
  8
0
 10
153.02086125322671
 20
168.01129278209939
 30
0.0
  0
VERTEX
  5
2CC9
  8
0
 10
152.96063906332969
 20
168.22233775747179
 30
0.0
  0
VERTEX
  5
2CCA
  8
0
 10
152.845980176176
 20
168.6389040977293
 30
0.0
  0
VERTEX
  5
2CCB
  8
0
 10
152.73885512991299
 20
169.0486311826829
 30
0.0
  0
VERTEX
  5
2CCC
  8
0
 10
152.6880555978826
 20
169.2511212571244
 30
0.0
  0
VERTEX
  5
2CCD
  8
0
 10
152.6390676412413
 20
169.45212818151461
 30
0.0
  0
VERTEX
  5
2CCE
  8
0
 10
152.54644314611451
 20
169.8499824325049
 30
0.0
  0
VERTEX
  5
2CCF
  8
0
 10
152.46082781588871
 20
170.2427623217572
 30
0.0
  0
VERTEX
  5
2CD0
  8
0
 10
152.3820877247241
 20
170.63102000640441
 30
0.0
  0
VERTEX
  5
2CD1
  8
0
 10
152.31010815892009
 20
171.01529400986729
 30
0.0
  0
VERTEX
  5
2CD2
  8
0
 10
152.2447930607631
 20
171.39611171486959
 30
0.0
  0
VERTEX
  5
2CD3
  8
0
 10
152.214609662535
 20
171.5853868118154
 30
0.0
  0
VERTEX
  5
2CD4
  8
0
 10
152.1860646012311
 20
171.7739917784877
 30
0.0
  0
VERTEX
  5
2CD5
  8
0
 10
152.13386287756191
 20
172.14944649249441
 30
0.0
  0
VERTEX
  5
2CD6
  8
0
 10
152.08814573329161
 20
172.5229841116184
 30
0.0
  0
VERTEX
  5
2CD7
  8
0
 10
152.0488886999388
 20
172.89511117208269
 30
0.0
  0
VERTEX
  5
2CD8
  8
0
 10
152.01608506108309
 20
173.26633482288921
 30
0.0
  0
VERTEX
  5
2CD9
  8
0
 10
151.989746041187
 20
173.6371651928074
 30
0.0
  0
VERTEX
  5
2CDA
  8
0
 10
151.97900925213281
 20
173.82259372298631
 30
0.0
  0
VERTEX
  5
2CDB
  8
0
 10
151.9699011231896
 20
174.00811781690271
 30
0.0
  0
VERTEX
  5
2CDC
  8
0
 10
151.95659850067301
 20
174.37971614774469
 30
0.0
  0
VERTEX
  5
2CDD
  8
0
 10
151.9499056723364
 20
174.7524941782026
 30
0.0
  0
VERTEX
  5
2CDE
  8
0
 10
151.94906448350221
 20
174.93949601237489
 30
0.0
  0
SEQEND
  5
2CDF
  8
0
  0
POLYLINE
  5
1E9C
  8
0
 66
     1
 10
0.0
 20
0.0
 30
0.0
  0
VERTEX
  5
2CE0
  8
0
 10
151.94906448350221
 20
174.93949601237489
 30
0.0
  0
VERTEX
  5
2CE1
  8
0
 10
151.9499056723364
 20
175.1264978465486
 30
0.0
  0
VERTEX
  5
2CE2
  8
0
 10
151.95659850067301
 20
175.49927587700881
 30
0.0
  0
VERTEX
  5
2CE3
  8
0
 10
151.9699011231896
 20
175.87087420785289
 30
0.0
  0
VERTEX
  5
2CE4
  8
0
 10
151.9790092521327
 20
176.0563983017702
 30
0.0
  0
VERTEX
  5
2CE5
  8
0
 10
151.989746041187
 20
176.24182683194979
 30
0.0
  0
VERTEX
  5
2CE6
  8
0
 10
152.01608506108309
 20
176.61265720186941
 30
0.0
  0
VERTEX
  5
2CE7
  8
0
 10
152.0488886999388
 20
176.983880852677
 30
0.0
  0
VERTEX
  5
2CE8
  8
0
 10
152.0881457332915
 20
177.35600791314201
 30
0.0
  0
VERTEX
  5
2CE9
  8
0
 10
152.13386287756191
 20
177.7295455322664
 30
0.0
  0
VERTEX
  5
2CEA
  8
0
 10
152.1860646012309
 20
178.10500024627319
 30
0.0
  0
VERTEX
  5
2CEB
  8
0
 10
152.21460966253491
 20
178.29360521294561
 30
0.0
  0
VERTEX
  5
2CEC
  8
0
 10
152.2447930607629
 20
178.4828803098913
 30
0.0
  0
VERTEX
  5
2CED
  8
0
 10
152.31010815892
 20
178.8636980148932
 30
0.0
  0
VERTEX
  5
2CEE
  8
0
 10
152.38208772472399
 20
179.2479720183554
 30
0.0
  0
VERTEX
  5
2CEF
  8
0
 10
152.46082781588839
 20
179.63622970300179
 30
0.0
  0
VERTEX
  5
2CF0
  8
0
 10
152.54644314611431
 20
180.029009592253
 30
0.0
  0
VERTEX
  5
2CF1
  8
0
 10
152.63906764124121
 20
180.4268638432419
 30
0.0
  0
VERTEX
  5
2CF2
  8
0
 10
152.6880555978824
 20
180.62787076763129
 30
0.0
  0
VERTEX
  5
2CF3
  8
0
 10
152.73885512991279
 20
180.83036084207191
 30
0.0
  0
VERTEX
  5
2CF4
  8
0
 10
152.84598017617591
 20
181.24008792702369
 30
0.0
  0
VERTEX
  5
2CF5
  8
0
 10
152.96063906332969
 20
181.65665426727921
 30
0.0
  0
VERTEX
  5
2CF6
  8
0
 10
153.02086125322671
 20
181.8676992426505
 30
0.0
  0
SEQEND
  5
2CF7
  8
0
  0
POLYLINE
  5
1E9D
  8
0
 66
     1
 10
0.0
 20
0.0
 30
0.0
  0
VERTEX
  5
2CF8
  8
0
 10
158.87726771377771
 20
181.8676992426505
 30
0.0
  0
VERTEX
  5
2CF9
  8
0
 10
158.9374899036747
 20
181.6566542672781
 30
0.0
  0
VERTEX
  5
2CFA
  8
0
 10
159.05214879082851
 20
181.2400879270206
 30
0.0
  0
VERTEX
  5
2CFB
  8
0
 10
159.1592738370914
 20
180.83036084206691
 30
0.0
  0
VERTEX
  5
2CFC
  8
0
 10
159.2100733691218
 20
180.6278707676255
 30
0.0
  0
VERTEX
  5
2CFD
  8
0
 10
159.2590613257631
 20
180.42686384323531
 30
0.0
  0
VERTEX
  5
2CFE
  8
0
 10
159.3516858208898
 20
180.02900959224499
 30
0.0
  0
VERTEX
  5
2CFF
  8
0
 10
159.4373011511158
 20
179.63622970299269
 30
0.0
  0
VERTEX
  5
2D00
  8
0
 10
159.51604124228021
 20
179.24797201834539
 30
0.0
  0
VERTEX
  5
2D01
  8
0
 10
159.5880208080842
 20
178.86369801488249
 30
0.0
  0
VERTEX
  5
2D02
  8
0
 10
159.65333590624141
 20
178.48288030988019
 30
0.0
  0
VERTEX
  5
2D03
  8
0
 10
159.6835193044694
 20
178.29360521293449
 30
0.0
  0
VERTEX
  5
2D04
  8
0
 10
159.71206436577339
 20
178.10500024626211
 30
0.0
  0
VERTEX
  5
2D05
  8
0
 10
159.7642660894426
 20
177.72954553225549
 30
0.0
  0
VERTEX
  5
2D06
  8
0
 10
159.80998323371281
 20
177.35600791313141
 30
0.0
  0
VERTEX
  5
2D07
  8
0
 10
159.8492402670656
 20
176.98388085266711
 30
0.0
  0
VERTEX
  5
2D08
  8
0
 10
159.88204390592131
 20
176.6126572018606
 30
0.0
  0
VERTEX
  5
2D09
  8
0
 10
159.90838292581731
 20
176.2418268319424
 30
0.0
  0
VERTEX
  5
2D0A
  8
0
 10
159.9191197148717
 20
176.05639830176349
 30
0.0
  0
VERTEX
  5
2D0B
  8
0
 10
159.9282278438148
 20
175.87087420784721
 30
0.0
  0
VERTEX
  5
2D0C
  8
0
 10
159.9415304663313
 20
175.49927587700509
 30
0.0
  0
VERTEX
  5
2D0D
  8
0
 10
159.94822329466811
 20
175.1264978465473
 30
0.0
  0
VERTEX
  5
2D0E
  8
0
 10
159.94906448350221
 20
174.93949601237489
 30
0.0
  0
SEQEND
  5
2D0F
  8
0
  0
POLYLINE
  5
1E9E
  8
0
 66
     1
 10
0.0
 20
0.0
 30
0.0
  0
VERTEX
  5
2D10
  8
0
 10
159.94906448350221
 20
174.93949601237489
 30
0.0
  0
VERTEX
  5
2D11
  8
0
 10
159.94822329466811
 20
174.7524941782012
 30
0.0
  0
VERTEX
  5
2D12
  8
0
 10
159.9415304663313
 20
174.37971614774099
 30
0.0
  0
VERTEX
  5
2D13
  8
0
 10
159.9282278438148
 20
174.008117816897
 30
0.0
  0
VERTEX
  5
2D14
  8
0
 10
159.9191197148717
 20
173.82259372297969
 30
0.0
  0
VERTEX
  5
2D15
  8
0
 10
159.90838292581731
 20
173.6371651928001
 30
0.0
  0
VERTEX
  5
2D16
  8
0
 10
159.88204390592151
 20
173.2663348228804
 30
0.0
  0
VERTEX
  5
2D17
  8
0
 10
159.84924026706571
 20
172.89511117207289
 30
0.0
  0
VERTEX
  5
2D18
  8
0
 10
159.8099832337129
 20
172.52298411160791
 30
0.0
  0
VERTEX
  5
2D19
  8
0
 10
159.76426608944271
 20
172.14944649248341
 30
0.0
  0
VERTEX
  5
2D1A
  8
0
 10
159.71206436577339
 20
171.77399177847661
 30
0.0
  0
VERTEX
  5
2D1B
  8
0
 10
159.68351930446951
 20
171.5853868118042
 30
0.0
  0
VERTEX
  5
2D1C
  8
0
 10
159.65333590624149
 20
171.39611171485859
 30
0.0
  0
VERTEX
  5
2D1D
  8
0
 10
159.58802080808451
 20
171.01529400985669
 30
0.0
  0
VERTEX
  5
2D1E
  8
0
 10
159.51604124228049
 20
170.63102000639449
 30
0.0
  0
VERTEX
  5
2D1F
  8
0
 10
159.437301151116
 20
170.2427623217481
 30
0.0
  0
VERTEX
  5
2D20
  8
0
 10
159.35168582089011
 20
169.8499824324968
 30
0.0
  0
VERTEX
  5
2D21
  8
0
 10
159.25906132576321
 20
169.45212818150799
 30
0.0
  0
VERTEX
  5
2D22
  8
0
 10
159.21007336912189
 20
169.25112125711851
 30
0.0
  0
VERTEX
  5
2D23
  8
0
 10
159.1592738370916
 20
169.04863118267801
 30
0.0
  0
VERTEX
  5
2D24
  8
0
 10
159.0521487908286
 20
168.63890409772611
 30
0.0
  0
VERTEX
  5
2D25
  8
0
 10
158.9374899036747
 20
168.22233775747071
 30
0.0
  0
VERTEX
  5
2D26
  8
0
 10
158.87726771377771
 20
168.01129278209939
 30
0.0
  0
SEQEND
  5
2D27
  8
0
  0
LINE
  5
1E9F
  8
0
 10
153.02086125322671
 20
181.8676992426505
 30
0.0
 11
158.87726771377771
 21
181.8676992426505
 31
0.0
  0
POLYLINE
  5
1EA0
  8
0
 66
     1
 10
0.0
 20
0.0
 30
0.0
  0
VERTEX
  5
2D28
  8
0
 10
153.02086125322671
 20
181.8676992426505
 30
0.0
  0
VERTEX
  5
2D29
  8
0
 10
152.96063906332969
 20
181.9732217303366
 30
0.0
  0
VERTEX
  5
2D2A
  8
0
 10
152.845980176176
 20
182.18150490046531
 30
0.0
  0
VERTEX
  5
2D2B
  8
0
 10
152.73885512991299
 20
182.3863684429422
 30
0.0
  0
VERTEX
  5
2D2C
  8
0
 10
152.6880555978826
 20
182.48761348016291
 30
0.0
  0
VERTEX
  5
2D2D
  8
0
 10
152.6390676412413
 20
182.588116942358
 30
0.0
  0
VERTEX
  5
2D2E
  8
0
 10
152.54644314611451
 20
182.78704406785309
 30
0.0
  0
VERTEX
  5
2D2F
  8
0
 10
152.46082781588871
 20
182.98343401247931
 30
0.0
  0
VERTEX
  5
2D30
  8
0
 10
152.3820877247241
 20
183.17756285480289
 30
0.0
  0
VERTEX
  5
2D31
  8
0
 10
152.31010815892009
 20
183.3696998565344
 30
0.0
  0
VERTEX
  5
2D32
  8
0
 10
152.2447930607631
 20
183.56010870903549
 30
0.0
  0
VERTEX
  5
2D33
  8
0
 10
152.214609662535
 20
183.65474625750841
 30
0.0
  0
VERTEX
  5
2D34
  8
0
 10
152.1860646012311
 20
183.74904874084459
 30
0.0
  0
VERTEX
  5
2D35
  8
0
 10
152.13386287756191
 20
183.93677609784791
 30
0.0
  0
VERTEX
  5
2D36
  8
0
 10
152.08814573329161
 20
184.12354490740989
 30
0.0
  0
VERTEX
  5
2D37
  8
0
 10
152.0488886999388
 20
184.30960843764211
 30
0.0
  0
VERTEX
  5
2D38
  8
0
 10
152.01608506108309
 20
184.49522026304541
 30
0.0
  0
VERTEX
  5
2D39
  8
0
 10
151.989746041187
 20
184.68063544800441
 30
0.0
  0
VERTEX
  5
2D3A
  8
0
 10
151.9790092521327
 20
184.77334971309389
 30
0.0
  0
VERTEX
  5
2D3B
  8
0
 10
151.9699011231896
 20
184.86611176005209
 30
0.0
  0
VERTEX
  5
2D3C
  8
0
 10
151.95659850067301
 20
185.05191092547309
 30
0.0
  0
VERTEX
  5
2D3D
  8
0
 10
151.9499056723364
 20
185.23829994070201
 30
0.0
  0
VERTEX
  5
2D3E
  8
0
 10
151.94906448350221
 20
185.33180085778821
 30
0.0
  0
SEQEND
  5
2D3F
  8
0
  0
POLYLINE
  5
1EA1
  8
0
 66
     1
 10
0.0
 20
0.0
 30
0.0
  0
VERTEX
  5
2D40
  8
0
 10
151.94906448350221
 20
185.33180085778821
 30
0.0
  0
VERTEX
  5
2D41
  8
0
 10
151.9499056723364
 20
185.42530177487501
 30
0.0
  0
VERTEX
  5
2D42
  8
0
 10
151.95659850067301
 20
185.6116907901052
 30
0.0
  0
VERTEX
  5
2D43
  8
0
 10
151.9699011231896
 20
185.79748995552711
 30
0.0
  0
VERTEX
  5
2D44
  8
0
 10
151.9790092521327
 20
185.89025200248579
 30
0.0
  0
VERTEX
  5
2D45
  8
0
 10
151.989746041187
 20
185.98296626757559
 30
0.0
  0
VERTEX
  5
2D46
  8
0
 10
152.01608506108309
 20
186.16838145253541
 30
0.0
  0
VERTEX
  5
2D47
  8
0
 10
152.0488886999388
 20
186.3539932779392
 30
0.0
  0
VERTEX
  5
2D48
  8
0
 10
152.0881457332915
 20
186.5400568081717
 30
0.0
  0
VERTEX
  5
2D49
  8
0
 10
152.1338628775618
 20
186.72682561773399
 30
0.0
  0
VERTEX
  5
2D4A
  8
0
 10
152.1860646012309
 20
186.9145529747374
 30
0.0
  0
VERTEX
  5
2D4B
  8
0
 10
152.21460966253491
 20
187.00885545807361
 30
0.0
  0
VERTEX
  5
2D4C
  8
0
 10
152.2447930607629
 20
187.10349300654639
 30
0.0
  0
VERTEX
  5
2D4D
  8
0
 10
152.31010815892
 20
187.29390185904731
 30
0.0
  0
VERTEX
  5
2D4E
  8
0
 10
152.38208772472399
 20
187.48603886077839
 30
0.0
  0
VERTEX
  5
2D4F
  8
0
 10
152.46082781588839
 20
187.6801677031016
 30
0.0
  0
VERTEX
  5
2D50
  8
0
 10
152.54644314611431
 20
187.8765576477272
 30
0.0
  0
VERTEX
  5
2D51
  8
0
 10
152.63906764124121
 20
188.07548477322169
 30
0.0
  0
VERTEX
  5
2D52
  8
0
 10
152.6880555978824
 20
188.17598823541641
 30
0.0
  0
VERTEX
  5
2D53
  8
0
 10
152.73885512991279
 20
188.27723327263669
 30
0.0
  0
VERTEX
  5
2D54
  8
0
 10
152.84598017617591
 20
188.48209681511261
 30
0.0
  0
VERTEX
  5
2D55
  8
0
 10
152.96063906332969
 20
188.6903799852403
 30
0.0
  0
VERTEX
  5
2D56
  8
0
 10
153.02086125322671
 20
188.79590247292589
 30
0.0
  0
SEQEND
  5
2D57
  8
0
  0
POLYLINE
  5
1EA2
  8
0
 66
     1
 10
0.0
 20
0.0
 30
0.0
  0
VERTEX
  5
2D58
  8
0
 10
158.87726771377771
 20
188.79590247292589
 30
0.0
  0
VERTEX
  5
2D59
  8
0
 10
158.9374899036747
 20
188.6903799852397
 30
0.0
  0
VERTEX
  5
2D5A
  8
0
 10
159.05214879082851
 20
188.48209681511099
 30
0.0
  0
VERTEX
  5
2D5B
  8
0
 10
159.1592738370914
 20
188.27723327263419
 30
0.0
  0
VERTEX
  5
2D5C
  8
0
 10
159.2100733691218
 20
188.17598823541351
 30
0.0
  0
VERTEX
  5
2D5D
  8
0
 10
159.2590613257631
 20
188.07548477321839
 30
0.0
  0
VERTEX
  5
2D5E
  8
0
 10
159.3516858208898
 20
187.87655764772319
 30
0.0
  0
VERTEX
  5
2D5F
  8
0
 10
159.4373011511158
 20
187.68016770309711
 30
0.0
  0
VERTEX
  5
2D60
  8
0
 10
159.51604124228021
 20
187.4860388607735
 30
0.0
  0
VERTEX
  5
2D61
  8
0
 10
159.5880208080842
 20
187.29390185904199
 30
0.0
  0
VERTEX
  5
2D62
  8
0
 10
159.65333590624141
 20
187.1034930065409
 30
0.0
  0
VERTEX
  5
2D63
  8
0
 10
159.6835193044694
 20
187.00885545806801
 30
0.0
  0
VERTEX
  5
2D64
  8
0
 10
159.71206436577339
 20
186.91455297473181
 30
0.0
  0
VERTEX
  5
2D65
  8
0
 10
159.7642660894426
 20
186.72682561772851
 30
0.0
  0
VERTEX
  5
2D66
  8
0
 10
159.80998323371281
 20
186.54005680816641
 30
0.0
  0
VERTEX
  5
2D67
  8
0
 10
159.8492402670656
 20
186.35399327793431
 30
0.0
  0
VERTEX
  5
2D68
  8
0
 10
159.88204390592131
 20
186.16838145253101
 30
0.0
  0
VERTEX
  5
2D69
  8
0
 10
159.90838292581731
 20
185.9829662675719
 30
0.0
  0
VERTEX
  5
2D6A
  8
0
 10
159.9191197148717
 20
185.8902520024825
 30
0.0
  0
VERTEX
  5
2D6B
  8
0
 10
159.9282278438148
 20
185.7974899555243
 30
0.0
  0
VERTEX
  5
2D6C
  8
0
 10
159.9415304663313
 20
185.6116907901033
 30
0.0
  0
VERTEX
  5
2D6D
  8
0
 10
159.94822329466811
 20
185.42530177487441
 30
0.0
  0
VERTEX
  5
2D6E
  8
0
 10
159.94906448350221
 20
185.33180085778821
 30
0.0
  0
SEQEND
  5
2D6F
  8
0
  0
POLYLINE
  5
1EA3
  8
0
 66
     1
 10
0.0
 20
0.0
 30
0.0
  0
VERTEX
  5
2D70
  8
0
 10
159.94906448350221
 20
185.33180085778821
 30
0.0
  0
VERTEX
  5
2D71
  8
0
 10
159.94822329466811
 20
185.23829994070141
 30
0.0
  0
VERTEX
  5
2D72
  8
0
 10
159.9415304663313
 20
185.05191092547119
 30
0.0
  0
VERTEX
  5
2D73
  8
0
 10
159.9282278438148
 20
184.86611176004919
 30
0.0
  0
VERTEX
  5
2D74
  8
0
 10
159.9191197148717
 20
184.7733497130906
 30
0.0
  0
VERTEX
  5
2D75
  8
0
 10
159.90838292581731
 20
184.68063544800069
 30
0.0
  0
VERTEX
  5
2D76
  8
0
 10
159.88204390592151
 20
184.49522026304089
 30
0.0
  0
VERTEX
  5
2D77
  8
0
 10
159.84924026706571
 20
184.30960843763711
 30
0.0
  0
VERTEX
  5
2D78
  8
0
 10
159.8099832337129
 20
184.12354490740461
 30
0.0
  0
VERTEX
  5
2D79
  8
0
 10
159.76426608944271
 20
183.9367760978424
 30
0.0
  0
VERTEX
  5
2D7A
  8
0
 10
159.71206436577339
 20
183.74904874083899
 30
0.0
  0
VERTEX
  5
2D7B
  8
0
 10
159.68351930446951
 20
183.65474625750281
 30
0.0
  0
VERTEX
  5
2D7C
  8
0
 10
159.65333590624149
 20
183.56010870903
 30
0.0
  0
VERTEX
  5
2D7D
  8
0
 10
159.58802080808451
 20
183.36969985652911
 30
0.0
  0
VERTEX
  5
2D7E
  8
0
 10
159.51604124228049
 20
183.177562854798
 30
0.0
  0
VERTEX
  5
2D7F
  8
0
 10
159.437301151116
 20
182.98343401247479
 30
0.0
  0
VERTEX
  5
2D80
  8
0
 10
159.35168582089011
 20
182.78704406784919
 30
0.0
  0
VERTEX
  5
2D81
  8
0
 10
159.2590613257633
 20
182.5881169423547
 30
0.0
  0
VERTEX
  5
2D82
  8
0
 10
159.21007336912189
 20
182.48761348016001
 30
0.0
  0
VERTEX
  5
2D83
  8
0
 10
159.1592738370916
 20
182.3863684429397
 30
0.0
  0
VERTEX
  5
2D84
  8
0
 10
159.05214879082851
 20
182.18150490046381
 30
0.0
  0
VERTEX
  5
2D85
  8
0
 10
158.9374899036747
 20
181.97322173033609
 30
0.0
  0
VERTEX
  5
2D86
  8
0
 10
158.87726771377771
 20
181.8676992426505
 30
0.0
  0
SEQEND
  5
2D87
  8
0
  0
LINE
  5
1EA4
  8
0
 10
153.02086125322671
 20
188.79590247292589
 30
0.0
 11
158.87726771377771
 21
188.79590247292589
 31
0.0
  0
LINE
  5
1EA5
  8
0
 10
153.02086125322671
 20
161.08308955182389
 30
0.0
 11
158.87726771377771
 21
161.08308955182389
 31
0.0
  0
LINE
  5
23A5
  8
0
 10
159.6603893489185
 20
92.939496012393136
 30
0.0
 11
159.94906448352199
 21
93.439496012408128
 31
0.0
  0
LINE
  5
23A6
  8
0
 10
152.23773961808621
 20
92.939496012393136
 30
0.0
 11
151.9490644834828
 21
93.439496012408128
 31
0.0
  0
LINE
  5
23A7
  8
0
 10
159.6603893489185
 20
92.939496012393136
 30
0.0
 11
152.2377396180776
 21
92.939496012408142
 31
0.0
  0
LINE
  5
23A8
  8
0
 10
153.3095363879155
 20
104.9394960124081
 30
0.0
 11
158.58859257908929
 21
104.9394960124081
 31
0.0
  0
LINE
  5
23A9
  8
0
 10
159.6603893489185
 20
116.93949601242311
 30
0.0
 11
159.94906448352199
 21
116.4394960124081
 31
0.0
  0
LINE
  5
23AA
  8
0
 10
152.23773961808621
 20
116.93949601242311
 30
0.0
 11
151.9490644834828
 21
116.4394960124081
 31
0.0
  0
LINE
  5
23AB
  8
0
 10
159.6603893489185
 20
116.93949601242311
 30
0.0
 11
152.2377396180776
 21
116.9394960124081
 31
0.0
  0
ARC
  5
23AC
  8
0
 10
142.3302623315852
 20
110.9394960124081
 30
0.0
 40
17.330127017333279
 50
339.74384199764671
 51
20.256158002353299
  0
ARC
  5
23AD
  8
0
 10
169.56786663541959
 20
110.9394960124081
 30
0.0
 40
17.330127017333279
 50
159.74384199764671
 51
200.25615800235329
  0
LINE
  5
23AE
  8
0
 10
159.94906448348351
 20
93.439496012341749
 30
0.0
 11
159.94906448352199
 21
116.4394960124081
 31
0.0
  0
LINE
  5
23AF
  8
0
 10
151.9490644834828
 20
116.4394960124081
 30
0.0
 11
151.94906448352131
 21
93.439496012341749
 31
0.0
  0
ARC
  5
23B0
  8
0
 10
142.3302623315852
 20
98.939496012408142
 30
0.0
 40
17.330127017333279
 50
339.74384199764671
 51
20.256158002353299
  0
ARC
  5
23B1
  8
0
 10
169.56786663541959
 20
98.939496012408142
 30
0.0
 40
17.330127017333279
 50
159.74384199764671
 51
200.25615800235329
  0
LINE
  5
25E9
  8
0
 10
87.449064473733074
 20
181.8676992370161
 30
0.0
 11
87.449064473733074
 21
168.0112927764653
 31
0.0
  0
LINE
  5
25EA
  8
0
 10
87.449064473725798
 20
168.01129278773581
 30
0.0
 11
75.449064473733074
 21
161.08308955745949
 31
0.0
  0
LINE
  5
25EB
  8
0
 10
75.449064483504685
 20
161.08308956310751
 30
0.0
 11
63.449064483504678
 21
168.01129279338011
 31
0.0
  0
LINE
  5
25EC
  8
0
 10
63.449064493276303
 20
168.01129278774309
 30
0.0
 11
63.449064493276303
 21
181.8676992482938
 31
0.0
  0
LINE
  5
25ED
  8
0
 10
63.449064493276303
 20
181.86769923701431
 30
0.0
 11
75.449064493276296
 21
188.79590246729049
 31
0.0
  0
LINE
  5
25EE
  8
0
 10
75.449064483504685
 20
188.79590246164261
 30
0.0
 11
87.449064483504685
 21
181.8676992313699
 31
0.0
  0
CIRCLE
  5
2A6E
  8
0
 10
75.449064483502184
 20
174.93949601237489
 30
0.0
 40
11.5
  0
TEXT
  5
2B1F
  8
0
 62
     3
 10
0.0
 20
0.0
 30
0.0
 40
5.0
  1
NDXNS16W
  7
STANDARD1
  0
ENDSEC
  0
EOF
