  0
SECTION
  2
HEADER
  9
$ACADVER
  1
AC1009
  9
$INSBASE
 10
0.0
 20
0.0
 30
0.0
  9
$EXTMIN
 10
0.0
 20
-1.4802182810368341
 30
0.0
  9
$EXTMAX
 10
118.9638548703485
 20
78.376807688960952
 30
0.0
  9
$LIMMIN
 10
0.0
 20
0.0
  9
$LIMMAX
 10
187.5
 20
135.0
  9
$ORTHOMODE
 70
     1
  9
$REGENMODE
 70
     1
  9
$FILLMODE
 70
     1
  9
$QTEXTMODE
 70
     0
  9
$MIRRTEXT
 70
     0
  9
$DRAGMODE
 70
     2
  9
$LTSCALE
 40
5.0
  9
$OSMODE
 70
    37
  9
$ATTMODE
 70
     1
  9
$TEXTSIZE
 40
4.0
  9
$TRACEWID
 40
0.05
  9
$TEXTSTYLE
  7
STANDARD
  9
$CLAYER
  8
0
  9
$CELTYPE
  6
BYLAYER
  9
$CECOLOR
 62
   256
  9
$DIMSCALE
 40
0.5
  9
$DIMASZ
 40
3.0
  9
$DIMEXO
 40
2.0
  9
$DIMDLI
 40
0.38
  9
$DIMRND
 40
0.0
  9
$DIMDLE
 40
0.0
  9
$DIMEXE
 40
2.0
  9
$DIMTP
 40
0.0
  9
$DIMTM
 40
0.0
  9
$DIMTXT
 40
3.0
  9
$DIMCEN
 40
0.0
  9
$DIMTSZ
 40
0.0
  9
$DIMTOL
 70
     0
  9
$DIMLIM
 70
     0
  9
$DIMTIH
 70
     0
  9
$DIMTOH
 70
     0
  9
$DIMSE1
 70
     0
  9
$DIMSE2
 70
     0
  9
$DIMTAD
 70
     1
  9
$DIMZIN
 70
     0
  9
$DIMBLK
  1

  9
$DIMASO
 70
     0
  9
$DIMSHO
 70
     0
  9
$DIMPOST
  1

  9
$DIMAPOST
  1

  9
$DIMALT
 70
     0
  9
$DIMALTD
 70
     2
  9
$DIMALTF
 40
25.399999999999999
  9
$DIMLFAC
 40
1.0
  9
$DIMTOFL
 70
     0
  9
$DIMTVP
 40
1.6000000000000001
  9
$DIMTIX
 70
     1
  9
$DIMSOXD
 70
     0
  9
$DIMSAH
 70
     0
  9
$DIMBLK1
  1

  9
$DIMBLK2
  1

  9
$DIMSTYLE
  2
STANDARD
  9
$DIMCLRD
 70
     0
  9
$DIMCLRE
 70
     0
  9
$DIMCLRT
 70
     0
  9
$DIMTFAC
 40
1.0
  9
$DIMGAP
 40
0.09
  9
$LUNITS
 70
     2
  9
$LUPREC
 70
     4
  9
$SKETCHINC
 40
0.1
  9
$FILLETRAD
 40
0.4
  9
$AUNITS
 70
     0
  9
$AUPREC
 70
     0
  9
$MENU
  1
E:\r13\win\SUPPORT\ACAD
  9
$ELEVATION
 40
0.0
  9
$PELEVATION
 40
0.0
  9
$THICKNESS
 40
0.0
  9
$LIMCHECK
 70
     0
  9
$BLIPMODE
 70
     0
  9
$CHAMFERA
 40
0.0
  9
$CHAMFERB
 40
0.0
  9
$SKPOLY
 70
     0
  9
$TDCREATE
 40
2449840.6143865739
  9
$TDUPDATE
 40
2456776.5874820021
  9
$TDINDWG
 40
0.4689684838
  9
$TDUSRTIMER
 40
0.4689684838
  9
$USRTIMER
 70
     1
  9
$ANGBASE
 50
0.0
  9
$ANGDIR
 70
     0
  9
$PDMODE
 70
     0
  9
$PDSIZE
 40
0.0
  9
$PLINEWID
 40
0.0
  9
$COORDS
 70
     1
  9
$SPLFRAME
 70
     0
  9
$SPLINETYPE
 70
     6
  9
$SPLINESEGS
 70
     8
  9
$ATTDIA
 70
     0
  9
$ATTREQ
 70
     1
  9
$HANDLING
 70
     1
  9
$HANDSEED
  5
2E26
  9
$SURFTAB1
 70
     6
  9
$SURFTAB2
 70
     6
  9
$SURFTYPE
 70
     6
  9
$SURFU
 70
     6
  9
$SURFV
 70
     6
  9
$UCSNAME
  2

  9
$UCSORG
 10
0.0
 20
0.0
 30
0.0
  9
$UCSXDIR
 10
1.0
 20
0.0
 30
0.0
  9
$UCSYDIR
 10
0.0
 20
1.0
 30
0.0
  9
$PUCSNAME
  2

  9
$PUCSORG
 10
0.0
 20
0.0
 30
0.0
  9
$PUCSXDIR
 10
1.0
 20
0.0
 30
0.0
  9
$PUCSYDIR
 10
0.0
 20
1.0
 30
0.0
  9
$USERI1
 70
     0
  9
$USERI2
 70
     1
  9
$USERI3
 70
     1
  9
$USERI4
 70
     0
  9
$USERI5
 70
     0
  9
$USERR1
 40
0.0
  9
$USERR2
 40
0.0
  9
$USERR3
 40
0.0
  9
$USERR4
 40
0.0
  9
$USERR5
 40
0.0
  9
$WORLDVIEW
 70
     1
  9
$SHADEDGE
 70
     3
  9
$SHADEDIF
 70
    70
  9
$TILEMODE
 70
     1
  9
$MAXACTVP
 70
    16
  9
$PLIMCHECK
 70
     0
  9
$PEXTMIN
 10
1.0000000000000000E+020
 20
1.0000000000000000E+020
 30
1.0000000000000000E+020
  9
$PEXTMAX
 10
-1.0000000000000000E+020
 20
-1.0000000000000000E+020
 30
-1.0000000000000000E+020
  9
$PLIMMIN
 10
0.0
 20
0.0
  9
$PLIMMAX
 10
12.0
 20
9.0
  9
$UNITMODE
 70
     0
  9
$VISRETAIN
 70
     0
  9
$PLINEGEN
 70
     0
  9
$PSLTSCALE
 70
     0
  0
ENDSEC
  0
SECTION
  2
TABLES
  0
TABLE
  2
VPORT
 70
     1
  0
VPORT
  2
*ACTIVE
 70
     0
 10
0.0
 20
0.0
 11
1.0
 21
1.0
 12
157.0931849791377
 22
90.0
 13
0.0
 23
0.0
 14
5.0
 24
5.0
 15
5.0
 25
5.0
 16
0.0
 26
0.0
 36
1.0
 17
0.0
 27
0.0
 37
0.0
 40
180.0
 41
1.7454798331015291
 42
50.0
 43
0.0
 44
0.0
 50
0.0
 51
0.0
 71
     0
 72
   100
 73
     1
 74
     0
 75
     0
 76
     0
 77
     0
 78
     0
  0
ENDTAB
  0
TABLE
  2
LTYPE
 70
     4
  0
LTYPE
  2
CONTINUOUS
 70
     0
  3
Solid Line
 72
    65
 73
     0
 40
0.0
  0
LTYPE
  2
CENTER
 70
     0
  3
____ _ ____ _ ____ _ ____ _ ____ _ ____ _ ____
 72
    65
 73
     4
 40
2.0
 49
1.25
 49
-0.25
 49
0.25
 49
-0.25
  0
LTYPE
  2
HIDDEN
 70
     0
  3
_ _ _ _ _ _ _ _ _ _ _ _ _ _ _ _ _ _ _ _ _ _ _
 72
    65
 73
     2
 40
0.375
 49
0.25
 49
-0.125
  0
LTYPE
  2
PHANTOM2
 70
     0
  3
___ _ _ ___ _ _ ___ _ _ ___ _ _
 72
    65
 73
     6
 40
1.25
 49
0.625
 49
-0.125
 49
0.125
 49
-0.125
 49
0.125
 49
-0.125
  0
ENDTAB
  0
TABLE
  2
LAYER
 70
     4
  0
LAYER
  2
0
 70
     0
 62
     7
  6
CONTINUOUS
  0
LAYER
  2
1
 70
     0
 62
     1
  6
CENTER
  0
LAYER
  2
3
 70
     0
 62
     3
  6
CONTINUOUS
  0
LAYER
  2
2
 70
     0
 62
     2
  6
HIDDEN
  0
ENDTAB
  0
TABLE
  2
STYLE
 70
     2
  0
STYLE
  2
STANDARD
 70
     0
 40
0.0
 41
1.0
 50
0.0
 71
     0
 42
4.0
  3
TXT
  4
BIGFONT
  0
STYLE
  2
STANDARD1
 70
     0
 40
0.0
 41
1.0
 50
0.0
 71
     0
 42
3.0
  3
txt
  4

  0
ENDTAB
  0
TABLE
  2
VIEW
 70
     1
  0
VIEW
  2
ALL
 70
     0
 40
179.66152299999999
 10
141.903918
 20
89.830760999999995
 41
1.0
 11
0.0
 21
0.0
 31
1.0
 12
0.0
 22
0.0
 32
0.0
 42
50.0
 43
0.0
 44
0.0
 50
0.0
 71
     0
  0
ENDTAB
  0
TABLE
  2
UCS
 70
     0
  0
ENDTAB
  0
TABLE
  2
APPID
 70
     6
  0
APPID
  2
ACAD
 70
     0
  0
APPID
  2
DCO15
 70
     0
  0
APPID
  2
ACAD_MLEADERVER
 70
     0
  0
APPID
  2
ACAD_NAV_VCDISPLAY
 70
     0
  0
APPID
  2
ACAD_EXEMPT_FROM_CAD_STANDARDS
 70
     0
  0
APPID
  2
ACADANNOTATIVE
 70
     0
  0
ENDTAB
  0
TABLE
  2
DIMSTYLE
 70
     1
  0
DIMSTYLE
  2
STANDARD
 70
     0
  3

  4

  5

  6

  7

 40
1.0
 41
0.18
 42
0.0625
 43
0.38
 44
0.18
 45
0.0
 46
0.0
 47
0.0
 48
0.0
140
0.18
141
0.09
142
0.0
143
25.399999999999999
144
1.0
145
0.0
146
1.0
147
0.09
 71
     0
 72
     0
 73
     1
 74
     1
 75
     0
 76
     0
 77
     0
 78
     0
170
     0
171
     2
172
     0
173
     0
174
     0
175
     0
176
     0
177
     0
178
     0
  0
ENDTAB
  0
ENDSEC
  0
SECTION
  2
BLOCKS
  0
BLOCK
  8
0
  2
$MODEL_SPACE
 70
     0
 10
0.0
 20
0.0
 30
0.0
  3
$MODEL_SPACE
  1

  0
ENDBLK
  5
1BD
  8
0
  0
BLOCK
 67
     1
  8
0
  2
$PAPER_SPACE
 70
     0
 10
0.0
 20
0.0
 30
0.0
  3
$PAPER_SPACE
  1

  0
ENDBLK
  5
1BB
 67
     1
  8
0
  0
ENDSEC
  0
SECTION
  2
ENTITIES
  0
TEXT
  5
1B5D
  8
0
 62
     3
 10
0.0
 20
0.0
 30
0.0
 40
5.0
  1
NDXNS6
  7
STANDARD1
  0
LINE
  5
2375
  8
1
 10
17.91117704260386
 20
78.376807688960952
 30
0.0
 11
17.91117704260386
 21
58.376807688960952
 31
0.0
  0
LINE
  5
2376
  8
1
 10
7.9111770426038603
 20
68.376807688960952
 30
0.0
 11
27.91117704260386
 21
68.376807688960952
 31
0.0
  0
CIRCLE
  5
2377
  8
0
 10
17.91117704260386
 20
68.376807688960952
 30
0.0
 40
7.0
  0
CIRCLE
  5
2379
  8
0
 10
17.91117704260386
 20
68.376807688960952
 30
0.0
 40
1.5
  0
CIRCLE
  5
237B
  8
0
 10
17.91117704260386
 20
68.376807688960952
 30
0.0
 40
3.0
  0
LINE
  5
237C
  8
0
 10
21.91117704260386
 20
70.686208765719471
 30
0.0
 11
17.91117704260386
 21
72.995609842477961
 31
0.0
  0
LINE
  5
237D
  8
0
 10
21.91117704260386
 20
66.067406612202461
 30
0.0
 11
21.91117704260386
 21
70.686208765719471
 31
0.0
  0
LINE
  5
237E
  8
0
 10
17.91117704260386
 20
63.758005535443971
 30
0.0
 11
21.91117704260386
 21
66.067406612202461
 31
0.0
  0
LINE
  5
237F
  8
0
 10
13.91117704260386
 20
70.686208765719471
 30
0.0
 11
13.91117704260386
 21
66.067406612202461
 31
0.0
  0
LINE
  5
2380
  8
0
 10
13.91117704260386
 20
66.067406612202461
 30
0.0
 11
17.91117704260386
 21
63.758005535443971
 31
0.0
  0
LINE
  5
2381
  8
0
 10
17.91117704260386
 20
72.995609842477961
 30
0.0
 11
13.91117704260386
 21
70.686208765719471
 31
0.0
  0
LINE
  5
23CC
  8
1
 10
108.9638548703485
 20
78.376807688960952
 30
0.0
 11
108.9638548703485
 21
58.376807688960952
 31
0.0
  0
LINE
  5
23CD
  8
1
 10
98.963854870348555
 20
68.376807688960952
 30
0.0
 11
118.9638548703485
 21
68.376807688960952
 31
0.0
  0
CIRCLE
  5
23CE
  8
0
 10
108.9638548703485
 20
68.376807688960952
 30
0.0
 40
5.7236352085016646
  0
CIRCLE
  5
23CF
  8
0
 10
108.9638548703485
 20
68.376807688960952
 30
0.0
 40
6.2000000000000002
  0
CIRCLE
  5
23D0
  8
0
 10
108.9638548703485
 20
68.376807688960952
 30
0.0
 40
7.0
  0
ARC
  5
240E
  8
2
 10
82.637552645521595
 20
68.376807688960952
 30
0.0
 40
10.000000000000041
 50
145.08479375255621
 51
214.91520624744379
  0
LINE
  5
2474
  8
1
 10
77.437552645521578
 20
68.376807688960952
 30
0.0
 11
45.937552645521563
 21
68.376807688960952
 31
0.0
  0
ARC
  5
2475
  8
0
 10
73.637552645521566
 20
74.57680768896094
 30
0.0
 40
0.7999999999999991
 50
0.0
 51
90.0
  0
ARC
  5
2476
  8
0
 10
73.637552645521566
 20
62.176807688960963
 30
0.0
 40
0.7999999999999999
 50
270.0
 51
0.0
  0
LINE
  5
2477
  8
0
 10
73.336532843573664
 20
61.376807688960952
 30
0.0
 11
73.637552645521566
 21
61.376807688960952
 31
0.0
  0
LINE
  5
2478
  8
0
 10
73.637552645521566
 20
75.376807688960952
 30
0.0
 11
73.336532843573664
 21
75.376807688960952
 31
0.0
  0
LINE
  5
2479
  8
0
 10
69.237552645521589
 20
64.376807688960952
 30
0.0
 11
73.336532843573664
 21
61.376807688960952
 31
0.0
  0
LINE
  5
247A
  8
0
 10
73.336532843573664
 20
75.376807688960952
 30
0.0
 11
69.237552645521589
 21
72.376807688960952
 31
0.0
  0
LINE
  5
247B
  8
0
 10
63.791106036114847
 20
64.376807688960952
 30
0.0
 11
69.237552645521589
 21
64.376807688960952
 31
0.0
  0
LINE
  5
247C
  8
0
 10
69.237552645521589
 20
72.376807688960952
 30
0.0
 11
63.791106036114847
 21
72.376807688960952
 31
0.0
  0
LINE
  5
247D
  8
0
 10
63.437552645521571
 20
64.730361079554214
 30
0.0
 11
63.791106036114847
 21
64.376807688960952
 31
0.0
  0
LINE
  5
247E
  8
0
 10
63.791106036114847
 20
72.376807688960952
 30
0.0
 11
63.437552645521571
 21
72.023254298367675
 31
0.0
  0
LINE
  5
247F
  8
0
 10
49.737552645521561
 20
66.876807688960952
 30
0.0
 11
52.437552645521578
 21
66.876807688960952
 31
0.0
  0
LINE
  5
2480
  8
0
 10
52.437552645521578
 20
69.876807688960952
 30
0.0
 11
49.737552645521561
 21
69.876807688960952
 31
0.0
  0
LINE
  5
2481
  8
0
 10
49.17807778381124
 20
67.199820650974232
 30
0.0
 11
49.737552645521561
 21
66.876807688960952
 31
0.0
  0
LINE
  5
2482
  8
0
 10
49.737552645521561
 20
69.876807688960952
 30
0.0
 11
49.17807778381124
 21
69.553794726947672
 31
0.0
  0
LINE
  5
2483
  8
0
 10
52.897552645521579
 20
65.376807688960952
 30
0.0
 11
58.437552645521571
 21
65.376807688960952
 31
0.0
  0
LINE
  5
2484
  8
0
 10
58.437552645521571
 20
71.376807688960952
 30
0.0
 11
52.897552645521579
 21
71.376807688960952
 31
0.0
  0
LINE
  5
2485
  8
0
 10
52.437552645521578
 20
65.83680768896096
 30
0.0
 11
52.897552645521579
 21
65.376807688960952
 31
0.0
  0
LINE
  5
2486
  8
0
 10
52.897552645521579
 20
71.376807688960952
 30
0.0
 11
52.437552645521578
 21
70.916807688960944
 31
0.0
  0
LINE
  5
2487
  8
0
 10
63.080287055613411
 20
63.758005535443942
 30
0.0
 11
63.437552645521571
 21
64.376807688960952
 31
0.0
  0
LINE
  5
2488
  8
0
 10
63.437552645521571
 20
72.376807688960952
 30
0.0
 11
63.080287055613411
 21
72.995609842477961
 31
0.0
  0
LINE
  5
2489
  8
0
 10
74.437552645521578
 20
74.57680768896094
 30
0.0
 11
74.437552645521578
 21
62.176807688960963
 31
0.0
  0
LINE
  5
248A
  8
0
 10
73.637552645521566
 20
75.376807688960952
 30
0.0
 11
73.637552645521566
 21
61.376807688960952
 31
0.0
  0
LINE
  5
248B
  8
0
 10
73.336532843573664
 20
75.376807688960952
 30
0.0
 11
73.336532843573664
 21
61.376807688960952
 31
0.0
  0
LINE
  5
248C
  8
0
 10
69.237552645521589
 20
72.376807688960952
 30
0.0
 11
69.237552645521589
 21
64.376807688960952
 31
0.0
  0
LINE
  5
248D
  8
0
 10
63.791106036114847
 20
72.376807688960952
 30
0.0
 11
63.791106036114847
 21
64.376807688960952
 31
0.0
  0
LINE
  5
248E
  8
0
 10
49.737552645521561
 20
69.876807688960952
 30
0.0
 11
49.737552645521561
 21
66.876807688960952
 31
0.0
  0
LINE
  5
248F
  8
0
 10
49.178077783811247
 20
69.553794726947686
 30
0.0
 11
49.178077783811261
 21
67.199820650974203
 31
0.0
  0
LINE
  5
2490
  8
0
 10
52.897552645521579
 20
71.376807688960952
 30
0.0
 11
52.897552645521579
 21
65.376807688960952
 31
0.0
  0
LINE
  5
2491
  8
0
 10
52.437552645521578
 20
70.916807688960944
 30
0.0
 11
52.437552645521578
 21
65.83680768896096
 31
0.0
  0
LINE
  5
2492
  8
0
 10
63.437552645521571
 20
72.376807688960952
 30
0.0
 11
63.437552645521571
 21
64.376807688960952
 31
0.0
  0
POLYLINE
  5
2493
  8
0
 66
     1
 10
0.0
 20
0.0
 30
0.0
 70
     8
  0
VERTEX
  5
2494
  8
0
 10
63.080287055613411
 20
72.995609842477961
 30
0.0
 70
    32
  0
VERTEX
  5
2495
  8
0
 10
63.100013035454332
 20
72.961052709953577
 30
0.0
 70
    32
  0
VERTEX
  5
2496
  8
0
 10
63.137658200874213
 20
72.892725513577147
 30
0.0
 70
    32
  0
VERTEX
  5
2497
  8
0
 10
63.172939451905499
 20
72.825369612119829
 30
0.0
 70
    32
  0
VERTEX
  5
2498
  8
0
 10
63.18970902396584
 20
72.792027243837168
 30
0.0
 70
    32
  0
VERTEX
  5
2499
  8
0
 10
63.20590532697036
 20
72.758893623398166
 30
0.0
 70
    32
  0
VERTEX
  5
249A
  8
0
 10
63.236598121527742
 20
72.693208507237841
 30
0.0
 70
    32
  0
VERTEX
  5
249B
  8
0
 10
63.26505406868273
 20
72.628227167413854
 30
0.0
 70
    32
  0
VERTEX
  5
249C
  8
0
 10
63.291303479281908
 20
72.563864065444733
 30
0.0
 70
    32
  0
VERTEX
  5
249D
  8
0
 10
63.315370842605219
 20
72.500034842631436
 30
0.0
 70
    32
  0
VERTEX
  5
249E
  8
0
 10
63.337274888272759
 20
72.436655946806212
 30
0.0
 70
    32
  0
VERTEX
  5
249F
  8
0
 10
63.347419951604223
 20
72.405109390469264
 30
0.0
 70
    32
  0
VERTEX
  5
24A0
  8
0
 10
63.357028609497178
 20
72.373644260275682
 30
0.0
 70
    32
  0
VERTEX
  5
24A1
  8
0
 10
63.374639247319351
 20
72.310916725403189
 30
0.0
 70
    32
  0
VERTEX
  5
24A2
  8
0
 10
63.39010823495677
 20
72.248389964176312
 30
0.0
 70
    32
  0
VERTEX
  5
24A3
  8
0
 10
63.403431100858498
 20
72.185979887945052
 30
0.0
 70
    32
  0
VERTEX
  5
24A4
  8
0
 10
63.414597328487282
 20
72.123601293284196
 30
0.0
 70
    32
  0
VERTEX
  5
24A5
  8
0
 10
63.423590170223733
 20
72.061167439630538
 30
0.0
 70
    32
  0
VERTEX
  5
24A6
  8
0
 10
63.427264577112602
 20
72.029902154904988
 30
0.0
 70
    32
  0
VERTEX
  5
24A7
  8
0
 10
63.430386412095359
 20
71.998589603953704
 30
0.0
 70
    32
  0
VERTEX
  5
24A8
  8
0
 10
63.434956085255841
 20
71.935776607234473
 30
0.0
 70
    32
  0
VERTEX
  5
24A9
  8
0
 10
63.437262119257632
 20
71.872634306924567
 30
0.0
 70
    32
  0
VERTEX
  5
24AA
  8
0
 10
63.437552645521571
 20
71.840909304098716
 30
0.0
 70
    32
  0
SEQEND
  5
24AB
  8
0
  0
POLYLINE
  5
24AC
  8
0
 66
     1
 10
0.0
 20
0.0
 30
0.0
 70
     8
  0
VERTEX
  5
24AD
  8
0
 10
63.437552645521571
 20
71.840909304098716
 30
0.0
 70
    32
  0
VERTEX
  5
24AE
  8
0
 10
63.437262119257632
 20
71.809184301272666
 30
0.0
 70
    32
  0
VERTEX
  5
24AF
  8
0
 10
63.434956085255841
 20
71.74604200096249
 30
0.0
 70
    32
  0
VERTEX
  5
24B0
  8
0
 10
63.430386412095359
 20
71.683229004243032
 30
0.0
 70
    32
  0
VERTEX
  5
24B1
  8
0
 10
63.427264577112609
 20
71.651916453291648
 30
0.0
 70
    32
  0
VERTEX
  5
24B2
  8
0
 10
63.423590170223733
 20
71.620651168566042
 30
0.0
 70
    32
  0
VERTEX
  5
24B3
  8
0
 10
63.414597328487289
 20
71.558217314912184
 30
0.0
 70
    32
  0
VERTEX
  5
24B4
  8
0
 10
63.403431100858512
 20
71.495838720251214
 30
0.0
 70
    32
  0
VERTEX
  5
24B5
  8
0
 10
63.39010823495677
 20
71.433428644019855
 30
0.0
 70
    32
  0
VERTEX
  5
24B6
  8
0
 10
63.374639247319351
 20
71.370901882792992
 30
0.0
 70
    32
  0
VERTEX
  5
24B7
  8
0
 10
63.357028609497192
 20
71.308174347920442
 30
0.0
 70
    32
  0
VERTEX
  5
24B8
  8
0
 10
63.347419951604238
 20
71.276709217726875
 30
0.0
 70
    32
  0
VERTEX
  5
24B9
  8
0
 10
63.337274888272781
 20
71.245162661389941
 30
0.0
 70
    32
  0
VERTEX
  5
24BA
  8
0
 10
63.31537084260524
 20
71.181783765564774
 30
0.0
 70
    32
  0
VERTEX
  5
24BB
  8
0
 10
63.291303479281929
 20
71.117954542751562
 30
0.0
 70
    32
  0
VERTEX
  5
24BC
  8
0
 10
63.265054068682758
 20
71.053591440782526
 30
0.0
 70
    32
  0
VERTEX
  5
24BD
  8
0
 10
63.23659812152777
 20
70.988610100958653
 30
0.0
 70
    32
  0
VERTEX
  5
24BE
  8
0
 10
63.205905326970388
 20
70.922924984798485
 30
0.0
 70
    32
  0
VERTEX
  5
24BF
  8
0
 10
63.189709023965861
 20
70.889791364359581
 30
0.0
 70
    32
  0
VERTEX
  5
24C0
  8
0
 10
63.172939451905521
 20
70.856448996077006
 30
0.0
 70
    32
  0
VERTEX
  5
24C1
  8
0
 10
63.13765820087422
 20
70.789093094619886
 30
0.0
 70
    32
  0
VERTEX
  5
24C2
  8
0
 10
63.100013035454339
 20
70.720765898243712
 30
0.0
 70
    32
  0
VERTEX
  5
24C3
  8
0
 10
63.080287055613411
 20
70.686208765719442
 30
0.0
 70
    32
  0
SEQEND
  5
24C4
  8
0
  0
LINE
  5
24C5
  8
0
 10
63.080287055613411
 20
70.686208765719442
 30
0.0
 11
58.437552645521571
 21
70.686208765719442
 31
0.0
  0
POLYLINE
  5
24C6
  8
0
 66
     1
 10
0.0
 20
0.0
 30
0.0
 70
     8
  0
VERTEX
  5
24C7
  8
0
 10
63.080287055613411
 20
70.686208765719442
 30
0.0
 70
    32
  0
VERTEX
  5
24C8
  8
0
 10
63.100013035454332
 20
70.617094500670703
 30
0.0
 70
    32
  0
VERTEX
  5
24C9
  8
0
 10
63.137658200874213
 20
70.480440107917872
 30
0.0
 70
    32
  0
VERTEX
  5
24CA
  8
0
 10
63.172939451905499
 20
70.345728305003234
 30
0.0
 70
    32
  0
VERTEX
  5
24CB
  8
0
 10
63.18970902396584
 20
70.279043568437856
 30
0.0
 70
    32
  0
VERTEX
  5
24CC
  8
0
 10
63.205905326970353
 20
70.212776327559851
 30
0.0
 70
    32
  0
VERTEX
  5
24CD
  8
0
 10
63.236598121527742
 20
70.081406095239231
 30
0.0
 70
    32
  0
VERTEX
  5
24CE
  8
0
 10
63.26505406868273
 20
69.951443415591257
 30
0.0
 70
    32
  0
VERTEX
  5
24CF
  8
0
 10
63.291303479281908
 20
69.822717211652986
 30
0.0
 70
    32
  0
VERTEX
  5
24D0
  8
0
 10
63.315370842605219
 20
69.695058766026392
 30
0.0
 70
    32
  0
VERTEX
  5
24D1
  8
0
 10
63.337274888272759
 20
69.568300974375944
 30
0.0
 70
    32
  0
VERTEX
  5
24D2
  8
0
 10
63.347419951604223
 20
69.505207861702075
 30
0.0
 70
    32
  0
VERTEX
  5
24D3
  8
0
 10
63.357028609497178
 20
69.442277601314913
 30
0.0
 70
    32
  0
VERTEX
  5
24D4
  8
0
 10
63.374639247319351
 20
69.316822531569883
 30
0.0
 70
    32
  0
VERTEX
  5
24D5
  8
0
 10
63.39010823495677
 20
69.1917690091162
 30
0.0
 70
    32
  0
VERTEX
  5
24D6
  8
0
 10
63.403431100858498
 20
69.066948856653653
 30
0.0
 70
    32
  0
VERTEX
  5
24D7
  8
0
 10
63.414597328487282
 20
68.94219166733194
 30
0.0
 70
    32
  0
VERTEX
  5
24D8
  8
0
 10
63.423590170223733
 20
68.817323960024595
 30
0.0
 70
    32
  0
VERTEX
  5
24D9
  8
0
 10
63.427264577112602
 20
68.754793390573525
 30
0.0
 70
    32
  0
VERTEX
  5
24DA
  8
0
 10
63.430386412095359
 20
68.692168288670985
 30
0.0
 70
    32
  0
VERTEX
  5
24DB
  8
0
 10
63.434956085255841
 20
68.566542295232523
 30
0.0
 70
    32
  0
VERTEX
  5
24DC
  8
0
 10
63.437262119257632
 20
68.440257694612711
 30
0.0
 70
    32
  0
VERTEX
  5
24DD
  8
0
 10
63.437552645521571
 20
68.376807688960952
 30
0.0
 70
    32
  0
SEQEND
  5
24DE
  8
0
  0
POLYLINE
  5
24DF
  8
0
 66
     1
 10
0.0
 20
0.0
 30
0.0
 70
     8
  0
VERTEX
  5
24E0
  8
0
 10
63.437552645521571
 20
68.376807688960952
 30
0.0
 70
    32
  0
VERTEX
  5
24E1
  8
0
 10
63.437262119257632
 20
68.313357683308908
 30
0.0
 70
    32
  0
VERTEX
  5
24E2
  8
0
 10
63.434956085255841
 20
68.187073082688514
 30
0.0
 70
    32
  0
VERTEX
  5
24E3
  8
0
 10
63.430386412095359
 20
68.061447089249612
 30
0.0
 70
    32
  0
VERTEX
  5
24E4
  8
0
 10
63.427264577112602
 20
67.998821987346844
 30
0.0
 70
    32
  0
VERTEX
  5
24E5
  8
0
 10
63.423590170223733
 20
67.936291417895603
 30
0.0
 70
    32
  0
VERTEX
  5
24E6
  8
0
 10
63.414597328487289
 20
67.811423710587945
 30
0.0
 70
    32
  0
VERTEX
  5
24E7
  8
0
 10
63.403431100858512
 20
67.686666521266005
 30
0.0
 70
    32
  0
VERTEX
  5
24E8
  8
0
 10
63.39010823495677
 20
67.561846368803288
 30
0.0
 70
    32
  0
VERTEX
  5
24E9
  8
0
 10
63.374639247319351
 20
67.436792846349505
 30
0.0
 70
    32
  0
VERTEX
  5
24EA
  8
0
 10
63.357028609497192
 20
67.311337776604432
 30
0.0
 70
    32
  0
VERTEX
  5
24EB
  8
0
 10
63.347419951604238
 20
67.248407516217299
 30
0.0
 70
    32
  0
VERTEX
  5
24EC
  8
0
 10
63.337274888272781
 20
67.18531440354343
 30
0.0
 70
    32
  0
VERTEX
  5
24ED
  8
0
 10
63.31537084260524
 20
67.058556611893096
 30
0.0
 70
    32
  0
VERTEX
  5
24EE
  8
0
 10
63.291303479281929
 20
66.930898166266644
 30
0.0
 70
    32
  0
VERTEX
  5
24EF
  8
0
 10
63.265054068682758
 20
66.8021719623286
 30
0.0
 70
    32
  0
VERTEX
  5
24F0
  8
0
 10
63.23659812152777
 20
66.672209282680853
 30
0.0
 70
    32
  0
VERTEX
  5
24F1
  8
0
 10
63.205905326970388
 20
66.540839050360546
 30
0.0
 70
    32
  0
VERTEX
  5
24F2
  8
0
 10
63.189709023965861
 20
66.474571809482711
 30
0.0
 70
    32
  0
VERTEX
  5
24F3
  8
0
 10
63.172939451905521
 20
66.407887072917561
 30
0.0
 70
    32
  0
VERTEX
  5
24F4
  8
0
 10
63.13765820087422
 20
66.273175270003321
 30
0.0
 70
    32
  0
VERTEX
  5
24F5
  8
0
 10
63.100013035454339
 20
66.136520877250945
 30
0.0
 70
    32
  0
VERTEX
  5
24F6
  8
0
 10
63.080287055613411
 20
66.067406612202461
 30
0.0
 70
    32
  0
SEQEND
  5
24F7
  8
0
  0
LINE
  5
24F8
  8
0
 10
63.080287055613411
 20
66.067406612202461
 30
0.0
 11
58.437552645521571
 21
66.067406612202461
 31
0.0
  0
POLYLINE
  5
24F9
  8
0
 66
     1
 10
0.0
 20
0.0
 30
0.0
 70
     8
  0
VERTEX
  5
24FA
  8
0
 10
63.080287055613411
 20
66.067406612202461
 30
0.0
 70
    32
  0
VERTEX
  5
24FB
  8
0
 10
63.100013035454332
 20
66.032849479678063
 30
0.0
 70
    32
  0
VERTEX
  5
24FC
  8
0
 10
63.137658200874213
 20
65.964522283301633
 30
0.0
 70
    32
  0
VERTEX
  5
24FD
  8
0
 10
63.172939451905499
 20
65.897166381844329
 30
0.0
 70
    32
  0
VERTEX
  5
24FE
  8
0
 10
63.18970902396584
 20
65.863824013561668
 30
0.0
 70
    32
  0
VERTEX
  5
24FF
  8
0
 10
63.205905326970353
 20
65.830690393122623
 30
0.0
 70
    32
  0
VERTEX
  5
2500
  8
0
 10
63.236598121527727
 20
65.765005276962341
 30
0.0
 70
    32
  0
VERTEX
  5
2501
  8
0
 10
63.26505406868273
 20
65.700023937138354
 30
0.0
 70
    32
  0
VERTEX
  5
2502
  8
0
 10
63.291303479281908
 20
65.635660835169205
 30
0.0
 70
    32
  0
VERTEX
  5
2503
  8
0
 10
63.315370842605219
 20
65.571831612355908
 30
0.0
 70
    32
  0
VERTEX
  5
2504
  8
0
 10
63.337274888272759
 20
65.508452716530684
 30
0.0
 70
    32
  0
VERTEX
  5
2505
  8
0
 10
63.347419951604223
 20
65.476906160193749
 30
0.0
 70
    32
  0
VERTEX
  5
2506
  8
0
 10
63.357028609497178
 20
65.445441030000183
 30
0.0
 70
    32
  0
VERTEX
  5
2507
  8
0
 10
63.374639247319351
 20
65.382713495127661
 30
0.0
 70
    32
  0
VERTEX
  5
2508
  8
0
 10
63.39010823495677
 20
65.320186733900812
 30
0.0
 70
    32
  0
VERTEX
  5
2509
  8
0
 10
63.403431100858498
 20
65.257776657669552
 30
0.0
 70
    32
  0
VERTEX
  5
250A
  8
0
 10
63.414597328487282
 20
65.195398063008696
 30
0.0
 70
    32
  0
VERTEX
  5
250B
  8
0
 10
63.423590170223733
 20
65.132964209355009
 30
0.0
 70
    32
  0
VERTEX
  5
250C
  8
0
 10
63.427264577112602
 20
65.101698924629488
 30
0.0
 70
    32
  0
VERTEX
  5
250D
  8
0
 10
63.430386412095359
 20
65.070386373678218
 30
0.0
 70
    32
  0
VERTEX
  5
250E
  8
0
 10
63.434956085255841
 20
65.007573376958973
 30
0.0
 70
    32
  0
VERTEX
  5
250F
  8
0
 10
63.437262119257632
 20
64.944431076649053
 30
0.0
 70
    32
  0
VERTEX
  5
2510
  8
0
 10
63.437552645521571
 20
64.912706073823173
 30
0.0
 70
    32
  0
SEQEND
  5
2511
  8
0
  0
POLYLINE
  5
2512
  8
0
 66
     1
 10
0.0
 20
0.0
 30
0.0
 70
     8
  0
VERTEX
  5
2513
  8
0
 10
63.437552645521571
 20
64.912706073823173
 30
0.0
 70
    32
  0
VERTEX
  5
2514
  8
0
 10
63.437262119257632
 20
64.880981070997166
 30
0.0
 70
    32
  0
VERTEX
  5
2515
  8
0
 10
63.434956085255841
 20
64.81783877068699
 30
0.0
 70
    32
  0
VERTEX
  5
2516
  8
0
 10
63.430386412095359
 20
64.755025773967532
 30
0.0
 70
    32
  0
VERTEX
  5
2517
  8
0
 10
63.427264577112602
 20
64.723713223016148
 30
0.0
 70
    32
  0
VERTEX
  5
2518
  8
0
 10
63.423590170223733
 20
64.692447938290513
 30
0.0
 70
    32
  0
VERTEX
  5
2519
  8
0
 10
63.414597328487289
 20
64.630014084636684
 30
0.0
 70
    32
  0
VERTEX
  5
251A
  8
0
 10
63.403431100858512
 20
64.567635489975714
 30
0.0
 70
    32
  0
VERTEX
  5
251B
  8
0
 10
63.39010823495677
 20
64.50522541374437
 30
0.0
 70
    32
  0
VERTEX
  5
251C
  8
0
 10
63.374639247319351
 20
64.442698652517464
 30
0.0
 70
    32
  0
VERTEX
  5
251D
  8
0
 10
63.357028609497192
 20
64.379971117644942
 30
0.0
 70
    32
  0
VERTEX
  5
251E
  8
0
 10
63.347419951604238
 20
64.348505987451375
 30
0.0
 70
    32
  0
VERTEX
  5
251F
  8
0
 10
63.337274888272781
 20
64.316959431114441
 30
0.0
 70
    32
  0
VERTEX
  5
2520
  8
0
 10
63.31537084260524
 20
64.253580535289274
 30
0.0
 70
    32
  0
VERTEX
  5
2521
  8
0
 10
63.291303479281929
 20
64.189751312476034
 30
0.0
 70
    32
  0
VERTEX
  5
2522
  8
0
 10
63.265054068682758
 20
64.125388210507026
 30
0.0
 70
    32
  0
VERTEX
  5
2523
  8
0
 10
63.23659812152777
 20
64.060406870683153
 30
0.0
 70
    32
  0
VERTEX
  5
2524
  8
0
 10
63.205905326970388
 20
63.994721754522999
 30
0.0
 70
    32
  0
VERTEX
  5
2525
  8
0
 10
63.189709023965861
 20
63.961588134084082
 30
0.0
 70
    32
  0
VERTEX
  5
2526
  8
0
 10
63.172939451905521
 20
63.928245765801499
 30
0.0
 70
    32
  0
VERTEX
  5
2527
  8
0
 10
63.13765820087422
 20
63.860889864344387
 30
0.0
 70
    32
  0
VERTEX
  5
2528
  8
0
 10
63.100013035454339
 20
63.792562667968191
 30
0.0
 70
    32
  0
VERTEX
  5
2529
  8
0
 10
63.080287055613411
 20
63.758005535443942
 30
0.0
 70
    32
  0
SEQEND
  5
252A
  8
0
  0
LINE
  5
252B
  8
0
 10
58.437552645521571
 20
63.758005535443942
 30
0.0
 11
58.437552645521571
 21
72.995609842477961
 31
0.0
  0
LINE
  5
252C
  8
0
 10
63.080287055613411
 20
63.758005535443942
 30
0.0
 11
58.437552645521571
 21
63.758005535443942
 31
0.0
  0
LINE
  5
252D
  8
0
 10
63.080287055613411
 20
72.995609842477961
 30
0.0
 11
58.437552645521571
 21
72.995609842477961
 31
0.0
  0
LINE
  5
252E
  8
3
 10
52.437552645521578
 20
65.83680768896096
 30
0.0
 11
58.437552645521571
 21
65.83680768896096
 31
0.0
  0
LINE
  5
2530
  8
3
 10
52.437552645521578
 20
70.916807688960944
 30
0.0
 11
58.437552645521571
 21
70.916807688960944
 31
0.0
  0
ARC
  5
256E
  8
2
 10
82.637552645521595
 20
18.376807688960891
 30
0.0
 40
10.000000000000041
 50
145.08479375255621
 51
214.91520624744379
  0
LINE
  5
25A2
  8
1
 10
77.437552645521578
 20
18.376807688960891
 30
0.0
 11
45.937552645521563
 21
18.376807688960891
 31
0.0
  0
ARC
  5
25A3
  8
0
 10
73.637552645521566
 20
24.57680768896088
 30
0.0
 40
0.7999999999999991
 50
0.0
 51
90.0
  0
ARC
  5
25A4
  8
0
 10
73.637552645521566
 20
12.176807688960899
 30
0.0
 40
0.7999999999999999
 50
270.0
 51
0.0
  0
LINE
  5
25A5
  8
0
 10
73.33653284357365
 20
11.37680768896089
 30
0.0
 11
73.637552645521566
 21
11.37680768896089
 31
0.0
  0
LINE
  5
25A6
  8
0
 10
73.637552645521566
 20
25.376807688960898
 30
0.0
 11
73.33653284357365
 21
25.376807688960898
 31
0.0
  0
LINE
  5
25A7
  8
0
 10
69.237552645521561
 20
14.37680768896089
 30
0.0
 11
73.33653284357365
 21
11.37680768896089
 31
0.0
  0
LINE
  5
25A8
  8
0
 10
73.33653284357365
 20
25.376807688960898
 30
0.0
 11
69.237552645521589
 21
22.376807688960898
 31
0.0
  0
LINE
  5
25A9
  8
0
 10
63.79110603611484
 20
14.37680768896089
 30
0.0
 11
69.237552645521561
 21
14.37680768896089
 31
0.0
  0
LINE
  5
25AA
  8
0
 10
69.237552645521589
 20
22.376807688960898
 30
0.0
 11
63.791106036114847
 21
22.376807688960898
 31
0.0
  0
LINE
  5
25AB
  8
0
 10
63.438556007863049
 20
14.729357717212681
 30
0.0
 11
63.79110603611484
 21
14.37680768896089
 31
0.0
  0
LINE
  5
25AC
  8
0
 10
63.791106036114847
 20
22.376807688960898
 30
0.0
 11
63.437552645521571
 21
22.023254298367618
 31
0.0
  0
LINE
  5
25AD
  8
0
 10
49.737552645521561
 20
16.876807688960891
 30
0.0
 11
52.437552645521571
 21
16.876807688960891
 31
0.0
  0
LINE
  5
25AE
  8
0
 10
52.437552645521571
 20
19.876807688960891
 30
0.0
 11
49.737552645521561
 21
19.876807688960891
 31
0.0
  0
LINE
  5
25AF
  8
0
 10
49.178077783811233
 20
17.199820650974178
 30
0.0
 11
49.737552645521561
 21
16.876807688960891
 31
0.0
  0
LINE
  5
25B0
  8
0
 10
49.737552645521561
 20
19.876807688960891
 30
0.0
 11
49.17807778381124
 21
19.553794726947611
 31
0.0
  0
LINE
  5
25B1
  8
0
 10
52.897552645521571
 20
15.37680768896089
 30
0.0
 11
58.437552645521571
 21
15.37680768896089
 31
0.0
  0
LINE
  5
25B2
  8
0
 10
58.437552645521571
 20
21.376807688960891
 30
0.0
 11
52.897552645521571
 21
21.376807688960891
 31
0.0
  0
LINE
  5
25B3
  8
0
 10
52.437552645521571
 20
15.836807688960899
 30
0.0
 11
52.897552645521571
 21
15.37680768896089
 31
0.0
  0
LINE
  5
25B4
  8
0
 10
52.897552645521571
 20
21.376807688960891
 30
0.0
 11
52.437552645521571
 21
20.91680768896089
 31
0.0
  0
LINE
  5
25B5
  8
0
 10
74.437552645521578
 20
24.57680768896088
 30
0.0
 11
74.437552645521578
 21
12.176807688960899
 31
0.0
  0
LINE
  5
25B6
  8
0
 10
73.637552645521566
 20
25.376807688960898
 30
0.0
 11
73.637552645521566
 21
11.37680768896089
 31
0.0
  0
LINE
  5
25B7
  8
0
 10
73.33653284357365
 20
25.376807688960898
 30
0.0
 11
73.33653284357365
 21
11.37680768896089
 31
0.0
  0
LINE
  5
25B8
  8
0
 10
69.237552645521589
 20
22.376807688960898
 30
0.0
 11
69.237552645521561
 21
14.37680768896089
 31
0.0
  0
LINE
  5
25B9
  8
0
 10
63.791106036114847
 20
22.376807688960898
 30
0.0
 11
63.79110603611484
 21
14.37680768896089
 31
0.0
  0
LINE
  5
25BA
  8
0
 10
49.737552645521561
 20
19.876807688960891
 30
0.0
 11
49.737552645521561
 21
16.876807688960891
 31
0.0
  0
LINE
  5
25BC
  8
0
 10
52.897552645521571
 20
21.376807688960891
 30
0.0
 11
52.897552645521571
 21
15.37680768896089
 31
0.0
  0
LINE
  5
25BD
  8
0
 10
52.437552645521571
 20
20.91680768896089
 30
0.0
 11
52.437552645521571
 21
15.836807688960899
 31
0.0
  0
LINE
  5
25BE
  8
0
 10
63.437552645521571
 20
22.376807688960898
 30
0.0
 11
63.437552645521571
 21
14.37680768896089
 31
0.0
  0
LINE
  5
25BF
  8
0
 10
63.437552645521571
 20
22.376807688960898
 30
0.0
 11
58.437552645521571
 21
22.376807688960898
 31
0.0
  0
POLYLINE
  5
25C0
  8
0
 66
     1
 10
0.0
 20
0.0
 30
0.0
 70
     8
  0
VERTEX
  5
25C1
  8
0
 10
63.080287055613411
 20
22.376807688960898
 30
0.0
 70
    32
  0
VERTEX
  5
25C2
  8
0
 10
63.100013035454332
 20
22.316952979664791
 30
0.0
 70
    32
  0
VERTEX
  5
25C3
  8
0
 10
63.137658200874199
 20
22.198606804002079
 30
0.0
 70
    32
  0
VERTEX
  5
25C4
  8
0
 10
63.172939451905499
 20
22.081942960488419
 30
0.0
 70
    32
  0
VERTEX
  5
25C5
  8
0
 10
63.189709023965833
 20
22.024192284578131
 30
0.0
 70
    32
  0
VERTEX
  5
25C6
  8
0
 10
63.205905326970353
 20
21.966803170539091
 30
0.0
 70
    32
  0
VERTEX
  5
25C7
  8
0
 10
63.236598121527727
 20
21.853033212048359
 30
0.0
 70
    32
  0
VERTEX
  5
25C8
  8
0
 10
63.265054068682723
 20
21.740482229929281
 30
0.0
 70
    32
  0
VERTEX
  5
25C9
  8
0
 10
63.2913034792819
 20
21.62900206718604
 30
0.0
 70
    32
  0
VERTEX
  5
25CA
  8
0
 10
63.315370842605212
 20
21.518446610265759
 30
0.0
 70
    32
  0
VERTEX
  5
25CB
  8
0
 10
63.337274888272759
 20
21.40867114256886
 30
0.0
 70
    32
  0
VERTEX
  5
25CC
  8
0
 10
63.347419951604209
 20
21.35403090418944
 30
0.0
 70
    32
  0
VERTEX
  5
25CD
  8
0
 10
63.357028609497171
 20
21.299531700027419
 30
0.0
 70
    32
  0
VERTEX
  5
25CE
  8
0
 10
63.374639247319337
 20
21.190884422594682
 30
0.0
 70
    32
  0
VERTEX
  5
25CF
  8
0
 10
63.390108234956763
 20
21.082584895317041
 30
0.0
 70
    32
  0
VERTEX
  5
25D0
  8
0
 10
63.403431100858498
 20
20.974487472380218
 30
0.0
 70
    32
  0
VERTEX
  5
25D1
  8
0
 10
63.414597328487268
 20
20.866444577122881
 30
0.0
 70
    32
  0
VERTEX
  5
25D2
  8
0
 10
63.423590170223719
 20
20.758305970482411
 30
0.0
 70
    32
  0
VERTEX
  5
25D3
  8
0
 10
63.427264577112588
 20
20.704152908824678
 30
0.0
 70
    32
  0
VERTEX
  5
25D4
  8
0
 10
63.430386412095352
 20
20.649917979662462
 30
0.0
 70
    32
  0
VERTEX
  5
25D5
  8
0
 10
63.434956085255827
 20
20.541122677969099
 30
0.0
 70
    32
  0
VERTEX
  5
25D6
  8
0
 10
63.437262119257618
 20
20.43175700572559
 30
0.0
 70
    32
  0
VERTEX
  5
25D7
  8
0
 10
63.437552645521571
 20
20.376807688960891
 30
0.0
 70
    32
  0
SEQEND
  5
25D8
  8
0
  0
POLYLINE
  5
25D9
  8
0
 66
     1
 10
0.0
 20
0.0
 30
0.0
 70
     8
  0
VERTEX
  5
25DA
  8
0
 10
63.437552645521571
 20
20.376807688960891
 30
0.0
 70
    32
  0
VERTEX
  5
25DB
  8
0
 10
63.437262119257618
 20
20.321858372195951
 30
0.0
 70
    32
  0
VERTEX
  5
25DC
  8
0
 10
63.434956085255827
 20
20.21249269995192
 30
0.0
 70
    32
  0
VERTEX
  5
25DD
  8
0
 10
63.430386412095359
 20
20.103697398258159
 30
0.0
 70
    32
  0
VERTEX
  5
25DE
  8
0
 10
63.427264577112602
 20
20.049462469095801
 30
0.0
 70
    32
  0
VERTEX
  5
25DF
  8
0
 10
63.423590170223719
 20
19.995309407437901
 30
0.0
 70
    32
  0
VERTEX
  5
25E0
  8
0
 10
63.414597328487282
 20
19.887170800797151
 30
0.0
 70
    32
  0
VERTEX
  5
25E1
  8
0
 10
63.403431100858498
 20
19.77912790553961
 30
0.0
 70
    32
  0
VERTEX
  5
25E2
  8
0
 10
63.39010823495677
 20
19.671030482602639
 30
0.0
 70
    32
  0
VERTEX
  5
25E3
  8
0
 10
63.374639247319351
 20
19.562730955324952
 30
0.0
 70
    32
  0
VERTEX
  5
25E4
  8
0
 10
63.357028609497192
 20
19.454083677892161
 30
0.0
 70
    32
  0
VERTEX
  5
25E5
  8
0
 10
63.347419951604238
 20
19.39958447373013
 30
0.0
 70
    32
  0
VERTEX
  5
25E6
  8
0
 10
63.337274888272781
 20
19.344944235350741
 30
0.0
 70
    32
  0
VERTEX
  5
25E7
  8
0
 10
63.31537084260524
 20
19.235168767653931
 30
0.0
 70
    32
  0
VERTEX
  5
25E8
  8
0
 10
63.291303479281929
 20
19.124613310733789
 30
0.0
 70
    32
  0
VERTEX
  5
25E9
  8
0
 10
63.265054068682751
 20
19.013133147990711
 30
0.0
 70
    32
  0
VERTEX
  5
25EA
  8
0
 10
63.236598121527763
 20
18.900582165871871
 30
0.0
 70
    32
  0
VERTEX
  5
25EB
  8
0
 10
63.205905326970388
 20
18.786812207381409
 30
0.0
 70
    32
  0
VERTEX
  5
25EC
  8
0
 10
63.189709023965861
 20
18.729423093342518
 30
0.0
 70
    32
  0
VERTEX
  5
25ED
  8
0
 10
63.172939451905521
 20
18.671672417432401
 30
0.0
 70
    32
  0
VERTEX
  5
25EE
  8
0
 10
63.13765820087422
 20
18.555008573919078
 30
0.0
 70
    32
  0
VERTEX
  5
25EF
  8
0
 10
63.100013035454332
 20
18.436662398256772
 30
0.0
 70
    32
  0
VERTEX
  5
25F0
  8
0
 10
63.080287055613411
 20
18.376807688960891
 30
0.0
 70
    32
  0
SEQEND
  5
25F1
  8
0
  0
LINE
  5
25F2
  8
0
 10
58.437552645521571
 20
14.37680768896089
 30
0.0
 11
58.437552645521571
 21
22.376807688960898
 31
0.0
  0
LINE
  5
25F3
  8
0
 10
58.437552645521571
 20
14.37680768896089
 30
0.0
 11
63.437552645521571
 21
14.37680768896089
 31
0.0
  0
LINE
  5
25F4
  8
0
 10
63.080287055613411
 20
18.376807688960891
 30
0.0
 11
58.437552645521571
 21
18.376807688960891
 31
0.0
  0
POLYLINE
  5
25F5
  8
0
 66
     1
 10
0.0
 20
0.0
 30
0.0
 70
     8
  0
VERTEX
  5
25F6
  8
0
 10
63.080287055613411
 20
18.376807688960891
 30
0.0
 70
    32
  0
VERTEX
  5
25F7
  8
0
 10
63.100013035454332
 20
18.316952979664791
 30
0.0
 70
    32
  0
VERTEX
  5
25F8
  8
0
 10
63.137658200874199
 20
18.198606804002079
 30
0.0
 70
    32
  0
VERTEX
  5
25F9
  8
0
 10
63.172939451905499
 20
18.081942960488419
 30
0.0
 70
    32
  0
VERTEX
  5
25FA
  8
0
 10
63.189709023965833
 20
18.024192284578131
 30
0.0
 70
    32
  0
VERTEX
  5
25FB
  8
0
 10
63.205905326970353
 20
17.966803170539091
 30
0.0
 70
    32
  0
VERTEX
  5
25FC
  8
0
 10
63.236598121527727
 20
17.853033212048359
 30
0.0
 70
    32
  0
VERTEX
  5
25FD
  8
0
 10
63.265054068682723
 20
17.740482229929281
 30
0.0
 70
    32
  0
VERTEX
  5
25FE
  8
0
 10
63.2913034792819
 20
17.629002067186029
 30
0.0
 70
    32
  0
VERTEX
  5
25FF
  8
0
 10
63.315370842605212
 20
17.518446610265752
 30
0.0
 70
    32
  0
VERTEX
  5
2600
  8
0
 10
63.337274888272759
 20
17.40867114256886
 30
0.0
 70
    32
  0
VERTEX
  5
2601
  8
0
 10
63.347419951604209
 20
17.35403090418944
 30
0.0
 70
    32
  0
VERTEX
  5
2602
  8
0
 10
63.357028609497171
 20
17.299531700027408
 30
0.0
 70
    32
  0
VERTEX
  5
2603
  8
0
 10
63.374639247319337
 20
17.190884422594682
 30
0.0
 70
    32
  0
VERTEX
  5
2604
  8
0
 10
63.390108234956763
 20
17.082584895317041
 30
0.0
 70
    32
  0
VERTEX
  5
2605
  8
0
 10
63.403431100858498
 20
16.974487472380218
 30
0.0
 70
    32
  0
VERTEX
  5
2606
  8
0
 10
63.414597328487268
 20
16.866444577122881
 30
0.0
 70
    32
  0
VERTEX
  5
2607
  8
0
 10
63.423590170223719
 20
16.758305970482411
 30
0.0
 70
    32
  0
VERTEX
  5
2608
  8
0
 10
63.427264577112588
 20
16.70415290882465
 30
0.0
 70
    32
  0
VERTEX
  5
2609
  8
0
 10
63.430386412095352
 20
16.649917979662462
 30
0.0
 70
    32
  0
VERTEX
  5
260A
  8
0
 10
63.434956085255827
 20
16.541122677969099
 30
0.0
 70
    32
  0
VERTEX
  5
260B
  8
0
 10
63.437262119257618
 20
16.431757005725579
 30
0.0
 70
    32
  0
VERTEX
  5
260C
  8
0
 10
63.437552645521571
 20
16.376807688960891
 30
0.0
 70
    32
  0
SEQEND
  5
260D
  8
0
  0
POLYLINE
  5
260E
  8
0
 66
     1
 10
0.0
 20
0.0
 30
0.0
 70
     8
  0
VERTEX
  5
260F
  8
0
 10
63.437552645521571
 20
16.376807688960891
 30
0.0
 70
    32
  0
VERTEX
  5
2610
  8
0
 10
63.437262119257618
 20
16.32185837219594
 30
0.0
 70
    32
  0
VERTEX
  5
2611
  8
0
 10
63.434956085255827
 20
16.21249269995192
 30
0.0
 70
    32
  0
VERTEX
  5
2612
  8
0
 10
63.430386412095352
 20
16.103697398258159
 30
0.0
 70
    32
  0
VERTEX
  5
2613
  8
0
 10
63.427264577112588
 20
16.049462469095801
 30
0.0
 70
    32
  0
VERTEX
  5
2614
  8
0
 10
63.423590170223719
 20
15.995309407437899
 30
0.0
 70
    32
  0
VERTEX
  5
2615
  8
0
 10
63.414597328487282
 20
15.887170800797151
 30
0.0
 70
    32
  0
VERTEX
  5
2616
  8
0
 10
63.403431100858498
 20
15.77912790553961
 30
0.0
 70
    32
  0
VERTEX
  5
2617
  8
0
 10
63.39010823495677
 20
15.671030482602671
 30
0.0
 70
    32
  0
VERTEX
  5
2618
  8
0
 10
63.374639247319351
 20
15.56273095532495
 30
0.0
 70
    32
  0
VERTEX
  5
2619
  8
0
 10
63.357028609497192
 20
15.454083677892161
 30
0.0
 70
    32
  0
VERTEX
  5
261A
  8
0
 10
63.34741995160423
 20
15.39958447373013
 30
0.0
 70
    32
  0
VERTEX
  5
261B
  8
0
 10
63.337274888272781
 20
15.34494423535074
 30
0.0
 70
    32
  0
VERTEX
  5
261C
  8
0
 10
63.31537084260524
 20
15.23516876765393
 30
0.0
 70
    32
  0
VERTEX
  5
261D
  8
0
 10
63.291303479281929
 20
15.124613310733791
 30
0.0
 70
    32
  0
VERTEX
  5
261E
  8
0
 10
63.265054068682751
 20
15.013133147990709
 30
0.0
 70
    32
  0
VERTEX
  5
261F
  8
0
 10
63.236598121527763
 20
14.90058216587186
 30
0.0
 70
    32
  0
VERTEX
  5
2620
  8
0
 10
63.205905326970388
 20
14.786812207381409
 30
0.0
 70
    32
  0
VERTEX
  5
2621
  8
0
 10
63.189709023965861
 20
14.72942309334252
 30
0.0
 70
    32
  0
VERTEX
  5
2622
  8
0
 10
63.172939451905521
 20
14.671672417432401
 30
0.0
 70
    32
  0
VERTEX
  5
2623
  8
0
 10
63.13765820087422
 20
14.55500857391908
 30
0.0
 70
    32
  0
VERTEX
  5
2624
  8
0
 10
63.100013035454332
 20
14.4366623982568
 30
0.0
 70
    32
  0
VERTEX
  5
2625
  8
0
 10
63.080287055613411
 20
14.37680768896089
 30
0.0
 70
    32
  0
SEQEND
  5
2626
  8
0
  0
LINE
  5
2627
  8
3
 10
52.437552645521571
 20
20.91680768896089
 30
0.0
 11
58.437552645521571
 21
20.91680768896089
 31
0.0
  0
LINE
  5
2629
  8
3
 10
52.437552645521571
 20
15.836807688960899
 30
0.0
 11
58.437552645521571
 21
15.836807688960899
 31
0.0
  0
CIRCLE
  5
2645
  8
3
 10
17.91117704260386
 20
68.376807688960952
 30
0.0
 40
2.539999999999992
  0
ARC
  5
284F
  8
0
 10
51.937552645521578
 20
68.376807688960952
 30
0.0
 40
3.0
 50
156.90050479442351
 51
203.09949520557649
  0
LINE
  5
2B60
  8
0
 10
49.17807778381124
 20
19.553794726947629
 30
0.0
 11
49.178077783811247
 21
17.199820650974139
 31
0.0
  0
ARC
  5
2B61
  8
0
 10
51.937552645521571
 20
18.376807688960891
 30
0.0
 40
3.0
 50
156.90050479442351
 51
203.09949520557649
  0
CIRCLE
  5
2C0F
  8
0
 10
17.91117704260386
 20
68.376807688960952
 30
0.0
 40
1.177
  0
ENDSEC
  0
EOF
