  0
SECTION
  2
HEADER
  9
$ACADVER
  1
AC1009
  9
$INSBASE
 10
0.0
 20
0.0
 30
0.0
  9
$EXTMIN
 10
0.0
 20
-1.4802182810368341
 30
0.0
  9
$EXTMAX
 10
140.96137021546369
 20
69.441418291607917
 30
0.0
  9
$LIMMIN
 10
0.0
 20
0.0
  9
$LIMMAX
 10
187.5
 20
135.0
  9
$ORTHOMODE
 70
     1
  9
$REGENMODE
 70
     1
  9
$FILLMODE
 70
     1
  9
$QTEXTMODE
 70
     0
  9
$MIRRTEXT
 70
     0
  9
$DRAGMODE
 70
     2
  9
$LTSCALE
 40
5.0
  9
$OSMODE
 70
  3071
  9
$ATTMODE
 70
     1
  9
$TEXTSIZE
 40
4.0
  9
$TRACEWID
 40
0.05
  9
$TEXTSTYLE
  7
STANDARD
  9
$CLAYER
  8
0
  9
$CELTYPE
  6
BYLAYER
  9
$CECOLOR
 62
   256
  9
$DIMSCALE
 40
0.5
  9
$DIMASZ
 40
3.0
  9
$DIMEXO
 40
2.0
  9
$DIMDLI
 40
0.38
  9
$DIMRND
 40
0.0
  9
$DIMDLE
 40
0.0
  9
$DIMEXE
 40
2.0
  9
$DIMTP
 40
0.0
  9
$DIMTM
 40
0.0
  9
$DIMTXT
 40
3.0
  9
$DIMCEN
 40
0.0
  9
$DIMTSZ
 40
0.0
  9
$DIMTOL
 70
     0
  9
$DIMLIM
 70
     0
  9
$DIMTIH
 70
     0
  9
$DIMTOH
 70
     0
  9
$DIMSE1
 70
     0
  9
$DIMSE2
 70
     0
  9
$DIMTAD
 70
     1
  9
$DIMZIN
 70
     0
  9
$DIMBLK
  1

  9
$DIMASO
 70
     0
  9
$DIMSHO
 70
     0
  9
$DIMPOST
  1

  9
$DIMAPOST
  1

  9
$DIMALT
 70
     0
  9
$DIMALTD
 70
     2
  9
$DIMALTF
 40
25.399999999999999
  9
$DIMLFAC
 40
1.0
  9
$DIMTOFL
 70
     0
  9
$DIMTVP
 40
1.6000000000000001
  9
$DIMTIX
 70
     1
  9
$DIMSOXD
 70
     0
  9
$DIMSAH
 70
     0
  9
$DIMBLK1
  1

  9
$DIMBLK2
  1

  9
$DIMSTYLE
  2
STANDARD
  9
$DIMCLRD
 70
     0
  9
$DIMCLRE
 70
     0
  9
$DIMCLRT
 70
     0
  9
$DIMTFAC
 40
1.0
  9
$DIMGAP
 40
0.09
  9
$LUNITS
 70
     2
  9
$LUPREC
 70
     4
  9
$SKETCHINC
 40
0.1
  9
$FILLETRAD
 40
1.0
  9
$AUNITS
 70
     0
  9
$AUPREC
 70
     0
  9
$MENU
  1
E:\r13\win\SUPPORT\ACAD
  9
$ELEVATION
 40
0.0
  9
$PELEVATION
 40
0.0
  9
$THICKNESS
 40
0.0
  9
$LIMCHECK
 70
     0
  9
$BLIPMODE
 70
     0
  9
$CHAMFERA
 40
0.0
  9
$CHAMFERB
 40
0.0
  9
$SKPOLY
 70
     0
  9
$TDCREATE
 40
2449840.6143865739
  9
$TDUPDATE
 40
2456597.6899295719
  9
$TDINDWG
 40
0.2667484491
  9
$TDUSRTIMER
 40
0.2667484491
  9
$USRTIMER
 70
     1
  9
$ANGBASE
 50
0.0
  9
$ANGDIR
 70
     0
  9
$PDMODE
 70
     0
  9
$PDSIZE
 40
0.0
  9
$PLINEWID
 40
0.0
  9
$COORDS
 70
     1
  9
$SPLFRAME
 70
     0
  9
$SPLINETYPE
 70
     6
  9
$SPLINESEGS
 70
     8
  9
$ATTDIA
 70
     0
  9
$ATTREQ
 70
     1
  9
$HANDLING
 70
     1
  9
$HANDSEED
  5
273A
  9
$SURFTAB1
 70
     6
  9
$SURFTAB2
 70
     6
  9
$SURFTYPE
 70
     6
  9
$SURFU
 70
     6
  9
$SURFV
 70
     6
  9
$UCSNAME
  2

  9
$UCSORG
 10
0.0
 20
0.0
 30
0.0
  9
$UCSXDIR
 10
1.0
 20
0.0
 30
0.0
  9
$UCSYDIR
 10
0.0
 20
1.0
 30
0.0
  9
$PUCSNAME
  2

  9
$PUCSORG
 10
0.0
 20
0.0
 30
0.0
  9
$PUCSXDIR
 10
1.0
 20
0.0
 30
0.0
  9
$PUCSYDIR
 10
0.0
 20
1.0
 30
0.0
  9
$USERI1
 70
     0
  9
$USERI2
 70
     1
  9
$USERI3
 70
     1
  9
$USERI4
 70
     0
  9
$USERI5
 70
     0
  9
$USERR1
 40
0.0
  9
$USERR2
 40
0.0
  9
$USERR3
 40
0.0
  9
$USERR4
 40
0.0
  9
$USERR5
 40
0.0
  9
$WORLDVIEW
 70
     1
  9
$SHADEDGE
 70
     3
  9
$SHADEDIF
 70
    70
  9
$TILEMODE
 70
     1
  9
$MAXACTVP
 70
    16
  9
$PLIMCHECK
 70
     0
  9
$PEXTMIN
 10
1.0000000000000000E+020
 20
1.0000000000000000E+020
 30
1.0000000000000000E+020
  9
$PEXTMAX
 10
-1.0000000000000000E+020
 20
-1.0000000000000000E+020
 30
-1.0000000000000000E+020
  9
$PLIMMIN
 10
0.0
 20
0.0
  9
$PLIMMAX
 10
12.0
 20
9.0
  9
$UNITMODE
 70
     0
  9
$VISRETAIN
 70
     0
  9
$PLINEGEN
 70
     0
  9
$PSLTSCALE
 70
     0
  0
ENDSEC
  0
SECTION
  2
TABLES
  0
TABLE
  2
VPORT
 70
     1
  0
VPORT
  2
*ACTIVE
 70
     0
 10
0.0
 20
0.0
 11
1.0
 21
1.0
 12
93.747139195326156
 22
67.05183146954721
 13
0.0
 23
0.0
 14
5.0
 24
5.0
 15
5.0
 25
5.0
 16
0.0
 26
0.0
 36
1.0
 17
0.0
 27
0.0
 37
0.0
 40
138.6470298934976
 41
2.304913294797688
 42
50.0
 43
0.0
 44
0.0
 50
0.0
 51
0.0
 71
     0
 72
   100
 73
     1
 74
     0
 75
     0
 76
     0
 77
     0
 78
     0
  0
ENDTAB
  0
TABLE
  2
LTYPE
 70
     4
  0
LTYPE
  2
CONTINUOUS
 70
     0
  3
Solid Line
 72
    65
 73
     0
 40
0.0
  0
LTYPE
  2
CENTER
 70
     0
  3
____ _ ____ _ ____ _ ____ _ ____ _ ____ _ ____
 72
    65
 73
     4
 40
2.0
 49
1.25
 49
-0.25
 49
0.25
 49
-0.25
  0
LTYPE
  2
HIDDEN
 70
     0
  3
_ _ _ _ _ _ _ _ _ _ _ _ _ _ _ _ _ _ _ _ _ _ _
 72
    65
 73
     2
 40
0.375
 49
0.25
 49
-0.125
  0
LTYPE
  2
PHANTOM2
 70
     0
  3
___ _ _ ___ _ _ ___ _ _ ___ _ _
 72
    65
 73
     6
 40
1.25
 49
0.625
 49
-0.125
 49
0.125
 49
-0.125
 49
0.125
 49
-0.125
  0
ENDTAB
  0
TABLE
  2
LAYER
 70
     4
  0
LAYER
  2
0
 70
     0
 62
     7
  6
CONTINUOUS
  0
LAYER
  2
1
 70
     0
 62
     1
  6
CENTER
  0
LAYER
  2
3
 70
     0
 62
     3
  6
CONTINUOUS
  0
LAYER
  2
2
 70
     0
 62
     2
  6
HIDDEN
  0
ENDTAB
  0
TABLE
  2
STYLE
 70
     2
  0
STYLE
  2
STANDARD
 70
     0
 40
0.0
 41
1.0
 50
0.0
 71
     0
 42
4.0
  3
TXT
  4
BIGFONT
  0
STYLE
  2
STANDARD1
 70
     0
 40
0.0
 41
1.0
 50
0.0
 71
     0
 42
3.0
  3
txt
  4

  0
ENDTAB
  0
TABLE
  2
VIEW
 70
     1
  0
VIEW
  2
ALL
 70
     0
 40
179.66152299999999
 10
141.903918
 20
89.830760999999995
 41
0.0
 11
0.0
 21
0.0
 31
1.0
 12
0.0
 22
0.0
 32
0.0
 42
0.0
 43
0.0
 44
0.0
 50
0.0
 71
     0
  0
ENDTAB
  0
TABLE
  2
UCS
 70
     0
  0
ENDTAB
  0
TABLE
  2
APPID
 70
     4
  0
APPID
  2
ACAD
 70
     0
  0
APPID
  2
DCO15
 70
     0
  0
APPID
  2
ACAD_MLEADERVER
 70
     0
  0
APPID
  2
ACAD_NAV_VCDISPLAY
 70
     0
  0
ENDTAB
  0
TABLE
  2
DIMSTYLE
 70
     1
  0
DIMSTYLE
  2
STANDARD
 70
     0
  3

  4

  5

  6

  7

 40
1.0
 41
0.18
 42
0.0625
 43
0.38
 44
0.18
 45
0.0
 46
0.0
 47
0.0
 48
0.0
140
0.18
141
0.09
142
0.0
143
25.399999999999999
144
1.0
145
0.0
146
1.0
147
0.09
 71
     0
 72
     0
 73
     1
 74
     1
 75
     0
 76
     0
 77
     0
 78
     0
170
     0
171
     2
172
     0
173
     0
174
     0
175
     0
176
     0
177
     0
178
     0
  0
ENDTAB
  0
ENDSEC
  0
SECTION
  2
BLOCKS
  0
BLOCK
  8
0
  2
$MODEL_SPACE
 70
     0
 10
0.0
 20
0.0
 30
0.0
  3
$MODEL_SPACE
  1

  0
ENDBLK
  5
1BD
  8
0
  0
BLOCK
 67
     1
  8
0
  2
$PAPER_SPACE
 70
     0
 10
0.0
 20
0.0
 30
0.0
  3
$PAPER_SPACE
  1

  0
ENDBLK
  5
1BB
 67
     1
  8
0
  0
ENDSEC
  0
SECTION
  2
ENTITIES
  0
LINE
  5
1CE7
  8
1
 10
93.96135972813596
 20
57.441407804280182
 30
0.0
 11
57.86708649512348
 21
57.441407804280182
 31
0.0
  0
LINE
  5
1CE9
  8
3
 10
65.46135972813596
 20
60.827907804280187
 30
0.0
 11
66.46135972813596
 21
60.827907804280187
 31
0.0
  0
LINE
  5
1CEB
  8
3
 10
65.46135972813596
 20
54.054907804280163
 30
0.0
 11
66.46135972813596
 21
54.05490780428017
 31
0.0
  0
POLYLINE
  5
1CEC
  8
0
  6
CONTINUOUS
 62
     0
 66
     1
 10
0.0
 20
0.0
 30
0.0
  0
VERTEX
  5
1FB2
  8
0
  6
CONTINUOUS
 62
     0
 10
69.88080314453515
 20
49.935854304815052
 30
0.0
  0
VERTEX
  5
1FB3
  8
0
  6
CONTINUOUS
 62
     0
 10
69.912930993441464
 20
49.99213925832084
 30
0.0
  0
VERTEX
  5
1FB4
  8
0
  6
CONTINUOUS
 62
     0
 10
69.974225345404818
 20
50.103402485751303
 30
0.0
  0
VERTEX
  5
1FB5
  8
0
  6
CONTINUOUS
 62
     0
 10
70.031647615595134
 20
50.213052318192517
 30
0.0
  0
VERTEX
  5
1FB6
  8
0
  6
CONTINUOUS
 62
     0
 10
70.058932849360303
 20
50.267319414346218
 30
0.0
  0
VERTEX
  5
1FB7
  8
0
  6
CONTINUOUS
 62
     0
 10
70.085280113051155
 20
50.321239272251539
 30
0.0
  0
VERTEX
  5
1FB8
  8
0
  6
CONTINUOUS
 62
     0
 10
70.135194813420526
 20
50.428109800773029
 30
0.0
  0
VERTEX
  5
1FB9
  8
0
  6
CONTINUOUS
 62
     0
 10
70.181453681192636
 20
50.533806954292011
 30
0.0
  0
VERTEX
  5
1FBA
  8
0
  6
CONTINUOUS
 62
     0
 10
70.224108924440202
 20
50.638471020526367
 30
0.0
  0
VERTEX
  5
1FBB
  8
0
  6
CONTINUOUS
 62
     0
 10
70.263203184250585
 20
50.74224014792668
 30
0.0
  0
VERTEX
  5
1FBC
  8
0
  6
CONTINUOUS
 62
     0
 10
70.298769660211235
 20
50.845250959134262
 30
0.0
  0
VERTEX
  5
1FBD
  8
0
  6
CONTINUOUS
 62
     0
 10
70.315237789042044
 20
50.896514423429892
 30
0.0
  0
VERTEX
  5
1FBE
  8
0
  6
CONTINUOUS
 62
     0
 10
70.330832172507144
 20
50.947639160126577
 30
0.0
  0
VERTEX
  5
1FBF
  8
0
  6
CONTINUOUS
 62
     0
 10
70.35940516038545
 20
51.049540150849218
 30
0.0
  0
VERTEX
  5
1FC0
  8
0
  6
CONTINUOUS
 62
     0
 10
70.384493615916014
 20
51.151089643254693
 30
0.0
  0
VERTEX
  5
1FC1
  8
0
  6
CONTINUOUS
 62
     0
 10
70.406092951122218
 20
51.252424292885451
 30
0.0
  0
VERTEX
  5
1FC2
  8
0
  6
CONTINUOUS
 62
     0
 10
70.424188795638486
 20
51.353682350466329
 30
0.0
  0
VERTEX
  5
1FC3
  8
0
  6
CONTINUOUS
 62
     0
 10
70.438756721068785
 20
51.455004340418391
 30
0.0
  0
VERTEX
  5
1FC4
  8
0
  6
CONTINUOUS
 62
     0
 10
70.444707244626727
 20
51.505734020239288
 30
0.0
  0
VERTEX
  5
1FC5
  8
0
  6
CONTINUOUS
 62
     0
 10
70.449761887128489
 20
51.556533773781609
 30
0.0
  0
VERTEX
  5
1FC6
  8
0
  6
CONTINUOUS
 62
     0
 10
70.457158603444043
 20
51.658417903763556
 30
0.0
  0
VERTEX
  5
1FC7
  8
0
  6
CONTINUOUS
 62
     0
 10
70.460889799512643
 20
51.760808533028921
 30
0.0
  0
VERTEX
  5
1FC8
  8
0
  6
CONTINUOUS
 62
     0
 10
70.46135972813596
 20
51.812242679681333
 30
0.0
  0
SEQEND
  5
1FC9
  8
0
  6
CONTINUOUS
 62
     0
  0
LINE
  5
1CED
  8
0
  6
CONTINUOUS
 62
     0
 10
67.041916311736713
 20
49.935854304815052
 30
0.0
 11
69.88080314453515
 21
49.935854304815052
 31
0.0
  0
POLYLINE
  5
1CEE
  8
0
  6
CONTINUOUS
 62
     0
 66
     1
 10
0.0
 20
0.0
 30
0.0
  0
VERTEX
  5
1FCA
  8
0
  6
CONTINUOUS
 62
     0
 10
66.46135972813596
 20
51.812242679681333
 30
0.0
  0
VERTEX
  5
1FCB
  8
0
  6
CONTINUOUS
 62
     0
 10
66.461829656759221
 20
51.760808533028921
 30
0.0
  0
VERTEX
  5
1FCC
  8
0
  6
CONTINUOUS
 62
     0
 10
66.465560852827821
 20
51.658417903763556
 30
0.0
  0
VERTEX
  5
1FCD
  8
0
  6
CONTINUOUS
 62
     0
 10
66.472957569143375
 20
51.556533773781609
 30
0.0
  0
VERTEX
  5
1FCE
  8
0
  6
CONTINUOUS
 62
     0
 10
66.478012211645193
 20
51.505734020239288
 30
0.0
  0
VERTEX
  5
1FCF
  8
0
  6
CONTINUOUS
 62
     0
 10
66.483962735203136
 20
51.455004340418391
 30
0.0
  0
VERTEX
  5
1FD0
  8
0
  6
CONTINUOUS
 62
     0
 10
66.498530660633435
 20
51.353682350466329
 30
0.0
  0
VERTEX
  5
1FD1
  8
0
  6
CONTINUOUS
 62
     0
 10
66.516626505149702
 20
51.252424292885451
 30
0.0
  0
VERTEX
  5
1FD2
  8
0
  6
CONTINUOUS
 62
     0
 10
66.538225840355835
 20
51.151089643254693
 30
0.0
  0
VERTEX
  5
1FD3
  8
0
  6
CONTINUOUS
 62
     0
 10
66.563314295886471
 20
51.049540150849218
 30
0.0
  0
VERTEX
  5
1FD4
  8
0
  6
CONTINUOUS
 62
     0
 10
66.59188728376472
 20
50.947639160126577
 30
0.0
  0
VERTEX
  5
1FD5
  8
0
  6
CONTINUOUS
 62
     0
 10
66.607481667229806
 20
50.896514423429892
 30
0.0
  0
VERTEX
  5
1FD6
  8
0
  6
CONTINUOUS
 62
     0
 10
66.623949796060685
 20
50.845250959134262
 30
0.0
  0
VERTEX
  5
1FD7
  8
0
  6
CONTINUOUS
 62
     0
 10
66.659516272021278
 20
50.74224014792668
 30
0.0
  0
VERTEX
  5
1FD8
  8
0
  6
CONTINUOUS
 62
     0
 10
66.698610531831719
 20
50.638471020526367
 30
0.0
  0
VERTEX
  5
1FD9
  8
0
  6
CONTINUOUS
 62
     0
 10
66.741265775079228
 20
50.533806954292011
 30
0.0
  0
VERTEX
  5
1FDA
  8
0
  6
CONTINUOUS
 62
     0
 10
66.787524642851395
 20
50.428109800773029
 30
0.0
  0
VERTEX
  5
1FDB
  8
0
  6
CONTINUOUS
 62
     0
 10
66.837439343220694
 20
50.321239272251539
 30
0.0
  0
VERTEX
  5
1FDC
  8
0
  6
CONTINUOUS
 62
     0
 10
66.86378660691156
 20
50.267319414346218
 30
0.0
  0
VERTEX
  5
1FDD
  8
0
  6
CONTINUOUS
 62
     0
 10
66.891071840676716
 20
50.213052318192517
 30
0.0
  0
VERTEX
  5
1FDE
  8
0
  6
CONTINUOUS
 62
     0
 10
66.948494110867045
 20
50.103402485751303
 30
0.0
  0
VERTEX
  5
1FDF
  8
0
  6
CONTINUOUS
 62
     0
 10
67.009788462830386
 20
49.99213925832084
 30
0.0
  0
VERTEX
  5
1FE0
  8
0
  6
CONTINUOUS
 62
     0
 10
67.041916311736713
 20
49.935854304815052
 30
0.0
  0
SEQEND
  5
1FE1
  8
0
  6
CONTINUOUS
 62
     0
  0
POLYLINE
  5
1CEF
  8
0
  6
CONTINUOUS
 62
     0
 66
     1
 10
0.0
 20
0.0
 30
0.0
  0
VERTEX
  5
1FE2
  8
0
  6
CONTINUOUS
 62
     0
 10
67.041916311736713
 20
53.688631054547614
 30
0.0
  0
VERTEX
  5
1FE3
  8
0
  6
CONTINUOUS
 62
     0
 10
67.009788462830386
 20
53.632346101041833
 30
0.0
  0
VERTEX
  5
1FE4
  8
0
  6
CONTINUOUS
 62
     0
 10
66.948494110867045
 20
53.521082873611363
 30
0.0
  0
VERTEX
  5
1FE5
  8
0
  6
CONTINUOUS
 62
     0
 10
66.891071840676773
 20
53.411433041170142
 30
0.0
  0
VERTEX
  5
1FE6
  8
0
  6
CONTINUOUS
 62
     0
 10
66.86378660691156
 20
53.35716594501644
 30
0.0
  0
VERTEX
  5
1FE7
  8
0
  6
CONTINUOUS
 62
     0
 10
66.837439343220694
 20
53.30324608711112
 30
0.0
  0
VERTEX
  5
1FE8
  8
0
  6
CONTINUOUS
 62
     0
 10
66.787524642851395
 20
53.196375558589637
 30
0.0
  0
VERTEX
  5
1FE9
  8
0
  6
CONTINUOUS
 62
     0
 10
66.741265775079285
 20
53.090678405070612
 30
0.0
  0
VERTEX
  5
1FEA
  8
0
  6
CONTINUOUS
 62
     0
 10
66.698610531831719
 20
52.986014338836242
 30
0.0
  0
VERTEX
  5
1FEB
  8
0
  6
CONTINUOUS
 62
     0
 10
66.659516272021278
 20
52.882245211435979
 30
0.0
  0
VERTEX
  5
1FEC
  8
0
  6
CONTINUOUS
 62
     0
 10
66.623949796060685
 20
52.779234400228347
 30
0.0
  0
VERTEX
  5
1FED
  8
0
  6
CONTINUOUS
 62
     0
 10
66.607481667229806
 20
52.727970935932717
 30
0.0
  0
VERTEX
  5
1FEE
  8
0
  6
CONTINUOUS
 62
     0
 10
66.59188728376472
 20
52.676846199236081
 30
0.0
  0
VERTEX
  5
1FEF
  8
0
  6
CONTINUOUS
 62
     0
 10
66.563314295886471
 20
52.574945208513441
 30
0.0
  0
VERTEX
  5
1FF0
  8
0
  6
CONTINUOUS
 62
     0
 10
66.538225840355835
 20
52.47339571610798
 30
0.0
  0
VERTEX
  5
1FF1
  8
0
  6
CONTINUOUS
 62
     0
 10
66.516626505149702
 20
52.372061066477222
 30
0.0
  0
VERTEX
  5
1FF2
  8
0
  6
CONTINUOUS
 62
     0
 10
66.498530660633435
 20
52.27080300889628
 30
0.0
  0
VERTEX
  5
1FF3
  8
0
  6
CONTINUOUS
 62
     0
 10
66.483962735203136
 20
52.169481018944232
 30
0.0
  0
VERTEX
  5
1FF4
  8
0
  6
CONTINUOUS
 62
     0
 10
66.478012211645193
 20
52.118751339123321
 30
0.0
  0
VERTEX
  5
1FF5
  8
0
  6
CONTINUOUS
 62
     0
 10
66.472957569143375
 20
52.067951585581049
 30
0.0
  0
VERTEX
  5
1FF6
  8
0
  6
CONTINUOUS
 62
     0
 10
66.465560852827821
 20
51.966067455599102
 30
0.0
  0
VERTEX
  5
1FF7
  8
0
  6
CONTINUOUS
 62
     0
 10
66.461829656759221
 20
51.863676826333737
 30
0.0
  0
VERTEX
  5
1FF8
  8
0
  6
CONTINUOUS
 62
     0
 10
66.46135972813596
 20
51.812242679681333
 30
0.0
  0
SEQEND
  5
1FF9
  8
0
  6
CONTINUOUS
 62
     0
  0
POLYLINE
  5
1CF0
  8
0
  6
CONTINUOUS
 62
     0
 66
     1
 10
0.0
 20
0.0
 30
0.0
  0
VERTEX
  5
1FFA
  8
0
  6
CONTINUOUS
 62
     0
 10
70.46135972813596
 20
51.812242679681333
 30
0.0
  0
VERTEX
  5
1FFB
  8
0
  6
CONTINUOUS
 62
     0
 10
70.460889799512643
 20
51.863676826333737
 30
0.0
  0
VERTEX
  5
1FFC
  8
0
  6
CONTINUOUS
 62
     0
 10
70.457158603444043
 20
51.966067455599102
 30
0.0
  0
VERTEX
  5
1FFD
  8
0
  6
CONTINUOUS
 62
     0
 10
70.449761887128489
 20
52.067951585581049
 30
0.0
  0
VERTEX
  5
1FFE
  8
0
  6
CONTINUOUS
 62
     0
 10
70.444707244626727
 20
52.118751339123321
 30
0.0
  0
VERTEX
  5
1FFF
  8
0
  6
CONTINUOUS
 62
     0
 10
70.438756721068785
 20
52.169481018944232
 30
0.0
  0
VERTEX
  5
2000
  8
0
  6
CONTINUOUS
 62
     0
 10
70.424188795638486
 20
52.27080300889628
 30
0.0
  0
VERTEX
  5
2001
  8
0
  6
CONTINUOUS
 62
     0
 10
70.406092951122218
 20
52.372061066477222
 30
0.0
  0
VERTEX
  5
2002
  8
0
  6
CONTINUOUS
 62
     0
 10
70.384493615916014
 20
52.47339571610798
 30
0.0
  0
VERTEX
  5
2003
  8
0
  6
CONTINUOUS
 62
     0
 10
70.35940516038545
 20
52.574945208513441
 30
0.0
  0
VERTEX
  5
2004
  8
0
  6
CONTINUOUS
 62
     0
 10
70.330832172507144
 20
52.676846199236081
 30
0.0
  0
VERTEX
  5
2005
  8
0
  6
CONTINUOUS
 62
     0
 10
70.315237789042044
 20
52.727970935932717
 30
0.0
  0
VERTEX
  5
2006
  8
0
  6
CONTINUOUS
 62
     0
 10
70.298769660211235
 20
52.779234400228347
 30
0.0
  0
VERTEX
  5
2007
  8
0
  6
CONTINUOUS
 62
     0
 10
70.263203184250585
 20
52.882245211435979
 30
0.0
  0
VERTEX
  5
2008
  8
0
  6
CONTINUOUS
 62
     0
 10
70.224108924440202
 20
52.986014338836242
 30
0.0
  0
VERTEX
  5
2009
  8
0
  6
CONTINUOUS
 62
     0
 10
70.181453681192636
 20
53.090678405070612
 30
0.0
  0
VERTEX
  5
200A
  8
0
  6
CONTINUOUS
 62
     0
 10
70.135194813420526
 20
53.196375558589637
 30
0.0
  0
VERTEX
  5
200B
  8
0
  6
CONTINUOUS
 62
     0
 10
70.085280113051155
 20
53.30324608711112
 30
0.0
  0
VERTEX
  5
200C
  8
0
  6
CONTINUOUS
 62
     0
 10
70.058932849360303
 20
53.35716594501644
 30
0.0
  0
VERTEX
  5
200D
  8
0
  6
CONTINUOUS
 62
     0
 10
70.031647615595134
 20
53.411433041170142
 30
0.0
  0
VERTEX
  5
200E
  8
0
  6
CONTINUOUS
 62
     0
 10
69.974225345404818
 20
53.521082873611363
 30
0.0
  0
VERTEX
  5
200F
  8
0
  6
CONTINUOUS
 62
     0
 10
69.912930993441535
 20
53.632346101041833
 30
0.0
  0
VERTEX
  5
2010
  8
0
  6
CONTINUOUS
 62
     0
 10
69.88080314453515
 20
53.688631054547614
 30
0.0
  0
SEQEND
  5
2011
  8
0
  6
CONTINUOUS
 62
     0
  0
POLYLINE
  5
1CF1
  8
0
  6
CONTINUOUS
 62
     0
 66
     1
 10
0.0
 20
0.0
 30
0.0
  0
VERTEX
  5
2012
  8
0
  6
CONTINUOUS
 62
     0
 10
69.880803144535207
 20
61.194184554012729
 30
0.0
  0
VERTEX
  5
2013
  8
0
  6
CONTINUOUS
 62
     0
 10
69.912930993441535
 20
61.25046950751851
 30
0.0
  0
VERTEX
  5
2014
  8
0
  6
CONTINUOUS
 62
     0
 10
69.974225345404875
 20
61.361732734948987
 30
0.0
  0
VERTEX
  5
2015
  8
0
  6
CONTINUOUS
 62
     0
 10
70.031647615595134
 20
61.471382567390208
 30
0.0
  0
VERTEX
  5
2016
  8
0
  6
CONTINUOUS
 62
     0
 10
70.058932849360303
 20
61.525649663543902
 30
0.0
  0
VERTEX
  5
2017
  8
0
  6
CONTINUOUS
 62
     0
 10
70.085280113051155
 20
61.57956952144923
 30
0.0
  0
VERTEX
  5
2018
  8
0
  6
CONTINUOUS
 62
     0
 10
70.135194813420526
 20
61.686440049970713
 30
0.0
  0
VERTEX
  5
2019
  8
0
  6
CONTINUOUS
 62
     0
 10
70.181453681192636
 20
61.792137203489737
 30
0.0
  0
VERTEX
  5
201A
  8
0
  6
CONTINUOUS
 62
     0
 10
70.224108924440202
 20
61.896801269724108
 30
0.0
  0
VERTEX
  5
201B
  8
0
  6
CONTINUOUS
 62
     0
 10
70.263203184250585
 20
62.00057039712437
 30
0.0
  0
VERTEX
  5
201C
  8
0
  6
CONTINUOUS
 62
     0
 10
70.298769660211235
 20
62.103581208332002
 30
0.0
  0
VERTEX
  5
201D
  8
0
  6
CONTINUOUS
 62
     0
 10
70.315237789042044
 20
62.154844672627632
 30
0.0
  0
VERTEX
  5
201E
  8
0
  6
CONTINUOUS
 62
     0
 10
70.330832172507144
 20
62.205969409324268
 30
0.0
  0
VERTEX
  5
201F
  8
0
  6
CONTINUOUS
 62
     0
 10
70.35940516038545
 20
62.307870400046909
 30
0.0
  0
VERTEX
  5
2020
  8
0
  6
CONTINUOUS
 62
     0
 10
70.384493615916014
 20
62.409419892452377
 30
0.0
  0
VERTEX
  5
2021
  8
0
  6
CONTINUOUS
 62
     0
 10
70.406092951122218
 20
62.510754542083127
 30
0.0
  0
VERTEX
  5
2022
  8
0
  6
CONTINUOUS
 62
     0
 10
70.424188795638486
 20
62.61201259966407
 30
0.0
  0
VERTEX
  5
2023
  8
0
  6
CONTINUOUS
 62
     0
 10
70.438756721068785
 20
62.713334589616117
 30
0.0
  0
VERTEX
  5
2024
  8
0
  6
CONTINUOUS
 62
     0
 10
70.444707244626727
 20
62.764064269437029
 30
0.0
  0
VERTEX
  5
2025
  8
0
  6
CONTINUOUS
 62
     0
 10
70.449761887128489
 20
62.814864022979293
 30
0.0
  0
VERTEX
  5
2026
  8
0
  6
CONTINUOUS
 62
     0
 10
70.457158603444043
 20
62.916748152961247
 30
0.0
  0
VERTEX
  5
2027
  8
0
  6
CONTINUOUS
 62
     0
 10
70.460889799512643
 20
63.019138782226598
 30
0.0
  0
VERTEX
  5
2028
  8
0
  6
CONTINUOUS
 62
     0
 10
70.46135972813596
 20
63.07057292887901
 30
0.0
  0
SEQEND
  5
2029
  8
0
  6
CONTINUOUS
 62
     0
  0
POLYLINE
  5
1CF2
  8
0
  6
CONTINUOUS
 62
     0
 66
     1
 10
0.0
 20
0.0
 30
0.0
  0
VERTEX
  5
202A
  8
0
  6
CONTINUOUS
 62
     0
 10
66.46135972813596
 20
63.07057292887901
 30
0.0
  0
VERTEX
  5
202B
  8
0
  6
CONTINUOUS
 62
     0
 10
66.461829656759221
 20
63.019138782226598
 30
0.0
  0
VERTEX
  5
202C
  8
0
  6
CONTINUOUS
 62
     0
 10
66.465560852827821
 20
62.916748152961247
 30
0.0
  0
VERTEX
  5
202D
  8
0
  6
CONTINUOUS
 62
     0
 10
66.472957569143375
 20
62.814864022979293
 30
0.0
  0
VERTEX
  5
202E
  8
0
  6
CONTINUOUS
 62
     0
 10
66.478012211645193
 20
62.764064269437029
 30
0.0
  0
VERTEX
  5
202F
  8
0
  6
CONTINUOUS
 62
     0
 10
66.483962735203136
 20
62.713334589616117
 30
0.0
  0
VERTEX
  5
2030
  8
0
  6
CONTINUOUS
 62
     0
 10
66.498530660633435
 20
62.61201259966407
 30
0.0
  0
VERTEX
  5
2031
  8
0
  6
CONTINUOUS
 62
     0
 10
66.516626505149702
 20
62.510754542083127
 30
0.0
  0
VERTEX
  5
2032
  8
0
  6
CONTINUOUS
 62
     0
 10
66.538225840355835
 20
62.409419892452377
 30
0.0
  0
VERTEX
  5
2033
  8
0
  6
CONTINUOUS
 62
     0
 10
66.563314295886471
 20
62.307870400046909
 30
0.0
  0
VERTEX
  5
2034
  8
0
  6
CONTINUOUS
 62
     0
 10
66.59188728376472
 20
62.205969409324268
 30
0.0
  0
VERTEX
  5
2035
  8
0
  6
CONTINUOUS
 62
     0
 10
66.607481667229806
 20
62.154844672627632
 30
0.0
  0
VERTEX
  5
2036
  8
0
  6
CONTINUOUS
 62
     0
 10
66.623949796060685
 20
62.103581208332002
 30
0.0
  0
VERTEX
  5
2037
  8
0
  6
CONTINUOUS
 62
     0
 10
66.659516272021278
 20
62.00057039712437
 30
0.0
  0
VERTEX
  5
2038
  8
0
  6
CONTINUOUS
 62
     0
 10
66.698610531831719
 20
61.896801269724108
 30
0.0
  0
VERTEX
  5
2039
  8
0
  6
CONTINUOUS
 62
     0
 10
66.741265775079285
 20
61.792137203489737
 30
0.0
  0
VERTEX
  5
203A
  8
0
  6
CONTINUOUS
 62
     0
 10
66.787524642851395
 20
61.686440049970713
 30
0.0
  0
VERTEX
  5
203B
  8
0
  6
CONTINUOUS
 62
     0
 10
66.837439343220694
 20
61.57956952144923
 30
0.0
  0
VERTEX
  5
203C
  8
0
  6
CONTINUOUS
 62
     0
 10
66.86378660691156
 20
61.525649663543902
 30
0.0
  0
VERTEX
  5
203D
  8
0
  6
CONTINUOUS
 62
     0
 10
66.891071840676773
 20
61.471382567390208
 30
0.0
  0
VERTEX
  5
203E
  8
0
  6
CONTINUOUS
 62
     0
 10
66.948494110867045
 20
61.361732734948987
 30
0.0
  0
VERTEX
  5
203F
  8
0
  6
CONTINUOUS
 62
     0
 10
67.009788462830386
 20
61.25046950751851
 30
0.0
  0
VERTEX
  5
2040
  8
0
  6
CONTINUOUS
 62
     0
 10
67.041916311736713
 20
61.194184554012729
 30
0.0
  0
SEQEND
  5
2041
  8
0
  6
CONTINUOUS
 62
     0
  0
POLYLINE
  5
1CF3
  8
0
  6
CONTINUOUS
 62
     0
 66
     1
 10
0.0
 20
0.0
 30
0.0
  0
VERTEX
  5
2042
  8
0
  6
CONTINUOUS
 62
     0
 10
67.041916311736713
 20
64.946961303745297
 30
0.0
  0
VERTEX
  5
2043
  8
0
  6
CONTINUOUS
 62
     0
 10
67.009788462830386
 20
64.890676350239517
 30
0.0
  0
VERTEX
  5
2044
  8
0
  6
CONTINUOUS
 62
     0
 10
66.948494110867045
 20
64.779413122809046
 30
0.0
  0
VERTEX
  5
2045
  8
0
  6
CONTINUOUS
 62
     0
 10
66.891071840676716
 20
64.669763290367825
 30
0.0
  0
VERTEX
  5
2046
  8
0
  6
CONTINUOUS
 62
     0
 10
66.86378660691156
 20
64.615496194214131
 30
0.0
  0
VERTEX
  5
2047
  8
0
  6
CONTINUOUS
 62
     0
 10
66.837439343220694
 20
64.561576336308804
 30
0.0
  0
VERTEX
  5
2048
  8
0
  6
CONTINUOUS
 62
     0
 10
66.787524642851395
 20
64.45470580778732
 30
0.0
  0
VERTEX
  5
2049
  8
0
  6
CONTINUOUS
 62
     0
 10
66.741265775079285
 20
64.349008654268346
 30
0.0
  0
VERTEX
  5
204A
  8
0
  6
CONTINUOUS
 62
     0
 10
66.698610531831719
 20
64.244344588033982
 30
0.0
  0
VERTEX
  5
204B
  8
0
  6
CONTINUOUS
 62
     0
 10
66.659516272021278
 20
64.14057546063367
 30
0.0
  0
VERTEX
  5
204C
  8
0
  6
CONTINUOUS
 62
     0
 10
66.623949796060685
 20
64.037564649426088
 30
0.0
  0
VERTEX
  5
204D
  8
0
  6
CONTINUOUS
 62
     0
 10
66.607481667229806
 20
63.986301185130458
 30
0.0
  0
VERTEX
  5
204E
  8
0
  6
CONTINUOUS
 62
     0
 10
66.59188728376472
 20
63.935176448433772
 30
0.0
  0
VERTEX
  5
204F
  8
0
  6
CONTINUOUS
 62
     0
 10
66.563314295886471
 20
63.833275457711132
 30
0.0
  0
VERTEX
  5
2050
  8
0
  6
CONTINUOUS
 62
     0
 10
66.538225840355835
 20
63.73172596530565
 30
0.0
  0
VERTEX
  5
2051
  8
0
  6
CONTINUOUS
 62
     0
 10
66.516626505149702
 20
63.630391315674892
 30
0.0
  0
VERTEX
  5
2052
  8
0
  6
CONTINUOUS
 62
     0
 10
66.498530660633435
 20
63.529133258094021
 30
0.0
  0
VERTEX
  5
2053
  8
0
  6
CONTINUOUS
 62
     0
 10
66.483962735203136
 20
63.427811268141959
 30
0.0
  0
VERTEX
  5
2054
  8
0
  6
CONTINUOUS
 62
     0
 10
66.478012211645193
 20
63.377081588321062
 30
0.0
  0
VERTEX
  5
2055
  8
0
  6
CONTINUOUS
 62
     0
 10
66.472957569143375
 20
63.32628183477874
 30
0.0
  0
VERTEX
  5
2056
  8
0
  6
CONTINUOUS
 62
     0
 10
66.465560852827821
 20
63.224397704796793
 30
0.0
  0
VERTEX
  5
2057
  8
0
  6
CONTINUOUS
 62
     0
 10
66.461829656759221
 20
63.122007075531421
 30
0.0
  0
VERTEX
  5
2058
  8
0
  6
CONTINUOUS
 62
     0
 10
66.46135972813596
 20
63.07057292887901
 30
0.0
  0
SEQEND
  5
2059
  8
0
  6
CONTINUOUS
 62
     0
  0
LINE
  5
1CF4
  8
0
  6
CONTINUOUS
 62
     0
 10
67.041916311736713
 20
64.946961303745297
 30
0.0
 11
69.88080314453515
 21
64.946961303745297
 31
0.0
  0
POLYLINE
  5
1CF5
  8
0
  6
CONTINUOUS
 62
     0
 66
     1
 10
0.0
 20
0.0
 30
0.0
  0
VERTEX
  5
205A
  8
0
  6
CONTINUOUS
 62
     0
 10
70.46135972813596
 20
63.07057292887901
 30
0.0
  0
VERTEX
  5
205B
  8
0
  6
CONTINUOUS
 62
     0
 10
70.460889799512643
 20
63.122007075531421
 30
0.0
  0
VERTEX
  5
205C
  8
0
  6
CONTINUOUS
 62
     0
 10
70.457158603444043
 20
63.224397704796793
 30
0.0
  0
VERTEX
  5
205D
  8
0
  6
CONTINUOUS
 62
     0
 10
70.449761887128489
 20
63.32628183477874
 30
0.0
  0
VERTEX
  5
205E
  8
0
  6
CONTINUOUS
 62
     0
 10
70.444707244626727
 20
63.377081588321062
 30
0.0
  0
VERTEX
  5
205F
  8
0
  6
CONTINUOUS
 62
     0
 10
70.438756721068785
 20
63.427811268141959
 30
0.0
  0
VERTEX
  5
2060
  8
0
  6
CONTINUOUS
 62
     0
 10
70.424188795638486
 20
63.529133258094021
 30
0.0
  0
VERTEX
  5
2061
  8
0
  6
CONTINUOUS
 62
     0
 10
70.406092951122218
 20
63.630391315674892
 30
0.0
  0
VERTEX
  5
2062
  8
0
  6
CONTINUOUS
 62
     0
 10
70.384493615916014
 20
63.73172596530565
 30
0.0
  0
VERTEX
  5
2063
  8
0
  6
CONTINUOUS
 62
     0
 10
70.35940516038545
 20
63.833275457711132
 30
0.0
  0
VERTEX
  5
2064
  8
0
  6
CONTINUOUS
 62
     0
 10
70.330832172507144
 20
63.935176448433772
 30
0.0
  0
VERTEX
  5
2065
  8
0
  6
CONTINUOUS
 62
     0
 10
70.315237789042044
 20
63.986301185130458
 30
0.0
  0
VERTEX
  5
2066
  8
0
  6
CONTINUOUS
 62
     0
 10
70.298769660211235
 20
64.037564649426088
 30
0.0
  0
VERTEX
  5
2067
  8
0
  6
CONTINUOUS
 62
     0
 10
70.263203184250585
 20
64.14057546063367
 30
0.0
  0
VERTEX
  5
2068
  8
0
  6
CONTINUOUS
 62
     0
 10
70.224108924440202
 20
64.244344588033982
 30
0.0
  0
VERTEX
  5
2069
  8
0
  6
CONTINUOUS
 62
     0
 10
70.181453681192636
 20
64.349008654268346
 30
0.0
  0
VERTEX
  5
206A
  8
0
  6
CONTINUOUS
 62
     0
 10
70.135194813420526
 20
64.45470580778732
 30
0.0
  0
VERTEX
  5
206B
  8
0
  6
CONTINUOUS
 62
     0
 10
70.085280113051155
 20
64.561576336308804
 30
0.0
  0
VERTEX
  5
206C
  8
0
  6
CONTINUOUS
 62
     0
 10
70.058932849360303
 20
64.615496194214131
 30
0.0
  0
VERTEX
  5
206D
  8
0
  6
CONTINUOUS
 62
     0
 10
70.031647615595134
 20
64.669763290367825
 30
0.0
  0
VERTEX
  5
206E
  8
0
  6
CONTINUOUS
 62
     0
 10
69.974225345404818
 20
64.779413122809046
 30
0.0
  0
VERTEX
  5
206F
  8
0
  6
CONTINUOUS
 62
     0
 10
69.912930993441535
 20
64.890676350239517
 30
0.0
  0
VERTEX
  5
2070
  8
0
  6
CONTINUOUS
 62
     0
 10
69.880803144535207
 20
64.946961303745297
 30
0.0
  0
SEQEND
  5
2071
  8
0
  6
CONTINUOUS
 62
     0
  0
POLYLINE
  5
1CF6
  8
0
  6
CONTINUOUS
 62
     0
 66
     1
 10
0.0
 20
0.0
 30
0.0
  0
VERTEX
  5
2072
  8
0
  6
CONTINUOUS
 62
     0
 10
69.880803144535207
 20
53.688631054547614
 30
0.0
  0
VERTEX
  5
2073
  8
0
  6
CONTINUOUS
 62
     0
 10
69.912930993441464
 20
53.801200961559168
 30
0.0
  0
VERTEX
  5
2074
  8
0
  6
CONTINUOUS
 62
     0
 10
69.974225345404818
 20
54.023727416420108
 30
0.0
  0
VERTEX
  5
2075
  8
0
  6
CONTINUOUS
 62
     0
 10
70.031647615595134
 20
54.24302708130255
 30
0.0
  0
VERTEX
  5
2076
  8
0
  6
CONTINUOUS
 62
     0
 10
70.058932849360303
 20
54.351561273609938
 30
0.0
  0
VERTEX
  5
2077
  8
0
  6
CONTINUOUS
 62
     0
 10
70.085280113051155
 20
54.459400989420601
 30
0.0
  0
VERTEX
  5
2078
  8
0
  6
CONTINUOUS
 62
     0
 10
70.135194813420526
 20
54.67314204646356
 30
0.0
  0
VERTEX
  5
2079
  8
0
  6
CONTINUOUS
 62
     0
 10
70.181453681192636
 20
54.884536353501581
 30
0.0
  0
VERTEX
  5
207A
  8
0
  6
CONTINUOUS
 62
     0
 10
70.224108924440202
 20
55.0938644859703
 30
0.0
  0
VERTEX
  5
207B
  8
0
  6
CONTINUOUS
 62
     0
 10
70.263203184250585
 20
55.301402740770868
 30
0.0
  0
VERTEX
  5
207C
  8
0
  6
CONTINUOUS
 62
     0
 10
70.298769660211235
 20
55.50742436318609
 30
0.0
  0
VERTEX
  5
207D
  8
0
  6
CONTINUOUS
 62
     0
 10
70.315237789042044
 20
55.60995129177735
 30
0.0
  0
VERTEX
  5
207E
  8
0
  6
CONTINUOUS
 62
     0
 10
70.330832172507144
 20
55.712200765170678
 30
0.0
  0
VERTEX
  5
207F
  8
0
  6
CONTINUOUS
 62
     0
 10
70.35940516038545
 20
55.916002746615959
 30
0.0
  0
VERTEX
  5
2080
  8
0
  6
CONTINUOUS
 62
     0
 10
70.384493615916014
 20
56.119101731426888
 30
0.0
  0
VERTEX
  5
2081
  8
0
  6
CONTINUOUS
 62
     0
 10
70.406092951122218
 20
56.32177103068841
 30
0.0
  0
VERTEX
  5
2082
  8
0
  6
CONTINUOUS
 62
     0
 10
70.424188795638486
 20
56.524287145850217
 30
0.0
  0
VERTEX
  5
2083
  8
0
  6
CONTINUOUS
 62
     0
 10
70.438756721068785
 20
56.726931125754341
 30
0.0
  0
VERTEX
  5
2084
  8
0
  6
CONTINUOUS
 62
     0
 10
70.444707244626727
 20
56.828390485396142
 30
0.0
  0
VERTEX
  5
2085
  8
0
  6
CONTINUOUS
 62
     0
 10
70.449761887128489
 20
56.929989992480721
 30
0.0
  0
VERTEX
  5
2086
  8
0
  6
CONTINUOUS
 62
     0
 10
70.457158603444043
 20
57.133758252444693
 30
0.0
  0
VERTEX
  5
2087
  8
0
  6
CONTINUOUS
 62
     0
 10
70.460889799512643
 20
57.338539510975352
 30
0.0
  0
VERTEX
  5
2088
  8
0
  6
CONTINUOUS
 62
     0
 10
70.46135972813596
 20
57.441407804280182
 30
0.0
  0
SEQEND
  5
2089
  8
0
  6
CONTINUOUS
 62
     0
  0
POLYLINE
  5
1CF7
  8
0
  6
CONTINUOUS
 62
     0
 66
     1
 10
0.0
 20
0.0
 30
0.0
  0
VERTEX
  5
208A
  8
0
  6
CONTINUOUS
 62
     0
 10
66.46135972813596
 20
57.441407804280182
 30
0.0
  0
VERTEX
  5
208B
  8
0
  6
CONTINUOUS
 62
     0
 10
66.461829656759221
 20
57.338539510975352
 30
0.0
  0
VERTEX
  5
208C
  8
0
  6
CONTINUOUS
 62
     0
 10
66.465560852827821
 20
57.133758252444693
 30
0.0
  0
VERTEX
  5
208D
  8
0
  6
CONTINUOUS
 62
     0
 10
66.472957569143375
 20
56.929989992480721
 30
0.0
  0
VERTEX
  5
208E
  8
0
  6
CONTINUOUS
 62
     0
 10
66.478012211645193
 20
56.828390485396142
 30
0.0
  0
VERTEX
  5
208F
  8
0
  6
CONTINUOUS
 62
     0
 10
66.483962735203136
 20
56.726931125754341
 30
0.0
  0
VERTEX
  5
2090
  8
0
  6
CONTINUOUS
 62
     0
 10
66.498530660633435
 20
56.524287145850217
 30
0.0
  0
VERTEX
  5
2091
  8
0
  6
CONTINUOUS
 62
     0
 10
66.516626505149702
 20
56.32177103068841
 30
0.0
  0
VERTEX
  5
2092
  8
0
  6
CONTINUOUS
 62
     0
 10
66.538225840355835
 20
56.119101731426888
 30
0.0
  0
VERTEX
  5
2093
  8
0
  6
CONTINUOUS
 62
     0
 10
66.563314295886471
 20
55.916002746615959
 30
0.0
  0
VERTEX
  5
2094
  8
0
  6
CONTINUOUS
 62
     0
 10
66.59188728376472
 20
55.712200765170678
 30
0.0
  0
VERTEX
  5
2095
  8
0
  6
CONTINUOUS
 62
     0
 10
66.607481667229806
 20
55.60995129177735
 30
0.0
  0
VERTEX
  5
2096
  8
0
  6
CONTINUOUS
 62
     0
 10
66.623949796060685
 20
55.50742436318609
 30
0.0
  0
VERTEX
  5
2097
  8
0
  6
CONTINUOUS
 62
     0
 10
66.659516272021278
 20
55.301402740770868
 30
0.0
  0
VERTEX
  5
2098
  8
0
  6
CONTINUOUS
 62
     0
 10
66.698610531831719
 20
55.0938644859703
 30
0.0
  0
VERTEX
  5
2099
  8
0
  6
CONTINUOUS
 62
     0
 10
66.741265775079285
 20
54.884536353501581
 30
0.0
  0
VERTEX
  5
209A
  8
0
  6
CONTINUOUS
 62
     0
 10
66.787524642851395
 20
54.673142046463617
 30
0.0
  0
VERTEX
  5
209B
  8
0
  6
CONTINUOUS
 62
     0
 10
66.837439343220694
 20
54.459400989420601
 30
0.0
  0
VERTEX
  5
209C
  8
0
  6
CONTINUOUS
 62
     0
 10
66.86378660691156
 20
54.351561273609938
 30
0.0
  0
VERTEX
  5
209D
  8
0
  6
CONTINUOUS
 62
     0
 10
66.891071840676773
 20
54.2430270813025
 30
0.0
  0
VERTEX
  5
209E
  8
0
  6
CONTINUOUS
 62
     0
 10
66.948494110867045
 20
54.023727416420108
 30
0.0
  0
VERTEX
  5
209F
  8
0
  6
CONTINUOUS
 62
     0
 10
67.009788462830386
 20
53.801200961559168
 30
0.0
  0
VERTEX
  5
20A0
  8
0
  6
CONTINUOUS
 62
     0
 10
67.041916311736713
 20
53.688631054547614
 30
0.0
  0
SEQEND
  5
20A1
  8
0
  6
CONTINUOUS
 62
     0
  0
POLYLINE
  5
1CF8
  8
0
  6
CONTINUOUS
 62
     0
 66
     1
 10
0.0
 20
0.0
 30
0.0
  0
VERTEX
  5
20A2
  8
0
  6
CONTINUOUS
 62
     0
 10
67.041916311736713
 20
61.194184554012729
 30
0.0
  0
VERTEX
  5
20A3
  8
0
  6
CONTINUOUS
 62
     0
 10
67.009788462830386
 20
61.081614647001167
 30
0.0
  0
VERTEX
  5
20A4
  8
0
  6
CONTINUOUS
 62
     0
 10
66.948494110867045
 20
60.859088192140227
 30
0.0
  0
VERTEX
  5
20A5
  8
0
  6
CONTINUOUS
 62
     0
 10
66.891071840676716
 20
60.639788527257849
 30
0.0
  0
VERTEX
  5
20A6
  8
0
  6
CONTINUOUS
 62
     0
 10
66.86378660691156
 20
60.531254334950397
 30
0.0
  0
VERTEX
  5
20A7
  8
0
  6
CONTINUOUS
 62
     0
 10
66.837439343220694
 20
60.423414619139749
 30
0.0
  0
VERTEX
  5
20A8
  8
0
  6
CONTINUOUS
 62
     0
 10
66.787524642851395
 20
60.209673562096782
 30
0.0
  0
VERTEX
  5
20A9
  8
0
  6
CONTINUOUS
 62
     0
 10
66.741265775079228
 20
59.998279255058769
 30
0.0
  0
VERTEX
  5
20AA
  8
0
  6
CONTINUOUS
 62
     0
 10
66.698610531831719
 20
59.788951122590049
 30
0.0
  0
VERTEX
  5
20AB
  8
0
  6
CONTINUOUS
 62
     0
 10
66.659516272021278
 20
59.581412867789481
 30
0.0
  0
VERTEX
  5
20AC
  8
0
  6
CONTINUOUS
 62
     0
 10
66.623949796060685
 20
59.37539124537426
 30
0.0
  0
VERTEX
  5
20AD
  8
0
  6
CONTINUOUS
 62
     0
 10
66.607481667229806
 20
59.272864316783
 30
0.0
  0
VERTEX
  5
20AE
  8
0
  6
CONTINUOUS
 62
     0
 10
66.59188728376472
 20
59.170614843389671
 30
0.0
  0
VERTEX
  5
20AF
  8
0
  6
CONTINUOUS
 62
     0
 10
66.563314295886471
 20
58.966812861944391
 30
0.0
  0
VERTEX
  5
20B0
  8
0
  6
CONTINUOUS
 62
     0
 10
66.538225840355835
 20
58.763713877133448
 30
0.0
  0
VERTEX
  5
20B1
  8
0
  6
CONTINUOUS
 62
     0
 10
66.516626505149702
 20
58.56104457787194
 30
0.0
  0
VERTEX
  5
20B2
  8
0
  6
CONTINUOUS
 62
     0
 10
66.498530660633435
 20
58.358528462710133
 30
0.0
  0
VERTEX
  5
20B3
  8
0
  6
CONTINUOUS
 62
     0
 10
66.483962735203136
 20
58.155884482806009
 30
0.0
  0
VERTEX
  5
20B4
  8
0
  6
CONTINUOUS
 62
     0
 10
66.478012211645193
 20
58.054425123164208
 30
0.0
  0
VERTEX
  5
20B5
  8
0
  6
CONTINUOUS
 62
     0
 10
66.472957569143375
 20
57.952825616079622
 30
0.0
  0
VERTEX
  5
20B6
  8
0
  6
CONTINUOUS
 62
     0
 10
66.465560852827821
 20
57.749057356115649
 30
0.0
  0
VERTEX
  5
20B7
  8
0
  6
CONTINUOUS
 62
     0
 10
66.461829656759221
 20
57.544276097584998
 30
0.0
  0
VERTEX
  5
20B8
  8
0
  6
CONTINUOUS
 62
     0
 10
66.46135972813596
 20
57.441407804280182
 30
0.0
  0
SEQEND
  5
20B9
  8
0
  6
CONTINUOUS
 62
     0
  0
POLYLINE
  5
1CF9
  8
0
  6
CONTINUOUS
 62
     0
 66
     1
 10
0.0
 20
0.0
 30
0.0
  0
VERTEX
  5
20BA
  8
0
  6
CONTINUOUS
 62
     0
 10
70.46135972813596
 20
57.441407804280182
 30
0.0
  0
VERTEX
  5
20BB
  8
0
  6
CONTINUOUS
 62
     0
 10
70.460889799512643
 20
57.544276097584998
 30
0.0
  0
VERTEX
  5
20BC
  8
0
  6
CONTINUOUS
 62
     0
 10
70.457158603444043
 20
57.749057356115649
 30
0.0
  0
VERTEX
  5
20BD
  8
0
  6
CONTINUOUS
 62
     0
 10
70.449761887128489
 20
57.952825616079622
 30
0.0
  0
VERTEX
  5
20BE
  8
0
  6
CONTINUOUS
 62
     0
 10
70.444707244626727
 20
58.054425123164208
 30
0.0
  0
VERTEX
  5
20BF
  8
0
  6
CONTINUOUS
 62
     0
 10
70.438756721068785
 20
58.155884482806009
 30
0.0
  0
VERTEX
  5
20C0
  8
0
  6
CONTINUOUS
 62
     0
 10
70.424188795638486
 20
58.358528462710133
 30
0.0
  0
VERTEX
  5
20C1
  8
0
  6
CONTINUOUS
 62
     0
 10
70.406092951122218
 20
58.56104457787194
 30
0.0
  0
VERTEX
  5
20C2
  8
0
  6
CONTINUOUS
 62
     0
 10
70.384493615916014
 20
58.763713877133448
 30
0.0
  0
VERTEX
  5
20C3
  8
0
  6
CONTINUOUS
 62
     0
 10
70.35940516038545
 20
58.966812861944391
 30
0.0
  0
VERTEX
  5
20C4
  8
0
  6
CONTINUOUS
 62
     0
 10
70.330832172507144
 20
59.170614843389671
 30
0.0
  0
VERTEX
  5
20C5
  8
0
  6
CONTINUOUS
 62
     0
 10
70.315237789042044
 20
59.272864316783
 30
0.0
  0
VERTEX
  5
20C6
  8
0
  6
CONTINUOUS
 62
     0
 10
70.298769660211235
 20
59.37539124537426
 30
0.0
  0
VERTEX
  5
20C7
  8
0
  6
CONTINUOUS
 62
     0
 10
70.263203184250585
 20
59.581412867789481
 30
0.0
  0
VERTEX
  5
20C8
  8
0
  6
CONTINUOUS
 62
     0
 10
70.224108924440202
 20
59.788951122590049
 30
0.0
  0
VERTEX
  5
20C9
  8
0
  6
CONTINUOUS
 62
     0
 10
70.181453681192636
 20
59.998279255058769
 30
0.0
  0
VERTEX
  5
20CA
  8
0
  6
CONTINUOUS
 62
     0
 10
70.135194813420526
 20
60.209673562096732
 30
0.0
  0
VERTEX
  5
20CB
  8
0
  6
CONTINUOUS
 62
     0
 10
70.085280113051155
 20
60.423414619139749
 30
0.0
  0
VERTEX
  5
20CC
  8
0
  6
CONTINUOUS
 62
     0
 10
70.058932849360303
 20
60.531254334950397
 30
0.0
  0
VERTEX
  5
20CD
  8
0
  6
CONTINUOUS
 62
     0
 10
70.031647615595134
 20
60.639788527257792
 30
0.0
  0
VERTEX
  5
20CE
  8
0
  6
CONTINUOUS
 62
     0
 10
69.974225345404818
 20
60.859088192140227
 30
0.0
  0
VERTEX
  5
20CF
  8
0
  6
CONTINUOUS
 62
     0
 10
69.912930993441535
 20
61.081614647001167
 30
0.0
  0
VERTEX
  5
20D0
  8
0
  6
CONTINUOUS
 62
     0
 10
69.880803144535207
 20
61.194184554012729
 30
0.0
  0
SEQEND
  5
20D1
  8
0
  6
CONTINUOUS
 62
     0
  0
POLYLINE
  5
1CFA
  8
0
  6
CONTINUOUS
 62
     0
 66
     1
 10
0.0
 20
0.0
 30
0.0
  0
VERTEX
  5
20D2
  8
0
  6
CONTINUOUS
 62
     0
 10
70.46135972813596
 20
63.07057292887901
 30
0.0
  0
VERTEX
  5
20D3
  8
0
  6
CONTINUOUS
 62
     0
 10
70.460889799512643
 20
63.019138782226598
 30
0.0
  0
VERTEX
  5
20D4
  8
0
  6
CONTINUOUS
 62
     0
 10
70.457158603444043
 20
62.916748152961247
 30
0.0
  0
VERTEX
  5
20D5
  8
0
  6
CONTINUOUS
 62
     0
 10
70.449761887128489
 20
62.814864022979293
 30
0.0
  0
VERTEX
  5
20D6
  8
0
  6
CONTINUOUS
 62
     0
 10
70.444707244626727
 20
62.764064269437029
 30
0.0
  0
VERTEX
  5
20D7
  8
0
  6
CONTINUOUS
 62
     0
 10
70.438756721068785
 20
62.713334589616117
 30
0.0
  0
VERTEX
  5
20D8
  8
0
  6
CONTINUOUS
 62
     0
 10
70.424188795638486
 20
62.61201259966407
 30
0.0
  0
VERTEX
  5
20D9
  8
0
  6
CONTINUOUS
 62
     0
 10
70.406092951122218
 20
62.510754542083127
 30
0.0
  0
VERTEX
  5
20DA
  8
0
  6
CONTINUOUS
 62
     0
 10
70.384493615916014
 20
62.409419892452377
 30
0.0
  0
VERTEX
  5
20DB
  8
0
  6
CONTINUOUS
 62
     0
 10
70.35940516038545
 20
62.307870400046909
 30
0.0
  0
VERTEX
  5
20DC
  8
0
  6
CONTINUOUS
 62
     0
 10
70.330832172507144
 20
62.205969409324268
 30
0.0
  0
VERTEX
  5
20DD
  8
0
  6
CONTINUOUS
 62
     0
 10
70.315237789042044
 20
62.154844672627632
 30
0.0
  0
VERTEX
  5
20DE
  8
0
  6
CONTINUOUS
 62
     0
 10
70.298769660211235
 20
62.103581208332002
 30
0.0
  0
VERTEX
  5
20DF
  8
0
  6
CONTINUOUS
 62
     0
 10
70.263203184250585
 20
62.00057039712437
 30
0.0
  0
VERTEX
  5
20E0
  8
0
  6
CONTINUOUS
 62
     0
 10
70.224108924440202
 20
61.896801269724108
 30
0.0
  0
VERTEX
  5
20E1
  8
0
  6
CONTINUOUS
 62
     0
 10
70.181453681192636
 20
61.792137203489737
 30
0.0
  0
VERTEX
  5
20E2
  8
0
  6
CONTINUOUS
 62
     0
 10
70.135194813420526
 20
61.686440049970713
 30
0.0
  0
VERTEX
  5
20E3
  8
0
  6
CONTINUOUS
 62
     0
 10
70.085280113051155
 20
61.57956952144923
 30
0.0
  0
VERTEX
  5
20E4
  8
0
  6
CONTINUOUS
 62
     0
 10
70.058932849360303
 20
61.525649663543902
 30
0.0
  0
VERTEX
  5
20E5
  8
0
  6
CONTINUOUS
 62
     0
 10
70.031647615595134
 20
61.471382567390208
 30
0.0
  0
VERTEX
  5
20E6
  8
0
  6
CONTINUOUS
 62
     0
 10
69.974225345404818
 20
61.361732734948987
 30
0.0
  0
VERTEX
  5
20E7
  8
0
  6
CONTINUOUS
 62
     0
 10
69.912930993441535
 20
61.25046950751851
 30
0.0
  0
VERTEX
  5
20E8
  8
0
  6
CONTINUOUS
 62
     0
 10
69.88080314453515
 20
61.194184554012729
 30
0.0
  0
SEQEND
  5
20E9
  8
0
  6
CONTINUOUS
 62
     0
  0
POLYLINE
  5
1CFB
  8
0
  6
CONTINUOUS
 62
     0
 66
     1
 10
0.0
 20
0.0
 30
0.0
  0
VERTEX
  5
20EA
  8
0
  6
CONTINUOUS
 62
     0
 10
69.88080314453515
 20
64.946961303745297
 30
0.0
  0
VERTEX
  5
20EB
  8
0
  6
CONTINUOUS
 62
     0
 10
69.912930993441464
 20
64.890676350239517
 30
0.0
  0
VERTEX
  5
20EC
  8
0
  6
CONTINUOUS
 62
     0
 10
69.974225345404818
 20
64.779413122809046
 30
0.0
  0
VERTEX
  5
20ED
  8
0
  6
CONTINUOUS
 62
     0
 10
70.031647615595134
 20
64.669763290367825
 30
0.0
  0
VERTEX
  5
20EE
  8
0
  6
CONTINUOUS
 62
     0
 10
70.058932849360303
 20
64.615496194214131
 30
0.0
  0
VERTEX
  5
20EF
  8
0
  6
CONTINUOUS
 62
     0
 10
70.085280113051155
 20
64.561576336308804
 30
0.0
  0
VERTEX
  5
20F0
  8
0
  6
CONTINUOUS
 62
     0
 10
70.135194813420526
 20
64.45470580778732
 30
0.0
  0
VERTEX
  5
20F1
  8
0
  6
CONTINUOUS
 62
     0
 10
70.181453681192636
 20
64.349008654268346
 30
0.0
  0
VERTEX
  5
20F2
  8
0
  6
CONTINUOUS
 62
     0
 10
70.224108924440202
 20
64.244344588033982
 30
0.0
  0
VERTEX
  5
20F3
  8
0
  6
CONTINUOUS
 62
     0
 10
70.263203184250585
 20
64.14057546063367
 30
0.0
  0
VERTEX
  5
20F4
  8
0
  6
CONTINUOUS
 62
     0
 10
70.298769660211235
 20
64.037564649426088
 30
0.0
  0
VERTEX
  5
20F5
  8
0
  6
CONTINUOUS
 62
     0
 10
70.315237789042044
 20
63.986301185130458
 30
0.0
  0
VERTEX
  5
20F6
  8
0
  6
CONTINUOUS
 62
     0
 10
70.330832172507144
 20
63.935176448433772
 30
0.0
  0
VERTEX
  5
20F7
  8
0
  6
CONTINUOUS
 62
     0
 10
70.35940516038545
 20
63.833275457711132
 30
0.0
  0
VERTEX
  5
20F8
  8
0
  6
CONTINUOUS
 62
     0
 10
70.384493615916014
 20
63.73172596530565
 30
0.0
  0
VERTEX
  5
20F9
  8
0
  6
CONTINUOUS
 62
     0
 10
70.406092951122218
 20
63.630391315674892
 30
0.0
  0
VERTEX
  5
20FA
  8
0
  6
CONTINUOUS
 62
     0
 10
70.424188795638486
 20
63.529133258094021
 30
0.0
  0
VERTEX
  5
20FB
  8
0
  6
CONTINUOUS
 62
     0
 10
70.438756721068785
 20
63.427811268141959
 30
0.0
  0
VERTEX
  5
20FC
  8
0
  6
CONTINUOUS
 62
     0
 10
70.444707244626727
 20
63.377081588321062
 30
0.0
  0
VERTEX
  5
20FD
  8
0
  6
CONTINUOUS
 62
     0
 10
70.449761887128489
 20
63.32628183477874
 30
0.0
  0
VERTEX
  5
20FE
  8
0
  6
CONTINUOUS
 62
     0
 10
70.457158603444043
 20
63.224397704796793
 30
0.0
  0
VERTEX
  5
20FF
  8
0
  6
CONTINUOUS
 62
     0
 10
70.460889799512643
 20
63.122007075531421
 30
0.0
  0
VERTEX
  5
2100
  8
0
  6
CONTINUOUS
 62
     0
 10
70.46135972813596
 20
63.07057292887901
 30
0.0
  0
SEQEND
  5
2101
  8
0
  6
CONTINUOUS
 62
     0
  0
POLYLINE
  5
1CFC
  8
0
  6
CONTINUOUS
 62
     0
 66
     1
 10
0.0
 20
0.0
 30
0.0
  0
VERTEX
  5
2102
  8
0
  6
CONTINUOUS
 62
     0
 10
66.46135972813596
 20
63.07057292887901
 30
0.0
  0
VERTEX
  5
2103
  8
0
  6
CONTINUOUS
 62
     0
 10
66.461829656759221
 20
63.122007075531421
 30
0.0
  0
VERTEX
  5
2104
  8
0
  6
CONTINUOUS
 62
     0
 10
66.465560852827821
 20
63.224397704796793
 30
0.0
  0
VERTEX
  5
2105
  8
0
  6
CONTINUOUS
 62
     0
 10
66.472957569143375
 20
63.32628183477874
 30
0.0
  0
VERTEX
  5
2106
  8
0
  6
CONTINUOUS
 62
     0
 10
66.478012211645193
 20
63.377081588321062
 30
0.0
  0
VERTEX
  5
2107
  8
0
  6
CONTINUOUS
 62
     0
 10
66.483962735203136
 20
63.427811268141959
 30
0.0
  0
VERTEX
  5
2108
  8
0
  6
CONTINUOUS
 62
     0
 10
66.498530660633435
 20
63.529133258094021
 30
0.0
  0
VERTEX
  5
2109
  8
0
  6
CONTINUOUS
 62
     0
 10
66.516626505149702
 20
63.630391315674892
 30
0.0
  0
VERTEX
  5
210A
  8
0
  6
CONTINUOUS
 62
     0
 10
66.538225840355835
 20
63.73172596530565
 30
0.0
  0
VERTEX
  5
210B
  8
0
  6
CONTINUOUS
 62
     0
 10
66.563314295886471
 20
63.833275457711132
 30
0.0
  0
VERTEX
  5
210C
  8
0
  6
CONTINUOUS
 62
     0
 10
66.59188728376472
 20
63.935176448433772
 30
0.0
  0
VERTEX
  5
210D
  8
0
  6
CONTINUOUS
 62
     0
 10
66.607481667229806
 20
63.986301185130458
 30
0.0
  0
VERTEX
  5
210E
  8
0
  6
CONTINUOUS
 62
     0
 10
66.623949796060685
 20
64.037564649426088
 30
0.0
  0
VERTEX
  5
210F
  8
0
  6
CONTINUOUS
 62
     0
 10
66.659516272021278
 20
64.14057546063367
 30
0.0
  0
VERTEX
  5
2110
  8
0
  6
CONTINUOUS
 62
     0
 10
66.698610531831719
 20
64.244344588033982
 30
0.0
  0
VERTEX
  5
2111
  8
0
  6
CONTINUOUS
 62
     0
 10
66.741265775079228
 20
64.349008654268346
 30
0.0
  0
VERTEX
  5
2112
  8
0
  6
CONTINUOUS
 62
     0
 10
66.787524642851395
 20
64.45470580778732
 30
0.0
  0
VERTEX
  5
2113
  8
0
  6
CONTINUOUS
 62
     0
 10
66.837439343220694
 20
64.561576336308804
 30
0.0
  0
VERTEX
  5
2114
  8
0
  6
CONTINUOUS
 62
     0
 10
66.86378660691156
 20
64.615496194214131
 30
0.0
  0
VERTEX
  5
2115
  8
0
  6
CONTINUOUS
 62
     0
 10
66.891071840676716
 20
64.669763290367825
 30
0.0
  0
VERTEX
  5
2116
  8
0
  6
CONTINUOUS
 62
     0
 10
66.948494110867045
 20
64.779413122809046
 30
0.0
  0
VERTEX
  5
2117
  8
0
  6
CONTINUOUS
 62
     0
 10
67.009788462830386
 20
64.890676350239517
 30
0.0
  0
VERTEX
  5
2118
  8
0
  6
CONTINUOUS
 62
     0
 10
67.041916311736713
 20
64.946961303745297
 30
0.0
  0
SEQEND
  5
2119
  8
0
  6
CONTINUOUS
 62
     0
  0
POLYLINE
  5
1CFD
  8
0
  6
CONTINUOUS
 62
     0
 66
     1
 10
0.0
 20
0.0
 30
0.0
  0
VERTEX
  5
211A
  8
0
  6
CONTINUOUS
 62
     0
 10
67.041916311736713
 20
61.194184554012729
 30
0.0
  0
VERTEX
  5
211B
  8
0
  6
CONTINUOUS
 62
     0
 10
67.009788462830386
 20
61.25046950751851
 30
0.0
  0
VERTEX
  5
211C
  8
0
  6
CONTINUOUS
 62
     0
 10
66.948494110867045
 20
61.361732734948987
 30
0.0
  0
VERTEX
  5
211D
  8
0
  6
CONTINUOUS
 62
     0
 10
66.891071840676773
 20
61.471382567390208
 30
0.0
  0
VERTEX
  5
211E
  8
0
  6
CONTINUOUS
 62
     0
 10
66.86378660691156
 20
61.525649663543902
 30
0.0
  0
VERTEX
  5
211F
  8
0
  6
CONTINUOUS
 62
     0
 10
66.837439343220694
 20
61.57956952144923
 30
0.0
  0
VERTEX
  5
2120
  8
0
  6
CONTINUOUS
 62
     0
 10
66.787524642851395
 20
61.686440049970713
 30
0.0
  0
VERTEX
  5
2121
  8
0
  6
CONTINUOUS
 62
     0
 10
66.741265775079285
 20
61.792137203489737
 30
0.0
  0
VERTEX
  5
2122
  8
0
  6
CONTINUOUS
 62
     0
 10
66.698610531831719
 20
61.896801269724108
 30
0.0
  0
VERTEX
  5
2123
  8
0
  6
CONTINUOUS
 62
     0
 10
66.659516272021278
 20
62.00057039712437
 30
0.0
  0
VERTEX
  5
2124
  8
0
  6
CONTINUOUS
 62
     0
 10
66.623949796060685
 20
62.103581208332002
 30
0.0
  0
VERTEX
  5
2125
  8
0
  6
CONTINUOUS
 62
     0
 10
66.607481667229806
 20
62.154844672627632
 30
0.0
  0
VERTEX
  5
2126
  8
0
  6
CONTINUOUS
 62
     0
 10
66.59188728376472
 20
62.205969409324268
 30
0.0
  0
VERTEX
  5
2127
  8
0
  6
CONTINUOUS
 62
     0
 10
66.563314295886471
 20
62.307870400046909
 30
0.0
  0
VERTEX
  5
2128
  8
0
  6
CONTINUOUS
 62
     0
 10
66.538225840355835
 20
62.409419892452377
 30
0.0
  0
VERTEX
  5
2129
  8
0
  6
CONTINUOUS
 62
     0
 10
66.516626505149702
 20
62.510754542083127
 30
0.0
  0
VERTEX
  5
212A
  8
0
  6
CONTINUOUS
 62
     0
 10
66.498530660633435
 20
62.61201259966407
 30
0.0
  0
VERTEX
  5
212B
  8
0
  6
CONTINUOUS
 62
     0
 10
66.483962735203136
 20
62.713334589616117
 30
0.0
  0
VERTEX
  5
212C
  8
0
  6
CONTINUOUS
 62
     0
 10
66.478012211645193
 20
62.764064269437029
 30
0.0
  0
VERTEX
  5
212D
  8
0
  6
CONTINUOUS
 62
     0
 10
66.472957569143375
 20
62.814864022979293
 30
0.0
  0
VERTEX
  5
212E
  8
0
  6
CONTINUOUS
 62
     0
 10
66.465560852827821
 20
62.916748152961247
 30
0.0
  0
VERTEX
  5
212F
  8
0
  6
CONTINUOUS
 62
     0
 10
66.461829656759221
 20
63.019138782226598
 30
0.0
  0
VERTEX
  5
2130
  8
0
  6
CONTINUOUS
 62
     0
 10
66.46135972813596
 20
63.07057292887901
 30
0.0
  0
SEQEND
  5
2131
  8
0
  6
CONTINUOUS
 62
     0
  0
LINE
  5
1CFE
  8
0
  6
CONTINUOUS
 62
     0
 10
67.041916311736713
 20
61.194184554012729
 30
0.0
 11
69.880803144535207
 21
61.194184554012729
 31
0.0
  0
POLYLINE
  5
1CFF
  8
0
  6
CONTINUOUS
 62
     0
 66
     1
 10
0.0
 20
0.0
 30
0.0
  0
VERTEX
  5
2132
  8
0
  6
CONTINUOUS
 62
     0
 10
70.46135972813596
 20
57.441407804280182
 30
0.0
  0
VERTEX
  5
2133
  8
0
  6
CONTINUOUS
 62
     0
 10
70.460889799512643
 20
57.338539510975352
 30
0.0
  0
VERTEX
  5
2134
  8
0
  6
CONTINUOUS
 62
     0
 10
70.457158603444043
 20
57.133758252444693
 30
0.0
  0
VERTEX
  5
2135
  8
0
  6
CONTINUOUS
 62
     0
 10
70.449761887128489
 20
56.929989992480721
 30
0.0
  0
VERTEX
  5
2136
  8
0
  6
CONTINUOUS
 62
     0
 10
70.444707244626727
 20
56.828390485396142
 30
0.0
  0
VERTEX
  5
2137
  8
0
  6
CONTINUOUS
 62
     0
 10
70.438756721068785
 20
56.726931125754341
 30
0.0
  0
VERTEX
  5
2138
  8
0
  6
CONTINUOUS
 62
     0
 10
70.424188795638486
 20
56.524287145850217
 30
0.0
  0
VERTEX
  5
2139
  8
0
  6
CONTINUOUS
 62
     0
 10
70.406092951122218
 20
56.32177103068841
 30
0.0
  0
VERTEX
  5
213A
  8
0
  6
CONTINUOUS
 62
     0
 10
70.384493615916014
 20
56.119101731426888
 30
0.0
  0
VERTEX
  5
213B
  8
0
  6
CONTINUOUS
 62
     0
 10
70.35940516038545
 20
55.916002746615959
 30
0.0
  0
VERTEX
  5
213C
  8
0
  6
CONTINUOUS
 62
     0
 10
70.330832172507144
 20
55.712200765170678
 30
0.0
  0
VERTEX
  5
213D
  8
0
  6
CONTINUOUS
 62
     0
 10
70.315237789042044
 20
55.60995129177735
 30
0.0
  0
VERTEX
  5
213E
  8
0
  6
CONTINUOUS
 62
     0
 10
70.298769660211235
 20
55.50742436318609
 30
0.0
  0
VERTEX
  5
213F
  8
0
  6
CONTINUOUS
 62
     0
 10
70.263203184250585
 20
55.301402740770868
 30
0.0
  0
VERTEX
  5
2140
  8
0
  6
CONTINUOUS
 62
     0
 10
70.224108924440202
 20
55.0938644859703
 30
0.0
  0
VERTEX
  5
2141
  8
0
  6
CONTINUOUS
 62
     0
 10
70.181453681192636
 20
54.884536353501581
 30
0.0
  0
VERTEX
  5
2142
  8
0
  6
CONTINUOUS
 62
     0
 10
70.135194813420526
 20
54.673142046463617
 30
0.0
  0
VERTEX
  5
2143
  8
0
  6
CONTINUOUS
 62
     0
 10
70.085280113051155
 20
54.459400989420601
 30
0.0
  0
VERTEX
  5
2144
  8
0
  6
CONTINUOUS
 62
     0
 10
70.058932849360303
 20
54.351561273609938
 30
0.0
  0
VERTEX
  5
2145
  8
0
  6
CONTINUOUS
 62
     0
 10
70.031647615595134
 20
54.24302708130255
 30
0.0
  0
VERTEX
  5
2146
  8
0
  6
CONTINUOUS
 62
     0
 10
69.974225345404818
 20
54.023727416420108
 30
0.0
  0
VERTEX
  5
2147
  8
0
  6
CONTINUOUS
 62
     0
 10
69.912930993441535
 20
53.801200961559168
 30
0.0
  0
VERTEX
  5
2148
  8
0
  6
CONTINUOUS
 62
     0
 10
69.880803144535207
 20
53.688631054547614
 30
0.0
  0
SEQEND
  5
2149
  8
0
  6
CONTINUOUS
 62
     0
  0
POLYLINE
  5
1D00
  8
0
  6
CONTINUOUS
 62
     0
 66
     1
 10
0.0
 20
0.0
 30
0.0
  0
VERTEX
  5
214A
  8
0
  6
CONTINUOUS
 62
     0
 10
69.880803144535207
 20
61.194184554012729
 30
0.0
  0
VERTEX
  5
214B
  8
0
  6
CONTINUOUS
 62
     0
 10
69.912930993441464
 20
61.081614647001167
 30
0.0
  0
VERTEX
  5
214C
  8
0
  6
CONTINUOUS
 62
     0
 10
69.974225345404818
 20
60.859088192140227
 30
0.0
  0
VERTEX
  5
214D
  8
0
  6
CONTINUOUS
 62
     0
 10
70.031647615595134
 20
60.639788527257849
 30
0.0
  0
VERTEX
  5
214E
  8
0
  6
CONTINUOUS
 62
     0
 10
70.058932849360303
 20
60.531254334950397
 30
0.0
  0
VERTEX
  5
214F
  8
0
  6
CONTINUOUS
 62
     0
 10
70.085280113051155
 20
60.423414619139749
 30
0.0
  0
VERTEX
  5
2150
  8
0
  6
CONTINUOUS
 62
     0
 10
70.135194813420526
 20
60.209673562096782
 30
0.0
  0
VERTEX
  5
2151
  8
0
  6
CONTINUOUS
 62
     0
 10
70.181453681192636
 20
59.998279255058769
 30
0.0
  0
VERTEX
  5
2152
  8
0
  6
CONTINUOUS
 62
     0
 10
70.224108924440202
 20
59.788951122590049
 30
0.0
  0
VERTEX
  5
2153
  8
0
  6
CONTINUOUS
 62
     0
 10
70.263203184250585
 20
59.581412867789481
 30
0.0
  0
VERTEX
  5
2154
  8
0
  6
CONTINUOUS
 62
     0
 10
70.298769660211235
 20
59.37539124537426
 30
0.0
  0
VERTEX
  5
2155
  8
0
  6
CONTINUOUS
 62
     0
 10
70.315237789042044
 20
59.272864316783
 30
0.0
  0
VERTEX
  5
2156
  8
0
  6
CONTINUOUS
 62
     0
 10
70.330832172507144
 20
59.170614843389671
 30
0.0
  0
VERTEX
  5
2157
  8
0
  6
CONTINUOUS
 62
     0
 10
70.35940516038545
 20
58.966812861944391
 30
0.0
  0
VERTEX
  5
2158
  8
0
  6
CONTINUOUS
 62
     0
 10
70.384493615916014
 20
58.763713877133448
 30
0.0
  0
VERTEX
  5
2159
  8
0
  6
CONTINUOUS
 62
     0
 10
70.406092951122218
 20
58.56104457787194
 30
0.0
  0
VERTEX
  5
215A
  8
0
  6
CONTINUOUS
 62
     0
 10
70.424188795638486
 20
58.358528462710133
 30
0.0
  0
VERTEX
  5
215B
  8
0
  6
CONTINUOUS
 62
     0
 10
70.438756721068785
 20
58.155884482806009
 30
0.0
  0
VERTEX
  5
215C
  8
0
  6
CONTINUOUS
 62
     0
 10
70.444707244626727
 20
58.054425123164208
 30
0.0
  0
VERTEX
  5
215D
  8
0
  6
CONTINUOUS
 62
     0
 10
70.449761887128489
 20
57.952825616079622
 30
0.0
  0
VERTEX
  5
215E
  8
0
  6
CONTINUOUS
 62
     0
 10
70.457158603444043
 20
57.749057356115649
 30
0.0
  0
VERTEX
  5
215F
  8
0
  6
CONTINUOUS
 62
     0
 10
70.460889799512643
 20
57.544276097584998
 30
0.0
  0
VERTEX
  5
2160
  8
0
  6
CONTINUOUS
 62
     0
 10
70.46135972813596
 20
57.441407804280182
 30
0.0
  0
SEQEND
  5
2161
  8
0
  6
CONTINUOUS
 62
     0
  0
POLYLINE
  5
1D01
  8
0
  6
CONTINUOUS
 62
     0
 66
     1
 10
0.0
 20
0.0
 30
0.0
  0
VERTEX
  5
2162
  8
0
  6
CONTINUOUS
 62
     0
 10
66.46135972813596
 20
57.441407804280182
 30
0.0
  0
VERTEX
  5
2163
  8
0
  6
CONTINUOUS
 62
     0
 10
66.461829656759221
 20
57.544276097584998
 30
0.0
  0
VERTEX
  5
2164
  8
0
  6
CONTINUOUS
 62
     0
 10
66.465560852827821
 20
57.749057356115649
 30
0.0
  0
VERTEX
  5
2165
  8
0
  6
CONTINUOUS
 62
     0
 10
66.472957569143375
 20
57.952825616079622
 30
0.0
  0
VERTEX
  5
2166
  8
0
  6
CONTINUOUS
 62
     0
 10
66.478012211645193
 20
58.054425123164208
 30
0.0
  0
VERTEX
  5
2167
  8
0
  6
CONTINUOUS
 62
     0
 10
66.483962735203136
 20
58.155884482806009
 30
0.0
  0
VERTEX
  5
2168
  8
0
  6
CONTINUOUS
 62
     0
 10
66.498530660633435
 20
58.358528462710133
 30
0.0
  0
VERTEX
  5
2169
  8
0
  6
CONTINUOUS
 62
     0
 10
66.516626505149702
 20
58.56104457787194
 30
0.0
  0
VERTEX
  5
216A
  8
0
  6
CONTINUOUS
 62
     0
 10
66.538225840355835
 20
58.763713877133448
 30
0.0
  0
VERTEX
  5
216B
  8
0
  6
CONTINUOUS
 62
     0
 10
66.563314295886471
 20
58.966812861944391
 30
0.0
  0
VERTEX
  5
216C
  8
0
  6
CONTINUOUS
 62
     0
 10
66.59188728376472
 20
59.170614843389671
 30
0.0
  0
VERTEX
  5
216D
  8
0
  6
CONTINUOUS
 62
     0
 10
66.607481667229806
 20
59.272864316783
 30
0.0
  0
VERTEX
  5
216E
  8
0
  6
CONTINUOUS
 62
     0
 10
66.623949796060685
 20
59.37539124537426
 30
0.0
  0
VERTEX
  5
216F
  8
0
  6
CONTINUOUS
 62
     0
 10
66.659516272021278
 20
59.581412867789481
 30
0.0
  0
VERTEX
  5
2170
  8
0
  6
CONTINUOUS
 62
     0
 10
66.698610531831719
 20
59.788951122590049
 30
0.0
  0
VERTEX
  5
2171
  8
0
  6
CONTINUOUS
 62
     0
 10
66.741265775079285
 20
59.998279255058769
 30
0.0
  0
VERTEX
  5
2172
  8
0
  6
CONTINUOUS
 62
     0
 10
66.787524642851395
 20
60.209673562096732
 30
0.0
  0
VERTEX
  5
2173
  8
0
  6
CONTINUOUS
 62
     0
 10
66.837439343220694
 20
60.423414619139749
 30
0.0
  0
VERTEX
  5
2174
  8
0
  6
CONTINUOUS
 62
     0
 10
66.86378660691156
 20
60.531254334950397
 30
0.0
  0
VERTEX
  5
2175
  8
0
  6
CONTINUOUS
 62
     0
 10
66.891071840676773
 20
60.639788527257849
 30
0.0
  0
VERTEX
  5
2176
  8
0
  6
CONTINUOUS
 62
     0
 10
66.948494110867045
 20
60.859088192140227
 30
0.0
  0
VERTEX
  5
2177
  8
0
  6
CONTINUOUS
 62
     0
 10
67.009788462830386
 20
61.081614647001167
 30
0.0
  0
VERTEX
  5
2178
  8
0
  6
CONTINUOUS
 62
     0
 10
67.041916311736713
 20
61.194184554012729
 30
0.0
  0
SEQEND
  5
2179
  8
0
  6
CONTINUOUS
 62
     0
  0
POLYLINE
  5
1D02
  8
0
  6
CONTINUOUS
 62
     0
 66
     1
 10
0.0
 20
0.0
 30
0.0
  0
VERTEX
  5
217A
  8
0
  6
CONTINUOUS
 62
     0
 10
67.041916311736713
 20
53.688631054547614
 30
0.0
  0
VERTEX
  5
217B
  8
0
  6
CONTINUOUS
 62
     0
 10
67.009788462830386
 20
53.801200961559168
 30
0.0
  0
VERTEX
  5
217C
  8
0
  6
CONTINUOUS
 62
     0
 10
66.948494110867045
 20
54.023727416420108
 30
0.0
  0
VERTEX
  5
217D
  8
0
  6
CONTINUOUS
 62
     0
 10
66.891071840676716
 20
54.24302708130255
 30
0.0
  0
VERTEX
  5
217E
  8
0
  6
CONTINUOUS
 62
     0
 10
66.86378660691156
 20
54.351561273609938
 30
0.0
  0
VERTEX
  5
217F
  8
0
  6
CONTINUOUS
 62
     0
 10
66.837439343220694
 20
54.459400989420601
 30
0.0
  0
VERTEX
  5
2180
  8
0
  6
CONTINUOUS
 62
     0
 10
66.787524642851395
 20
54.67314204646356
 30
0.0
  0
VERTEX
  5
2181
  8
0
  6
CONTINUOUS
 62
     0
 10
66.741265775079228
 20
54.884536353501581
 30
0.0
  0
VERTEX
  5
2182
  8
0
  6
CONTINUOUS
 62
     0
 10
66.698610531831719
 20
55.0938644859703
 30
0.0
  0
VERTEX
  5
2183
  8
0
  6
CONTINUOUS
 62
     0
 10
66.659516272021278
 20
55.301402740770868
 30
0.0
  0
VERTEX
  5
2184
  8
0
  6
CONTINUOUS
 62
     0
 10
66.623949796060685
 20
55.50742436318609
 30
0.0
  0
VERTEX
  5
2185
  8
0
  6
CONTINUOUS
 62
     0
 10
66.607481667229806
 20
55.60995129177735
 30
0.0
  0
VERTEX
  5
2186
  8
0
  6
CONTINUOUS
 62
     0
 10
66.59188728376472
 20
55.712200765170678
 30
0.0
  0
VERTEX
  5
2187
  8
0
  6
CONTINUOUS
 62
     0
 10
66.563314295886471
 20
55.916002746615959
 30
0.0
  0
VERTEX
  5
2188
  8
0
  6
CONTINUOUS
 62
     0
 10
66.538225840355835
 20
56.119101731426888
 30
0.0
  0
VERTEX
  5
2189
  8
0
  6
CONTINUOUS
 62
     0
 10
66.516626505149702
 20
56.32177103068841
 30
0.0
  0
VERTEX
  5
218A
  8
0
  6
CONTINUOUS
 62
     0
 10
66.498530660633435
 20
56.524287145850217
 30
0.0
  0
VERTEX
  5
218B
  8
0
  6
CONTINUOUS
 62
     0
 10
66.483962735203136
 20
56.726931125754341
 30
0.0
  0
VERTEX
  5
218C
  8
0
  6
CONTINUOUS
 62
     0
 10
66.478012211645193
 20
56.828390485396142
 30
0.0
  0
VERTEX
  5
218D
  8
0
  6
CONTINUOUS
 62
     0
 10
66.472957569143375
 20
56.929989992480721
 30
0.0
  0
VERTEX
  5
218E
  8
0
  6
CONTINUOUS
 62
     0
 10
66.465560852827821
 20
57.133758252444693
 30
0.0
  0
VERTEX
  5
218F
  8
0
  6
CONTINUOUS
 62
     0
 10
66.461829656759221
 20
57.338539510975352
 30
0.0
  0
VERTEX
  5
2190
  8
0
  6
CONTINUOUS
 62
     0
 10
66.46135972813596
 20
57.441407804280182
 30
0.0
  0
SEQEND
  5
2191
  8
0
  6
CONTINUOUS
 62
     0
  0
LINE
  5
1D03
  8
0
  6
CONTINUOUS
 62
     0
 10
67.041916311736713
 20
53.688631054547614
 30
0.0
 11
69.880803144535207
 21
53.688631054547614
 31
0.0
  0
POLYLINE
  5
1D04
  8
0
  6
CONTINUOUS
 62
     0
 66
     1
 10
0.0
 20
0.0
 30
0.0
  0
VERTEX
  5
2192
  8
0
  6
CONTINUOUS
 62
     0
 10
70.46135972813596
 20
51.812242679681333
 30
0.0
  0
VERTEX
  5
2193
  8
0
  6
CONTINUOUS
 62
     0
 10
70.460889799512643
 20
51.760808533028921
 30
0.0
  0
VERTEX
  5
2194
  8
0
  6
CONTINUOUS
 62
     0
 10
70.457158603444043
 20
51.658417903763556
 30
0.0
  0
VERTEX
  5
2195
  8
0
  6
CONTINUOUS
 62
     0
 10
70.449761887128489
 20
51.556533773781609
 30
0.0
  0
VERTEX
  5
2196
  8
0
  6
CONTINUOUS
 62
     0
 10
70.444707244626727
 20
51.505734020239288
 30
0.0
  0
VERTEX
  5
2197
  8
0
  6
CONTINUOUS
 62
     0
 10
70.438756721068785
 20
51.455004340418391
 30
0.0
  0
VERTEX
  5
2198
  8
0
  6
CONTINUOUS
 62
     0
 10
70.424188795638486
 20
51.353682350466329
 30
0.0
  0
VERTEX
  5
2199
  8
0
  6
CONTINUOUS
 62
     0
 10
70.406092951122218
 20
51.252424292885451
 30
0.0
  0
VERTEX
  5
219A
  8
0
  6
CONTINUOUS
 62
     0
 10
70.384493615916014
 20
51.151089643254693
 30
0.0
  0
VERTEX
  5
219B
  8
0
  6
CONTINUOUS
 62
     0
 10
70.35940516038545
 20
51.049540150849218
 30
0.0
  0
VERTEX
  5
219C
  8
0
  6
CONTINUOUS
 62
     0
 10
70.330832172507144
 20
50.947639160126577
 30
0.0
  0
VERTEX
  5
219D
  8
0
  6
CONTINUOUS
 62
     0
 10
70.315237789042044
 20
50.896514423429892
 30
0.0
  0
VERTEX
  5
219E
  8
0
  6
CONTINUOUS
 62
     0
 10
70.298769660211235
 20
50.845250959134262
 30
0.0
  0
VERTEX
  5
219F
  8
0
  6
CONTINUOUS
 62
     0
 10
70.263203184250585
 20
50.74224014792668
 30
0.0
  0
VERTEX
  5
21A0
  8
0
  6
CONTINUOUS
 62
     0
 10
70.224108924440202
 20
50.638471020526367
 30
0.0
  0
VERTEX
  5
21A1
  8
0
  6
CONTINUOUS
 62
     0
 10
70.181453681192636
 20
50.533806954292011
 30
0.0
  0
VERTEX
  5
21A2
  8
0
  6
CONTINUOUS
 62
     0
 10
70.135194813420526
 20
50.428109800773029
 30
0.0
  0
VERTEX
  5
21A3
  8
0
  6
CONTINUOUS
 62
     0
 10
70.085280113051155
 20
50.321239272251539
 30
0.0
  0
VERTEX
  5
21A4
  8
0
  6
CONTINUOUS
 62
     0
 10
70.058932849360303
 20
50.267319414346218
 30
0.0
  0
VERTEX
  5
21A5
  8
0
  6
CONTINUOUS
 62
     0
 10
70.031647615595134
 20
50.213052318192517
 30
0.0
  0
VERTEX
  5
21A6
  8
0
  6
CONTINUOUS
 62
     0
 10
69.974225345404818
 20
50.103402485751303
 30
0.0
  0
VERTEX
  5
21A7
  8
0
  6
CONTINUOUS
 62
     0
 10
69.912930993441535
 20
49.99213925832084
 30
0.0
  0
VERTEX
  5
21A8
  8
0
  6
CONTINUOUS
 62
     0
 10
69.880803144535207
 20
49.935854304815052
 30
0.0
  0
SEQEND
  5
21A9
  8
0
  6
CONTINUOUS
 62
     0
  0
POLYLINE
  5
1D05
  8
0
  6
CONTINUOUS
 62
     0
 66
     1
 10
0.0
 20
0.0
 30
0.0
  0
VERTEX
  5
21AA
  8
0
  6
CONTINUOUS
 62
     0
 10
69.880803144535207
 20
53.688631054547614
 30
0.0
  0
VERTEX
  5
21AB
  8
0
  6
CONTINUOUS
 62
     0
 10
69.912930993441535
 20
53.632346101041833
 30
0.0
  0
VERTEX
  5
21AC
  8
0
  6
CONTINUOUS
 62
     0
 10
69.974225345404875
 20
53.521082873611363
 30
0.0
  0
VERTEX
  5
21AD
  8
0
  6
CONTINUOUS
 62
     0
 10
70.031647615595134
 20
53.411433041170142
 30
0.0
  0
VERTEX
  5
21AE
  8
0
  6
CONTINUOUS
 62
     0
 10
70.058932849360303
 20
53.35716594501644
 30
0.0
  0
VERTEX
  5
21AF
  8
0
  6
CONTINUOUS
 62
     0
 10
70.085280113051155
 20
53.30324608711112
 30
0.0
  0
VERTEX
  5
21B0
  8
0
  6
CONTINUOUS
 62
     0
 10
70.135194813420526
 20
53.196375558589637
 30
0.0
  0
VERTEX
  5
21B1
  8
0
  6
CONTINUOUS
 62
     0
 10
70.181453681192636
 20
53.090678405070612
 30
0.0
  0
VERTEX
  5
21B2
  8
0
  6
CONTINUOUS
 62
     0
 10
70.224108924440202
 20
52.986014338836242
 30
0.0
  0
VERTEX
  5
21B3
  8
0
  6
CONTINUOUS
 62
     0
 10
70.263203184250585
 20
52.882245211435979
 30
0.0
  0
VERTEX
  5
21B4
  8
0
  6
CONTINUOUS
 62
     0
 10
70.298769660211235
 20
52.779234400228347
 30
0.0
  0
VERTEX
  5
21B5
  8
0
  6
CONTINUOUS
 62
     0
 10
70.315237789042044
 20
52.727970935932717
 30
0.0
  0
VERTEX
  5
21B6
  8
0
  6
CONTINUOUS
 62
     0
 10
70.330832172507144
 20
52.676846199236081
 30
0.0
  0
VERTEX
  5
21B7
  8
0
  6
CONTINUOUS
 62
     0
 10
70.35940516038545
 20
52.574945208513441
 30
0.0
  0
VERTEX
  5
21B8
  8
0
  6
CONTINUOUS
 62
     0
 10
70.384493615916014
 20
52.47339571610798
 30
0.0
  0
VERTEX
  5
21B9
  8
0
  6
CONTINUOUS
 62
     0
 10
70.406092951122218
 20
52.372061066477222
 30
0.0
  0
VERTEX
  5
21BA
  8
0
  6
CONTINUOUS
 62
     0
 10
70.424188795638486
 20
52.27080300889628
 30
0.0
  0
VERTEX
  5
21BB
  8
0
  6
CONTINUOUS
 62
     0
 10
70.438756721068785
 20
52.169481018944232
 30
0.0
  0
VERTEX
  5
21BC
  8
0
  6
CONTINUOUS
 62
     0
 10
70.444707244626727
 20
52.118751339123321
 30
0.0
  0
VERTEX
  5
21BD
  8
0
  6
CONTINUOUS
 62
     0
 10
70.449761887128489
 20
52.067951585581049
 30
0.0
  0
VERTEX
  5
21BE
  8
0
  6
CONTINUOUS
 62
     0
 10
70.457158603444043
 20
51.966067455599102
 30
0.0
  0
VERTEX
  5
21BF
  8
0
  6
CONTINUOUS
 62
     0
 10
70.460889799512643
 20
51.863676826333737
 30
0.0
  0
VERTEX
  5
21C0
  8
0
  6
CONTINUOUS
 62
     0
 10
70.46135972813596
 20
51.812242679681333
 30
0.0
  0
SEQEND
  5
21C1
  8
0
  6
CONTINUOUS
 62
     0
  0
POLYLINE
  5
1D06
  8
0
  6
CONTINUOUS
 62
     0
 66
     1
 10
0.0
 20
0.0
 30
0.0
  0
VERTEX
  5
21C2
  8
0
  6
CONTINUOUS
 62
     0
 10
66.46135972813596
 20
51.812242679681333
 30
0.0
  0
VERTEX
  5
21C3
  8
0
  6
CONTINUOUS
 62
     0
 10
66.461829656759221
 20
51.863676826333737
 30
0.0
  0
VERTEX
  5
21C4
  8
0
  6
CONTINUOUS
 62
     0
 10
66.465560852827821
 20
51.966067455599102
 30
0.0
  0
VERTEX
  5
21C5
  8
0
  6
CONTINUOUS
 62
     0
 10
66.472957569143375
 20
52.067951585581049
 30
0.0
  0
VERTEX
  5
21C6
  8
0
  6
CONTINUOUS
 62
     0
 10
66.478012211645193
 20
52.118751339123321
 30
0.0
  0
VERTEX
  5
21C7
  8
0
  6
CONTINUOUS
 62
     0
 10
66.483962735203136
 20
52.169481018944232
 30
0.0
  0
VERTEX
  5
21C8
  8
0
  6
CONTINUOUS
 62
     0
 10
66.498530660633435
 20
52.27080300889628
 30
0.0
  0
VERTEX
  5
21C9
  8
0
  6
CONTINUOUS
 62
     0
 10
66.516626505149702
 20
52.372061066477222
 30
0.0
  0
VERTEX
  5
21CA
  8
0
  6
CONTINUOUS
 62
     0
 10
66.538225840355835
 20
52.47339571610798
 30
0.0
  0
VERTEX
  5
21CB
  8
0
  6
CONTINUOUS
 62
     0
 10
66.563314295886471
 20
52.574945208513441
 30
0.0
  0
VERTEX
  5
21CC
  8
0
  6
CONTINUOUS
 62
     0
 10
66.59188728376472
 20
52.676846199236081
 30
0.0
  0
VERTEX
  5
21CD
  8
0
  6
CONTINUOUS
 62
     0
 10
66.607481667229806
 20
52.727970935932717
 30
0.0
  0
VERTEX
  5
21CE
  8
0
  6
CONTINUOUS
 62
     0
 10
66.623949796060685
 20
52.779234400228347
 30
0.0
  0
VERTEX
  5
21CF
  8
0
  6
CONTINUOUS
 62
     0
 10
66.659516272021278
 20
52.882245211435979
 30
0.0
  0
VERTEX
  5
21D0
  8
0
  6
CONTINUOUS
 62
     0
 10
66.698610531831719
 20
52.986014338836242
 30
0.0
  0
VERTEX
  5
21D1
  8
0
  6
CONTINUOUS
 62
     0
 10
66.741265775079285
 20
53.090678405070612
 30
0.0
  0
VERTEX
  5
21D2
  8
0
  6
CONTINUOUS
 62
     0
 10
66.787524642851395
 20
53.196375558589637
 30
0.0
  0
VERTEX
  5
21D3
  8
0
  6
CONTINUOUS
 62
     0
 10
66.837439343220694
 20
53.30324608711112
 30
0.0
  0
VERTEX
  5
21D4
  8
0
  6
CONTINUOUS
 62
     0
 10
66.86378660691156
 20
53.35716594501644
 30
0.0
  0
VERTEX
  5
21D5
  8
0
  6
CONTINUOUS
 62
     0
 10
66.891071840676773
 20
53.411433041170142
 30
0.0
  0
VERTEX
  5
21D6
  8
0
  6
CONTINUOUS
 62
     0
 10
66.948494110867045
 20
53.521082873611363
 30
0.0
  0
VERTEX
  5
21D7
  8
0
  6
CONTINUOUS
 62
     0
 10
67.009788462830386
 20
53.632346101041833
 30
0.0
  0
VERTEX
  5
21D8
  8
0
  6
CONTINUOUS
 62
     0
 10
67.041916311736713
 20
53.688631054547614
 30
0.0
  0
SEQEND
  5
21D9
  8
0
  6
CONTINUOUS
 62
     0
  0
POLYLINE
  5
1D07
  8
0
  6
CONTINUOUS
 62
     0
 66
     1
 10
0.0
 20
0.0
 30
0.0
  0
VERTEX
  5
21DA
  8
0
  6
CONTINUOUS
 62
     0
 10
67.041916311736713
 20
49.935854304815052
 30
0.0
  0
VERTEX
  5
21DB
  8
0
  6
CONTINUOUS
 62
     0
 10
67.009788462830386
 20
49.99213925832084
 30
0.0
  0
VERTEX
  5
21DC
  8
0
  6
CONTINUOUS
 62
     0
 10
66.948494110867045
 20
50.103402485751303
 30
0.0
  0
VERTEX
  5
21DD
  8
0
  6
CONTINUOUS
 62
     0
 10
66.891071840676716
 20
50.213052318192517
 30
0.0
  0
VERTEX
  5
21DE
  8
0
  6
CONTINUOUS
 62
     0
 10
66.86378660691156
 20
50.267319414346218
 30
0.0
  0
VERTEX
  5
21DF
  8
0
  6
CONTINUOUS
 62
     0
 10
66.837439343220694
 20
50.321239272251539
 30
0.0
  0
VERTEX
  5
21E0
  8
0
  6
CONTINUOUS
 62
     0
 10
66.787524642851395
 20
50.428109800773029
 30
0.0
  0
VERTEX
  5
21E1
  8
0
  6
CONTINUOUS
 62
     0
 10
66.741265775079285
 20
50.533806954292011
 30
0.0
  0
VERTEX
  5
21E2
  8
0
  6
CONTINUOUS
 62
     0
 10
66.698610531831719
 20
50.638471020526367
 30
0.0
  0
VERTEX
  5
21E3
  8
0
  6
CONTINUOUS
 62
     0
 10
66.659516272021278
 20
50.74224014792668
 30
0.0
  0
VERTEX
  5
21E4
  8
0
  6
CONTINUOUS
 62
     0
 10
66.623949796060685
 20
50.845250959134262
 30
0.0
  0
VERTEX
  5
21E5
  8
0
  6
CONTINUOUS
 62
     0
 10
66.607481667229806
 20
50.896514423429892
 30
0.0
  0
VERTEX
  5
21E6
  8
0
  6
CONTINUOUS
 62
     0
 10
66.59188728376472
 20
50.947639160126577
 30
0.0
  0
VERTEX
  5
21E7
  8
0
  6
CONTINUOUS
 62
     0
 10
66.563314295886471
 20
51.049540150849218
 30
0.0
  0
VERTEX
  5
21E8
  8
0
  6
CONTINUOUS
 62
     0
 10
66.538225840355835
 20
51.151089643254693
 30
0.0
  0
VERTEX
  5
21E9
  8
0
  6
CONTINUOUS
 62
     0
 10
66.516626505149702
 20
51.252424292885451
 30
0.0
  0
VERTEX
  5
21EA
  8
0
  6
CONTINUOUS
 62
     0
 10
66.498530660633435
 20
51.353682350466329
 30
0.0
  0
VERTEX
  5
21EB
  8
0
  6
CONTINUOUS
 62
     0
 10
66.483962735203136
 20
51.455004340418391
 30
0.0
  0
VERTEX
  5
21EC
  8
0
  6
CONTINUOUS
 62
     0
 10
66.478012211645193
 20
51.505734020239288
 30
0.0
  0
VERTEX
  5
21ED
  8
0
  6
CONTINUOUS
 62
     0
 10
66.472957569143375
 20
51.556533773781609
 30
0.0
  0
VERTEX
  5
21EE
  8
0
  6
CONTINUOUS
 62
     0
 10
66.465560852827821
 20
51.658417903763556
 30
0.0
  0
VERTEX
  5
21EF
  8
0
  6
CONTINUOUS
 62
     0
 10
66.461829656759221
 20
51.760808533028921
 30
0.0
  0
VERTEX
  5
21F0
  8
0
  6
CONTINUOUS
 62
     0
 10
66.46135972813596
 20
51.812242679681333
 30
0.0
  0
SEQEND
  5
21F1
  8
0
  6
CONTINUOUS
 62
     0
  0
LINE
  5
1D08
  8
0
  6
CONTINUOUS
 62
     0
 10
70.46135972813596
 20
63.941407804280168
 30
0.0
 11
70.46135972813596
 21
50.941407804280168
 31
0.0
  0
LINE
  5
1D09
  8
0
  6
CONTINUOUS
 62
     0
 10
66.46135972813596
 20
63.941407804280168
 30
0.0
 11
66.46135972813596
 21
50.941407804280168
 31
0.0
  0
LINE
  5
1D0A
  8
0
  6
CONTINUOUS
 62
     0
 10
77.014777740750731
 20
63.214910496176451
 30
0.0
 11
71.46135972813596
 21
63.214910496176451
 31
0.0
  0
POLYLINE
  5
1D0B
  8
0
  6
CONTINUOUS
 62
     0
 66
     1
 10
0.0
 20
0.0
 30
0.0
  0
VERTEX
  5
21F2
  8
0
  6
CONTINUOUS
 62
     0
 10
77.46135972813596
 20
61.771534823202387
 30
0.0
  0
VERTEX
  5
21F3
  8
0
  6
CONTINUOUS
 62
     0
 10
77.461001093553136
 20
61.810943321791278
 30
0.0
  0
VERTEX
  5
21F4
  8
0
  6
CONTINUOUS
 62
     0
 10
77.458152042102142
 20
61.889422078240671
 30
0.0
  0
VERTEX
  5
21F5
  8
0
  6
CONTINUOUS
 62
     0
 10
77.452500278526884
 20
61.967548622488152
 30
0.0
  0
VERTEX
  5
21F6
  8
0
  6
CONTINUOUS
 62
     0
 10
77.448636147420871
 20
62.006515966618913
 30
0.0
  0
VERTEX
  5
21F7
  8
0
  6
CONTINUOUS
 62
     0
 10
77.444085575583074
 20
62.045438222155383
 30
0.0
  0
VERTEX
  5
21F8
  8
0
  6
CONTINUOUS
 62
     0
 10
77.432939152446053
 20
62.123202989987362
 30
0.0
  0
VERTEX
  5
21F9
  8
0
  6
CONTINUOUS
 62
     0
 10
77.419084039552047
 20
62.200952483254412
 30
0.0
  0
VERTEX
  5
21FA
  8
0
  6
CONTINUOUS
 62
     0
 10
77.402535376150922
 20
62.278794267856313
 30
0.0
  0
VERTEX
  5
21FB
  8
0
  6
CONTINUOUS
 62
     0
 10
77.383300645635074
 20
62.356834453716381
 30
0.0
  0
VERTEX
  5
21FC
  8
0
  6
CONTINUOUS
 62
     0
 10
77.361379852729954
 20
62.435178207452218
 30
0.0
  0
VERTEX
  5
21FD
  8
0
  6
CONTINUOUS
 62
     0
 10
77.349410170584576
 20
62.47449665110377
 30
0.0
  0
VERTEX
  5
21FE
  8
0
  6
CONTINUOUS
 62
     0
 10
77.336765645762057
 20
62.51393024782913
 30
0.0
  0
VERTEX
  5
21FF
  8
0
  6
CONTINUOUS
 62
     0
 10
77.309443386428256
 20
62.593195329130879
 30
0.0
  0
VERTEX
  5
2200
  8
0
  6
CONTINUOUS
 62
     0
 10
77.279391168762515
 20
62.6730787173015
 30
0.0
  0
VERTEX
  5
2201
  8
0
  6
CONTINUOUS
 62
     0
 10
77.246579788317035
 20
62.75368666352233
 30
0.0
  0
VERTEX
  5
2202
  8
0
  6
CONTINUOUS
 62
     0
 10
77.21097266192055
 20
62.835126879774741
 30
0.0
  0
VERTEX
  5
2203
  8
0
  6
CONTINUOUS
 62
     0
 10
77.17252569774746
 20
62.917509020905811
 30
0.0
  0
VERTEX
  5
2204
  8
0
  6
CONTINUOUS
 62
     0
 10
77.152221401287022
 20
62.959088232745792
 30
0.0
  0
VERTEX
  5
2205
  8
0
  6
CONTINUOUS
 62
     0
 10
77.131187114798081
 20
63.00094517775085
 30
0.0
  0
VERTEX
  5
2206
  8
0
  6
CONTINUOUS
 62
     0
 10
77.086897210253923
 20
63.085550385982458
 30
0.0
  0
VERTEX
  5
2207
  8
0
  6
CONTINUOUS
 62
     0
 10
77.039588072510526
 20
63.171443155542697
 30
0.0
  0
VERTEX
  5
2208
  8
0
  6
CONTINUOUS
 62
     0
 10
77.014777740750731
 20
63.214910496176451
 30
0.0
  0
SEQEND
  5
2209
  8
0
  6
CONTINUOUS
 62
     0
  0
POLYLINE
  5
1D0C
  8
0
  6
CONTINUOUS
 62
     0
 66
     1
 10
0.0
 20
0.0
 30
0.0
  0
VERTEX
  5
220A
  8
0
  6
CONTINUOUS
 62
     0
 10
77.014777740750731
 20
60.328159150228309
 30
0.0
  0
VERTEX
  5
220B
  8
0
  6
CONTINUOUS
 62
     0
 10
77.039588072510526
 20
60.37162649086202
 30
0.0
  0
VERTEX
  5
220C
  8
0
  6
CONTINUOUS
 62
     0
 10
77.086897210253923
 20
60.457519260422323
 30
0.0
  0
VERTEX
  5
220D
  8
0
  6
CONTINUOUS
 62
     0
 10
77.131187114798081
 20
60.542124468653867
 30
0.0
  0
VERTEX
  5
220E
  8
0
  6
CONTINUOUS
 62
     0
 10
77.152221401287022
 20
60.583981413658982
 30
0.0
  0
VERTEX
  5
220F
  8
0
  6
CONTINUOUS
 62
     0
 10
77.17252569774746
 20
60.625560625498913
 30
0.0
  0
VERTEX
  5
2210
  8
0
  6
CONTINUOUS
 62
     0
 10
77.21097266192055
 20
60.707942766629969
 30
0.0
  0
VERTEX
  5
2211
  8
0
  6
CONTINUOUS
 62
     0
 10
77.246579788316978
 20
60.789382982882387
 30
0.0
  0
VERTEX
  5
2212
  8
0
  6
CONTINUOUS
 62
     0
 10
77.279391168762515
 20
60.86999092910321
 30
0.0
  0
VERTEX
  5
2213
  8
0
  6
CONTINUOUS
 62
     0
 10
77.309443386428256
 20
60.949874317273888
 30
0.0
  0
VERTEX
  5
2214
  8
0
  6
CONTINUOUS
 62
     0
 10
77.336765645762057
 20
61.029139398575637
 30
0.0
  0
VERTEX
  5
2215
  8
0
  6
CONTINUOUS
 62
     0
 10
77.349410170584576
 20
61.06857299530094
 30
0.0
  0
VERTEX
  5
2216
  8
0
  6
CONTINUOUS
 62
     0
 10
77.361379852729954
 20
61.107891438952549
 30
0.0
  0
VERTEX
  5
2217
  8
0
  6
CONTINUOUS
 62
     0
 10
77.383300645635074
 20
61.186235192688343
 30
0.0
  0
VERTEX
  5
2218
  8
0
  6
CONTINUOUS
 62
     0
 10
77.402535376150922
 20
61.264275378548462
 30
0.0
  0
VERTEX
  5
2219
  8
0
  6
CONTINUOUS
 62
     0
 10
77.419084039552047
 20
61.342117163150299
 30
0.0
  0
VERTEX
  5
221A
  8
0
  6
CONTINUOUS
 62
     0
 10
77.432939152446053
 20
61.419866656417348
 30
0.0
  0
VERTEX
  5
221B
  8
0
  6
CONTINUOUS
 62
     0
 10
77.444085575583074
 20
61.497631424249391
 30
0.0
  0
VERTEX
  5
221C
  8
0
  6
CONTINUOUS
 62
     0
 10
77.448636147420871
 20
61.536553679785811
 30
0.0
  0
VERTEX
  5
221D
  8
0
  6
CONTINUOUS
 62
     0
 10
77.452500278526884
 20
61.575521023916558
 30
0.0
  0
VERTEX
  5
221E
  8
0
  6
CONTINUOUS
 62
     0
 10
77.458152042102142
 20
61.653647568164047
 30
0.0
  0
VERTEX
  5
221F
  8
0
  6
CONTINUOUS
 62
     0
 10
77.461001093553136
 20
61.732126324613432
 30
0.0
  0
VERTEX
  5
2220
  8
0
  6
CONTINUOUS
 62
     0
 10
77.46135972813596
 20
61.771534823202387
 30
0.0
  0
SEQEND
  5
2221
  8
0
  6
CONTINUOUS
 62
     0
  0
POLYLINE
  5
1D0D
  8
0
  6
CONTINUOUS
 62
     0
 66
     1
 10
0.0
 20
0.0
 30
0.0
  0
VERTEX
  5
2222
  8
0
  6
CONTINUOUS
 62
     0
 10
77.46135972813596
 20
53.111280785357962
 30
0.0
  0
VERTEX
  5
2223
  8
0
  6
CONTINUOUS
 62
     0
 10
77.461001093553136
 20
53.15068928394691
 30
0.0
  0
VERTEX
  5
2224
  8
0
  6
CONTINUOUS
 62
     0
 10
77.458152042102142
 20
53.229168040396303
 30
0.0
  0
VERTEX
  5
2225
  8
0
  6
CONTINUOUS
 62
     0
 10
77.452500278526884
 20
53.307294584643792
 30
0.0
  0
VERTEX
  5
2226
  8
0
  6
CONTINUOUS
 62
     0
 10
77.448636147420871
 20
53.346261928774538
 30
0.0
  0
VERTEX
  5
2227
  8
0
  6
CONTINUOUS
 62
     0
 10
77.444085575583074
 20
53.385184184310958
 30
0.0
  0
VERTEX
  5
2228
  8
0
  6
CONTINUOUS
 62
     0
 10
77.432939152446053
 20
53.462948952142987
 30
0.0
  0
VERTEX
  5
2229
  8
0
  6
CONTINUOUS
 62
     0
 10
77.419084039552047
 20
53.540698445410051
 30
0.0
  0
VERTEX
  5
222A
  8
0
  6
CONTINUOUS
 62
     0
 10
77.402535376150922
 20
53.618540230011888
 30
0.0
  0
VERTEX
  5
222B
  8
0
  6
CONTINUOUS
 62
     0
 10
77.383300645635074
 20
53.696580415871999
 30
0.0
  0
VERTEX
  5
222C
  8
0
  6
CONTINUOUS
 62
     0
 10
77.361379852729954
 20
53.7749241696078
 30
0.0
  0
VERTEX
  5
222D
  8
0
  6
CONTINUOUS
 62
     0
 10
77.349410170584576
 20
53.81424261325941
 30
0.0
  0
VERTEX
  5
222E
  8
0
  6
CONTINUOUS
 62
     0
 10
77.336765645762057
 20
53.853676209984712
 30
0.0
  0
VERTEX
  5
222F
  8
0
  6
CONTINUOUS
 62
     0
 10
77.309443386428256
 20
53.932941291286447
 30
0.0
  0
VERTEX
  5
2230
  8
0
  6
CONTINUOUS
 62
     0
 10
77.279391168762515
 20
54.01282467945714
 30
0.0
  0
VERTEX
  5
2231
  8
0
  6
CONTINUOUS
 62
     0
 10
77.246579788316978
 20
54.093432625677963
 30
0.0
  0
VERTEX
  5
2232
  8
0
  6
CONTINUOUS
 62
     0
 10
77.21097266192055
 20
54.17487284193038
 30
0.0
  0
VERTEX
  5
2233
  8
0
  6
CONTINUOUS
 62
     0
 10
77.17252569774746
 20
54.257254983061443
 30
0.0
  0
VERTEX
  5
2234
  8
0
  6
CONTINUOUS
 62
     0
 10
77.152221401287022
 20
54.29883419490136
 30
0.0
  0
VERTEX
  5
2235
  8
0
  6
CONTINUOUS
 62
     0
 10
77.131187114798081
 20
54.340691139906482
 30
0.0
  0
VERTEX
  5
2236
  8
0
  6
CONTINUOUS
 62
     0
 10
77.086897210253923
 20
54.425296348138033
 30
0.0
  0
VERTEX
  5
2237
  8
0
  6
CONTINUOUS
 62
     0
 10
77.039588072510526
 20
54.511189117698329
 30
0.0
  0
VERTEX
  5
2238
  8
0
  6
CONTINUOUS
 62
     0
 10
77.014777740750731
 20
54.55465645833204
 30
0.0
  0
SEQEND
  5
2239
  8
0
  6
CONTINUOUS
 62
     0
  0
POLYLINE
  5
1D0E
  8
0
  6
CONTINUOUS
 62
     0
 66
     1
 10
0.0
 20
0.0
 30
0.0
  0
VERTEX
  5
223A
  8
0
  6
CONTINUOUS
 62
     0
 10
77.014777740750731
 20
51.667905112383892
 30
0.0
  0
VERTEX
  5
223B
  8
0
  6
CONTINUOUS
 62
     0
 10
77.039588072510526
 20
51.711372453017589
 30
0.0
  0
VERTEX
  5
223C
  8
0
  6
CONTINUOUS
 62
     0
 10
77.086897210253923
 20
51.797265222577892
 30
0.0
  0
VERTEX
  5
223D
  8
0
  6
CONTINUOUS
 62
     0
 10
77.131187114798081
 20
51.881870430809499
 30
0.0
  0
VERTEX
  5
223E
  8
0
  6
CONTINUOUS
 62
     0
 10
77.152221401287022
 20
51.923727375814572
 30
0.0
  0
VERTEX
  5
223F
  8
0
  6
CONTINUOUS
 62
     0
 10
77.17252569774746
 20
51.965306587654531
 30
0.0
  0
VERTEX
  5
2240
  8
0
  6
CONTINUOUS
 62
     0
 10
77.21097266192055
 20
52.047688728785602
 30
0.0
  0
VERTEX
  5
2241
  8
0
  6
CONTINUOUS
 62
     0
 10
77.246579788316978
 20
52.129128945038012
 30
0.0
  0
VERTEX
  5
2242
  8
0
  6
CONTINUOUS
 62
     0
 10
77.279391168762515
 20
52.209736891258842
 30
0.0
  0
VERTEX
  5
2243
  8
0
  6
CONTINUOUS
 62
     0
 10
77.309443386428256
 20
52.289620279429471
 30
0.0
  0
VERTEX
  5
2244
  8
0
  6
CONTINUOUS
 62
     0
 10
77.336765645762057
 20
52.368885360731213
 30
0.0
  0
VERTEX
  5
2245
  8
0
  6
CONTINUOUS
 62
     0
 10
77.349410170584576
 20
52.408318957456572
 30
0.0
  0
VERTEX
  5
2246
  8
0
  6
CONTINUOUS
 62
     0
 10
77.361379852729954
 20
52.447637401108118
 30
0.0
  0
VERTEX
  5
2247
  8
0
  6
CONTINUOUS
 62
     0
 10
77.383300645635074
 20
52.525981154843969
 30
0.0
  0
VERTEX
  5
2248
  8
0
  6
CONTINUOUS
 62
     0
 10
77.402535376150922
 20
52.60402134070403
 30
0.0
  0
VERTEX
  5
2249
  8
0
  6
CONTINUOUS
 62
     0
 10
77.419084039552047
 20
52.681863125305938
 30
0.0
  0
VERTEX
  5
224A
  8
0
  6
CONTINUOUS
 62
     0
 10
77.432939152446053
 20
52.759612618572987
 30
0.0
  0
VERTEX
  5
224B
  8
0
  6
CONTINUOUS
 62
     0
 10
77.444085575583074
 20
52.83737738640496
 30
0.0
  0
VERTEX
  5
224C
  8
0
  6
CONTINUOUS
 62
     0
 10
77.448636147420871
 20
52.876299641941443
 30
0.0
  0
VERTEX
  5
224D
  8
0
  6
CONTINUOUS
 62
     0
 10
77.452500278526884
 20
52.915266986072197
 30
0.0
  0
VERTEX
  5
224E
  8
0
  6
CONTINUOUS
 62
     0
 10
77.458152042102142
 20
52.993393530319672
 30
0.0
  0
VERTEX
  5
224F
  8
0
  6
CONTINUOUS
 62
     0
 10
77.461001093553136
 20
53.071872286769057
 30
0.0
  0
VERTEX
  5
2250
  8
0
  6
CONTINUOUS
 62
     0
 10
77.46135972813596
 20
53.111280785357962
 30
0.0
  0
SEQEND
  5
2251
  8
0
  6
CONTINUOUS
 62
     0
  0
LINE
  5
1D0F
  8
0
  6
CONTINUOUS
 62
     0
 10
77.014777740750731
 20
51.667905112383892
 30
0.0
 11
71.46135972813596
 21
51.667905112383892
 31
0.0
  0
POLYLINE
  5
1D10
  8
0
  6
CONTINUOUS
 62
     0
 66
     1
 10
0.0
 20
0.0
 30
0.0
  0
VERTEX
  5
2252
  8
0
  6
CONTINUOUS
 62
     0
 10
77.46135972813596
 20
57.441407804280182
 30
0.0
  0
VERTEX
  5
2253
  8
0
  6
CONTINUOUS
 62
     0
 10
77.461001093553136
 20
57.520224801458028
 30
0.0
  0
VERTEX
  5
2254
  8
0
  6
CONTINUOUS
 62
     0
 10
77.458152042102142
 20
57.677182314356791
 30
0.0
  0
VERTEX
  5
2255
  8
0
  6
CONTINUOUS
 62
     0
 10
77.452500278526884
 20
57.833435402851762
 30
0.0
  0
VERTEX
  5
2256
  8
0
  6
CONTINUOUS
 62
     0
 10
77.448636147420871
 20
57.91137009111327
 30
0.0
  0
VERTEX
  5
2257
  8
0
  6
CONTINUOUS
 62
     0
 10
77.444085575583074
 20
57.989214602186159
 30
0.0
  0
VERTEX
  5
2258
  8
0
  6
CONTINUOUS
 62
     0
 10
77.432939152446053
 20
58.144744137850182
 30
0.0
  0
VERTEX
  5
2259
  8
0
  6
CONTINUOUS
 62
     0
 10
77.419084039552047
 20
58.300243124384281
 30
0.0
  0
VERTEX
  5
225A
  8
0
  6
CONTINUOUS
 62
     0
 10
77.402535376150922
 20
58.455926693588019
 30
0.0
  0
VERTEX
  5
225B
  8
0
  6
CONTINUOUS
 62
     0
 10
77.383300645635074
 20
58.612007065308198
 30
0.0
  0
VERTEX
  5
225C
  8
0
  6
CONTINUOUS
 62
     0
 10
77.361379852729954
 20
58.76869457277985
 30
0.0
  0
VERTEX
  5
225D
  8
0
  6
CONTINUOUS
 62
     0
 10
77.349410170584576
 20
58.847331460083012
 30
0.0
  0
VERTEX
  5
225E
  8
0
  6
CONTINUOUS
 62
     0
 10
77.336765645762057
 20
58.926198653533667
 30
0.0
  0
VERTEX
  5
225F
  8
0
  6
CONTINUOUS
 62
     0
 10
77.309443386428256
 20
59.084728816137151
 30
0.0
  0
VERTEX
  5
2260
  8
0
  6
CONTINUOUS
 62
     0
 10
77.279391168762515
 20
59.244495592478472
 30
0.0
  0
VERTEX
  5
2261
  8
0
  6
CONTINUOUS
 62
     0
 10
77.246579788316978
 20
59.405711484920111
 30
0.0
  0
VERTEX
  5
2262
  8
0
  6
CONTINUOUS
 62
     0
 10
77.21097266192055
 20
59.568591917424953
 30
0.0
  0
VERTEX
  5
2263
  8
0
  6
CONTINUOUS
 62
     0
 10
77.17252569774746
 20
59.733356199687073
 30
0.0
  0
VERTEX
  5
2264
  8
0
  6
CONTINUOUS
 62
     0
 10
77.152221401287022
 20
59.81651462336697
 30
0.0
  0
VERTEX
  5
2265
  8
0
  6
CONTINUOUS
 62
     0
 10
77.131187114798081
 20
59.900228513377158
 30
0.0
  0
VERTEX
  5
2266
  8
0
  6
CONTINUOUS
 62
     0
 10
77.086897210253923
 20
60.069438929840317
 30
0.0
  0
VERTEX
  5
2267
  8
0
  6
CONTINUOUS
 62
     0
 10
77.039588072510526
 20
60.241224468960922
 30
0.0
  0
VERTEX
  5
2268
  8
0
  6
CONTINUOUS
 62
     0
 10
77.014777740750731
 20
60.328159150228309
 30
0.0
  0
SEQEND
  5
2269
  8
0
  6
CONTINUOUS
 62
     0
  0
POLYLINE
  5
1D11
  8
0
  6
CONTINUOUS
 62
     0
 66
     1
 10
0.0
 20
0.0
 30
0.0
  0
VERTEX
  5
226A
  8
0
  6
CONTINUOUS
 62
     0
 10
77.014777740750731
 20
54.55465645833204
 30
0.0
  0
VERTEX
  5
226B
  8
0
  6
CONTINUOUS
 62
     0
 10
77.039588072510526
 20
54.641591139599427
 30
0.0
  0
VERTEX
  5
226C
  8
0
  6
CONTINUOUS
 62
     0
 10
77.086897210253923
 20
54.813376678720033
 30
0.0
  0
VERTEX
  5
226D
  8
0
  6
CONTINUOUS
 62
     0
 10
77.131187114798081
 20
54.982587095183192
 30
0.0
  0
VERTEX
  5
226E
  8
0
  6
CONTINUOUS
 62
     0
 10
77.152221401287022
 20
55.066300985193372
 30
0.0
  0
VERTEX
  5
226F
  8
0
  6
CONTINUOUS
 62
     0
 10
77.17252569774746
 20
55.14945940887327
 30
0.0
  0
VERTEX
  5
2270
  8
0
  6
CONTINUOUS
 62
     0
 10
77.21097266192055
 20
55.314223691135389
 30
0.0
  0
VERTEX
  5
2271
  8
0
  6
CONTINUOUS
 62
     0
 10
77.246579788316978
 20
55.477104123640231
 30
0.0
  0
VERTEX
  5
2272
  8
0
  6
CONTINUOUS
 62
     0
 10
77.279391168762515
 20
55.63832001608187
 30
0.0
  0
VERTEX
  5
2273
  8
0
  6
CONTINUOUS
 62
     0
 10
77.309443386428256
 20
55.798086792423192
 30
0.0
  0
VERTEX
  5
2274
  8
0
  6
CONTINUOUS
 62
     0
 10
77.336765645762057
 20
55.956616955026668
 30
0.0
  0
VERTEX
  5
2275
  8
0
  6
CONTINUOUS
 62
     0
 10
77.349410170584576
 20
56.03548414847733
 30
0.0
  0
VERTEX
  5
2276
  8
0
  6
CONTINUOUS
 62
     0
 10
77.361379852729954
 20
56.114121035780499
 30
0.0
  0
VERTEX
  5
2277
  8
0
  6
CONTINUOUS
 62
     0
 10
77.383300645635074
 20
56.270808543252137
 30
0.0
  0
VERTEX
  5
2278
  8
0
  6
CONTINUOUS
 62
     0
 10
77.402535376150922
 20
56.426888914972331
 30
0.0
  0
VERTEX
  5
2279
  8
0
  6
CONTINUOUS
 62
     0
 10
77.419084039552047
 20
56.582572484176069
 30
0.0
  0
VERTEX
  5
227A
  8
0
  6
CONTINUOUS
 62
     0
 10
77.432939152446053
 20
56.73807147071016
 30
0.0
  0
VERTEX
  5
227B
  8
0
  6
CONTINUOUS
 62
     0
 10
77.444085575583074
 20
56.89360100637419
 30
0.0
  0
VERTEX
  5
227C
  8
0
  6
CONTINUOUS
 62
     0
 10
77.448636147420871
 20
56.97144551744708
 30
0.0
  0
VERTEX
  5
227D
  8
0
  6
CONTINUOUS
 62
     0
 10
77.452500278526884
 20
57.049380205708587
 30
0.0
  0
VERTEX
  5
227E
  8
0
  6
CONTINUOUS
 62
     0
 10
77.458152042102142
 20
57.205633294203551
 30
0.0
  0
VERTEX
  5
227F
  8
0
  6
CONTINUOUS
 62
     0
 10
77.461001093553136
 20
57.362590807102322
 30
0.0
  0
VERTEX
  5
2280
  8
0
  6
CONTINUOUS
 62
     0
 10
77.46135972813596
 20
57.441407804280182
 30
0.0
  0
SEQEND
  5
2281
  8
0
  6
CONTINUOUS
 62
     0
  0
LINE
  5
1D12
  8
0
  6
CONTINUOUS
 62
     0
 10
71.46135972813596
 20
51.667905112383892
 30
0.0
 11
71.46135972813596
 21
63.214910496176451
 31
0.0
  0
POLYLINE
  5
1D13
  8
0
  6
CONTINUOUS
 62
     0
 66
     1
 10
0.0
 20
0.0
 30
0.0
  0
VERTEX
  5
2282
  8
0
  6
CONTINUOUS
 62
     0
 10
77.46135972813596
 20
53.111280785357962
 30
0.0
  0
VERTEX
  5
2283
  8
0
  6
CONTINUOUS
 62
     0
 10
77.461001093553136
 20
53.071872286769057
 30
0.0
  0
VERTEX
  5
2284
  8
0
  6
CONTINUOUS
 62
     0
 10
77.458152042102142
 20
52.993393530319672
 30
0.0
  0
VERTEX
  5
2285
  8
0
  6
CONTINUOUS
 62
     0
 10
77.452500278526884
 20
52.915266986072197
 30
0.0
  0
VERTEX
  5
2286
  8
0
  6
CONTINUOUS
 62
     0
 10
77.448636147420871
 20
52.876299641941443
 30
0.0
  0
VERTEX
  5
2287
  8
0
  6
CONTINUOUS
 62
     0
 10
77.444085575583074
 20
52.83737738640496
 30
0.0
  0
VERTEX
  5
2288
  8
0
  6
CONTINUOUS
 62
     0
 10
77.432939152446053
 20
52.759612618572987
 30
0.0
  0
VERTEX
  5
2289
  8
0
  6
CONTINUOUS
 62
     0
 10
77.419084039552047
 20
52.681863125305938
 30
0.0
  0
VERTEX
  5
228A
  8
0
  6
CONTINUOUS
 62
     0
 10
77.402535376150922
 20
52.60402134070403
 30
0.0
  0
VERTEX
  5
228B
  8
0
  6
CONTINUOUS
 62
     0
 10
77.383300645635074
 20
52.525981154843969
 30
0.0
  0
VERTEX
  5
228C
  8
0
  6
CONTINUOUS
 62
     0
 10
77.361379852729954
 20
52.447637401108118
 30
0.0
  0
VERTEX
  5
228D
  8
0
  6
CONTINUOUS
 62
     0
 10
77.349410170584576
 20
52.408318957456572
 30
0.0
  0
VERTEX
  5
228E
  8
0
  6
CONTINUOUS
 62
     0
 10
77.336765645762057
 20
52.368885360731213
 30
0.0
  0
VERTEX
  5
228F
  8
0
  6
CONTINUOUS
 62
     0
 10
77.309443386428256
 20
52.289620279429471
 30
0.0
  0
VERTEX
  5
2290
  8
0
  6
CONTINUOUS
 62
     0
 10
77.279391168762515
 20
52.209736891258842
 30
0.0
  0
VERTEX
  5
2291
  8
0
  6
CONTINUOUS
 62
     0
 10
77.246579788316978
 20
52.129128945038012
 30
0.0
  0
VERTEX
  5
2292
  8
0
  6
CONTINUOUS
 62
     0
 10
77.21097266192055
 20
52.047688728785602
 30
0.0
  0
VERTEX
  5
2293
  8
0
  6
CONTINUOUS
 62
     0
 10
77.17252569774746
 20
51.965306587654531
 30
0.0
  0
VERTEX
  5
2294
  8
0
  6
CONTINUOUS
 62
     0
 10
77.152221401287022
 20
51.923727375814572
 30
0.0
  0
VERTEX
  5
2295
  8
0
  6
CONTINUOUS
 62
     0
 10
77.131187114798081
 20
51.881870430809499
 30
0.0
  0
VERTEX
  5
2296
  8
0
  6
CONTINUOUS
 62
     0
 10
77.086897210253923
 20
51.797265222577892
 30
0.0
  0
VERTEX
  5
2297
  8
0
  6
CONTINUOUS
 62
     0
 10
77.039588072510526
 20
51.711372453017589
 30
0.0
  0
VERTEX
  5
2298
  8
0
  6
CONTINUOUS
 62
     0
 10
77.014777740750731
 20
51.667905112383892
 30
0.0
  0
SEQEND
  5
2299
  8
0
  6
CONTINUOUS
 62
     0
  0
POLYLINE
  5
1D14
  8
0
  6
CONTINUOUS
 62
     0
 66
     1
 10
0.0
 20
0.0
 30
0.0
  0
VERTEX
  5
229A
  8
0
  6
CONTINUOUS
 62
     0
 10
77.014777740750731
 20
54.55465645833204
 30
0.0
  0
VERTEX
  5
229B
  8
0
  6
CONTINUOUS
 62
     0
 10
77.039588072510526
 20
54.511189117698329
 30
0.0
  0
VERTEX
  5
229C
  8
0
  6
CONTINUOUS
 62
     0
 10
77.086897210253923
 20
54.425296348138033
 30
0.0
  0
VERTEX
  5
229D
  8
0
  6
CONTINUOUS
 62
     0
 10
77.131187114798081
 20
54.340691139906482
 30
0.0
  0
VERTEX
  5
229E
  8
0
  6
CONTINUOUS
 62
     0
 10
77.152221401287022
 20
54.29883419490136
 30
0.0
  0
VERTEX
  5
229F
  8
0
  6
CONTINUOUS
 62
     0
 10
77.17252569774746
 20
54.257254983061443
 30
0.0
  0
VERTEX
  5
22A0
  8
0
  6
CONTINUOUS
 62
     0
 10
77.21097266192055
 20
54.17487284193038
 30
0.0
  0
VERTEX
  5
22A1
  8
0
  6
CONTINUOUS
 62
     0
 10
77.246579788317035
 20
54.093432625677963
 30
0.0
  0
VERTEX
  5
22A2
  8
0
  6
CONTINUOUS
 62
     0
 10
77.279391168762515
 20
54.01282467945714
 30
0.0
  0
VERTEX
  5
22A3
  8
0
  6
CONTINUOUS
 62
     0
 10
77.309443386428256
 20
53.932941291286511
 30
0.0
  0
VERTEX
  5
22A4
  8
0
  6
CONTINUOUS
 62
     0
 10
77.336765645762057
 20
53.853676209984712
 30
0.0
  0
VERTEX
  5
22A5
  8
0
  6
CONTINUOUS
 62
     0
 10
77.349410170584576
 20
53.81424261325941
 30
0.0
  0
VERTEX
  5
22A6
  8
0
  6
CONTINUOUS
 62
     0
 10
77.361379852729954
 20
53.7749241696078
 30
0.0
  0
VERTEX
  5
22A7
  8
0
  6
CONTINUOUS
 62
     0
 10
77.383300645635074
 20
53.696580415871999
 30
0.0
  0
VERTEX
  5
22A8
  8
0
  6
CONTINUOUS
 62
     0
 10
77.402535376150922
 20
53.618540230011938
 30
0.0
  0
VERTEX
  5
22A9
  8
0
  6
CONTINUOUS
 62
     0
 10
77.419084039552047
 20
53.540698445410051
 30
0.0
  0
VERTEX
  5
22AA
  8
0
  6
CONTINUOUS
 62
     0
 10
77.432939152446053
 20
53.462948952142987
 30
0.0
  0
VERTEX
  5
22AB
  8
0
  6
CONTINUOUS
 62
     0
 10
77.444085575583074
 20
53.385184184310958
 30
0.0
  0
VERTEX
  5
22AC
  8
0
  6
CONTINUOUS
 62
     0
 10
77.448636147420871
 20
53.346261928774538
 30
0.0
  0
VERTEX
  5
22AD
  8
0
  6
CONTINUOUS
 62
     0
 10
77.452500278526884
 20
53.307294584643792
 30
0.0
  0
VERTEX
  5
22AE
  8
0
  6
CONTINUOUS
 62
     0
 10
77.458152042102142
 20
53.229168040396303
 30
0.0
  0
VERTEX
  5
22AF
  8
0
  6
CONTINUOUS
 62
     0
 10
77.461001093553136
 20
53.15068928394691
 30
0.0
  0
VERTEX
  5
22B0
  8
0
  6
CONTINUOUS
 62
     0
 10
77.46135972813596
 20
53.111280785357962
 30
0.0
  0
SEQEND
  5
22B1
  8
0
  6
CONTINUOUS
 62
     0
  0
LINE
  5
1D15
  8
0
  6
CONTINUOUS
 62
     0
 10
77.014777740750731
 20
54.55465645833204
 30
0.0
 11
71.46135972813596
 21
54.55465645833204
 31
0.0
  0
POLYLINE
  5
1D16
  8
0
  6
CONTINUOUS
 62
     0
 66
     1
 10
0.0
 20
0.0
 30
0.0
  0
VERTEX
  5
22B2
  8
0
  6
CONTINUOUS
 62
     0
 10
77.46135972813596
 20
57.441407804280182
 30
0.0
  0
VERTEX
  5
22B3
  8
0
  6
CONTINUOUS
 62
     0
 10
77.461001093553136
 20
57.362590807102322
 30
0.0
  0
VERTEX
  5
22B4
  8
0
  6
CONTINUOUS
 62
     0
 10
77.458152042102142
 20
57.205633294203551
 30
0.0
  0
VERTEX
  5
22B5
  8
0
  6
CONTINUOUS
 62
     0
 10
77.452500278526884
 20
57.049380205708587
 30
0.0
  0
VERTEX
  5
22B6
  8
0
  6
CONTINUOUS
 62
     0
 10
77.448636147420871
 20
56.97144551744708
 30
0.0
  0
VERTEX
  5
22B7
  8
0
  6
CONTINUOUS
 62
     0
 10
77.444085575583074
 20
56.89360100637419
 30
0.0
  0
VERTEX
  5
22B8
  8
0
  6
CONTINUOUS
 62
     0
 10
77.432939152446053
 20
56.73807147071016
 30
0.0
  0
VERTEX
  5
22B9
  8
0
  6
CONTINUOUS
 62
     0
 10
77.419084039552047
 20
56.582572484176069
 30
0.0
  0
VERTEX
  5
22BA
  8
0
  6
CONTINUOUS
 62
     0
 10
77.402535376150922
 20
56.426888914972331
 30
0.0
  0
VERTEX
  5
22BB
  8
0
  6
CONTINUOUS
 62
     0
 10
77.383300645635074
 20
56.270808543252087
 30
0.0
  0
VERTEX
  5
22BC
  8
0
  6
CONTINUOUS
 62
     0
 10
77.361379852729954
 20
56.114121035780499
 30
0.0
  0
VERTEX
  5
22BD
  8
0
  6
CONTINUOUS
 62
     0
 10
77.349410170584576
 20
56.03548414847733
 30
0.0
  0
VERTEX
  5
22BE
  8
0
  6
CONTINUOUS
 62
     0
 10
77.336765645762057
 20
55.956616955026668
 30
0.0
  0
VERTEX
  5
22BF
  8
0
  6
CONTINUOUS
 62
     0
 10
77.309443386428256
 20
55.798086792423192
 30
0.0
  0
VERTEX
  5
22C0
  8
0
  6
CONTINUOUS
 62
     0
 10
77.279391168762515
 20
55.63832001608187
 30
0.0
  0
VERTEX
  5
22C1
  8
0
  6
CONTINUOUS
 62
     0
 10
77.246579788317035
 20
55.477104123640231
 30
0.0
  0
VERTEX
  5
22C2
  8
0
  6
CONTINUOUS
 62
     0
 10
77.21097266192055
 20
55.314223691135389
 30
0.0
  0
VERTEX
  5
22C3
  8
0
  6
CONTINUOUS
 62
     0
 10
77.17252569774746
 20
55.14945940887327
 30
0.0
  0
VERTEX
  5
22C4
  8
0
  6
CONTINUOUS
 62
     0
 10
77.152221401287022
 20
55.066300985193372
 30
0.0
  0
VERTEX
  5
22C5
  8
0
  6
CONTINUOUS
 62
     0
 10
77.131187114798081
 20
54.982587095183192
 30
0.0
  0
VERTEX
  5
22C6
  8
0
  6
CONTINUOUS
 62
     0
 10
77.086897210253923
 20
54.813376678720033
 30
0.0
  0
VERTEX
  5
22C7
  8
0
  6
CONTINUOUS
 62
     0
 10
77.039588072510526
 20
54.641591139599427
 30
0.0
  0
VERTEX
  5
22C8
  8
0
  6
CONTINUOUS
 62
     0
 10
77.014777740750731
 20
54.55465645833204
 30
0.0
  0
SEQEND
  5
22C9
  8
0
  6
CONTINUOUS
 62
     0
  0
POLYLINE
  5
1D17
  8
0
  6
CONTINUOUS
 62
     0
 66
     1
 10
0.0
 20
0.0
 30
0.0
  0
VERTEX
  5
22CA
  8
0
  6
CONTINUOUS
 62
     0
 10
77.014777740750731
 20
60.328159150228309
 30
0.0
  0
VERTEX
  5
22CB
  8
0
  6
CONTINUOUS
 62
     0
 10
77.039588072510526
 20
60.241224468960922
 30
0.0
  0
VERTEX
  5
22CC
  8
0
  6
CONTINUOUS
 62
     0
 10
77.086897210253923
 20
60.069438929840317
 30
0.0
  0
VERTEX
  5
22CD
  8
0
  6
CONTINUOUS
 62
     0
 10
77.131187114798081
 20
59.900228513377158
 30
0.0
  0
VERTEX
  5
22CE
  8
0
  6
CONTINUOUS
 62
     0
 10
77.152221401287022
 20
59.81651462336697
 30
0.0
  0
VERTEX
  5
22CF
  8
0
  6
CONTINUOUS
 62
     0
 10
77.17252569774746
 20
59.733356199687073
 30
0.0
  0
VERTEX
  5
22D0
  8
0
  6
CONTINUOUS
 62
     0
 10
77.21097266192055
 20
59.568591917424953
 30
0.0
  0
VERTEX
  5
22D1
  8
0
  6
CONTINUOUS
 62
     0
 10
77.246579788317035
 20
59.405711484920111
 30
0.0
  0
VERTEX
  5
22D2
  8
0
  6
CONTINUOUS
 62
     0
 10
77.279391168762515
 20
59.244495592478472
 30
0.0
  0
VERTEX
  5
22D3
  8
0
  6
CONTINUOUS
 62
     0
 10
77.309443386428256
 20
59.084728816137151
 30
0.0
  0
VERTEX
  5
22D4
  8
0
  6
CONTINUOUS
 62
     0
 10
77.336765645762057
 20
58.926198653533667
 30
0.0
  0
VERTEX
  5
22D5
  8
0
  6
CONTINUOUS
 62
     0
 10
77.349410170584576
 20
58.847331460083012
 30
0.0
  0
VERTEX
  5
22D6
  8
0
  6
CONTINUOUS
 62
     0
 10
77.361379852729954
 20
58.76869457277985
 30
0.0
  0
VERTEX
  5
22D7
  8
0
  6
CONTINUOUS
 62
     0
 10
77.383300645635074
 20
58.612007065308262
 30
0.0
  0
VERTEX
  5
22D8
  8
0
  6
CONTINUOUS
 62
     0
 10
77.402535376150922
 20
58.455926693588019
 30
0.0
  0
VERTEX
  5
22D9
  8
0
  6
CONTINUOUS
 62
     0
 10
77.419084039552047
 20
58.300243124384281
 30
0.0
  0
VERTEX
  5
22DA
  8
0
  6
CONTINUOUS
 62
     0
 10
77.432939152446053
 20
58.144744137850182
 30
0.0
  0
VERTEX
  5
22DB
  8
0
  6
CONTINUOUS
 62
     0
 10
77.444085575583074
 20
57.989214602186159
 30
0.0
  0
VERTEX
  5
22DC
  8
0
  6
CONTINUOUS
 62
     0
 10
77.448636147420871
 20
57.91137009111327
 30
0.0
  0
VERTEX
  5
22DD
  8
0
  6
CONTINUOUS
 62
     0
 10
77.452500278526884
 20
57.833435402851762
 30
0.0
  0
VERTEX
  5
22DE
  8
0
  6
CONTINUOUS
 62
     0
 10
77.458152042102142
 20
57.677182314356791
 30
0.0
  0
VERTEX
  5
22DF
  8
0
  6
CONTINUOUS
 62
     0
 10
77.461001093553136
 20
57.520224801458028
 30
0.0
  0
VERTEX
  5
22E0
  8
0
  6
CONTINUOUS
 62
     0
 10
77.46135972813596
 20
57.441407804280182
 30
0.0
  0
SEQEND
  5
22E1
  8
0
  6
CONTINUOUS
 62
     0
  0
LINE
  5
1D18
  8
0
  6
CONTINUOUS
 62
     0
 10
77.014777740750731
 20
60.328159150228309
 30
0.0
 11
71.46135972813596
 21
60.328159150228309
 31
0.0
  0
POLYLINE
  5
1D19
  8
0
  6
CONTINUOUS
 62
     0
 66
     1
 10
0.0
 20
0.0
 30
0.0
  0
VERTEX
  5
22E2
  8
0
  6
CONTINUOUS
 62
     0
 10
77.46135972813596
 20
61.771534823202387
 30
0.0
  0
VERTEX
  5
22E3
  8
0
  6
CONTINUOUS
 62
     0
 10
77.461001093553136
 20
61.732126324613432
 30
0.0
  0
VERTEX
  5
22E4
  8
0
  6
CONTINUOUS
 62
     0
 10
77.458152042102142
 20
61.653647568164047
 30
0.0
  0
VERTEX
  5
22E5
  8
0
  6
CONTINUOUS
 62
     0
 10
77.452500278526884
 20
61.575521023916558
 30
0.0
  0
VERTEX
  5
22E6
  8
0
  6
CONTINUOUS
 62
     0
 10
77.448636147420871
 20
61.536553679785811
 30
0.0
  0
VERTEX
  5
22E7
  8
0
  6
CONTINUOUS
 62
     0
 10
77.444085575583074
 20
61.497631424249391
 30
0.0
  0
VERTEX
  5
22E8
  8
0
  6
CONTINUOUS
 62
     0
 10
77.432939152446053
 20
61.419866656417348
 30
0.0
  0
VERTEX
  5
22E9
  8
0
  6
CONTINUOUS
 62
     0
 10
77.419084039552047
 20
61.342117163150299
 30
0.0
  0
VERTEX
  5
22EA
  8
0
  6
CONTINUOUS
 62
     0
 10
77.402535376150922
 20
61.264275378548412
 30
0.0
  0
VERTEX
  5
22EB
  8
0
  6
CONTINUOUS
 62
     0
 10
77.383300645635074
 20
61.186235192688343
 30
0.0
  0
VERTEX
  5
22EC
  8
0
  6
CONTINUOUS
 62
     0
 10
77.361379852729954
 20
61.107891438952549
 30
0.0
  0
VERTEX
  5
22ED
  8
0
  6
CONTINUOUS
 62
     0
 10
77.349410170584576
 20
61.06857299530094
 30
0.0
  0
VERTEX
  5
22EE
  8
0
  6
CONTINUOUS
 62
     0
 10
77.336765645762057
 20
61.029139398575637
 30
0.0
  0
VERTEX
  5
22EF
  8
0
  6
CONTINUOUS
 62
     0
 10
77.309443386428256
 20
60.949874317273839
 30
0.0
  0
VERTEX
  5
22F0
  8
0
  6
CONTINUOUS
 62
     0
 10
77.279391168762515
 20
60.86999092910321
 30
0.0
  0
VERTEX
  5
22F1
  8
0
  6
CONTINUOUS
 62
     0
 10
77.246579788317035
 20
60.789382982882387
 30
0.0
  0
VERTEX
  5
22F2
  8
0
  6
CONTINUOUS
 62
     0
 10
77.21097266192055
 20
60.707942766629969
 30
0.0
  0
VERTEX
  5
22F3
  8
0
  6
CONTINUOUS
 62
     0
 10
77.17252569774746
 20
60.625560625498913
 30
0.0
  0
VERTEX
  5
22F4
  8
0
  6
CONTINUOUS
 62
     0
 10
77.152221401287022
 20
60.583981413658982
 30
0.0
  0
VERTEX
  5
22F5
  8
0
  6
CONTINUOUS
 62
     0
 10
77.131187114798081
 20
60.542124468653867
 30
0.0
  0
VERTEX
  5
22F6
  8
0
  6
CONTINUOUS
 62
     0
 10
77.086897210253923
 20
60.457519260422323
 30
0.0
  0
VERTEX
  5
22F7
  8
0
  6
CONTINUOUS
 62
     0
 10
77.039588072510526
 20
60.37162649086202
 30
0.0
  0
VERTEX
  5
22F8
  8
0
  6
CONTINUOUS
 62
     0
 10
77.014777740750731
 20
60.328159150228309
 30
0.0
  0
SEQEND
  5
22F9
  8
0
  6
CONTINUOUS
 62
     0
  0
POLYLINE
  5
1D1A
  8
0
  6
CONTINUOUS
 62
     0
 66
     1
 10
0.0
 20
0.0
 30
0.0
  0
VERTEX
  5
22FA
  8
0
  6
CONTINUOUS
 62
     0
 10
77.014777740750731
 20
63.214910496176451
 30
0.0
  0
VERTEX
  5
22FB
  8
0
  6
CONTINUOUS
 62
     0
 10
77.039588072510526
 20
63.171443155542697
 30
0.0
  0
VERTEX
  5
22FC
  8
0
  6
CONTINUOUS
 62
     0
 10
77.086897210253923
 20
63.085550385982458
 30
0.0
  0
VERTEX
  5
22FD
  8
0
  6
CONTINUOUS
 62
     0
 10
77.131187114798081
 20
63.00094517775085
 30
0.0
  0
VERTEX
  5
22FE
  8
0
  6
CONTINUOUS
 62
     0
 10
77.152221401287022
 20
62.959088232745792
 30
0.0
  0
VERTEX
  5
22FF
  8
0
  6
CONTINUOUS
 62
     0
 10
77.17252569774746
 20
62.917509020905811
 30
0.0
  0
VERTEX
  5
2300
  8
0
  6
CONTINUOUS
 62
     0
 10
77.21097266192055
 20
62.835126879774741
 30
0.0
  0
VERTEX
  5
2301
  8
0
  6
CONTINUOUS
 62
     0
 10
77.246579788317035
 20
62.75368666352233
 30
0.0
  0
VERTEX
  5
2302
  8
0
  6
CONTINUOUS
 62
     0
 10
77.279391168762515
 20
62.6730787173015
 30
0.0
  0
VERTEX
  5
2303
  8
0
  6
CONTINUOUS
 62
     0
 10
77.309443386428256
 20
62.593195329130879
 30
0.0
  0
VERTEX
  5
2304
  8
0
  6
CONTINUOUS
 62
     0
 10
77.336765645762057
 20
62.51393024782913
 30
0.0
  0
VERTEX
  5
2305
  8
0
  6
CONTINUOUS
 62
     0
 10
77.349410170584576
 20
62.47449665110377
 30
0.0
  0
VERTEX
  5
2306
  8
0
  6
CONTINUOUS
 62
     0
 10
77.361379852729954
 20
62.435178207452218
 30
0.0
  0
VERTEX
  5
2307
  8
0
  6
CONTINUOUS
 62
     0
 10
77.383300645635074
 20
62.356834453716381
 30
0.0
  0
VERTEX
  5
2308
  8
0
  6
CONTINUOUS
 62
     0
 10
77.402535376150922
 20
62.278794267856313
 30
0.0
  0
VERTEX
  5
2309
  8
0
  6
CONTINUOUS
 62
     0
 10
77.419084039552047
 20
62.200952483254412
 30
0.0
  0
VERTEX
  5
230A
  8
0
  6
CONTINUOUS
 62
     0
 10
77.432939152446053
 20
62.123202989987362
 30
0.0
  0
VERTEX
  5
230B
  8
0
  6
CONTINUOUS
 62
     0
 10
77.444085575583074
 20
62.045438222155383
 30
0.0
  0
VERTEX
  5
230C
  8
0
  6
CONTINUOUS
 62
     0
 10
77.448636147420871
 20
62.006515966618913
 30
0.0
  0
VERTEX
  5
230D
  8
0
  6
CONTINUOUS
 62
     0
 10
77.452500278526884
 20
61.967548622488152
 30
0.0
  0
VERTEX
  5
230E
  8
0
  6
CONTINUOUS
 62
     0
 10
77.458152042102142
 20
61.889422078240671
 30
0.0
  0
VERTEX
  5
230F
  8
0
  6
CONTINUOUS
 62
     0
 10
77.461001093553136
 20
61.810943321791278
 30
0.0
  0
VERTEX
  5
2310
  8
0
  6
CONTINUOUS
 62
     0
 10
77.46135972813596
 20
61.771534823202387
 30
0.0
  0
SEQEND
  5
2311
  8
0
  6
CONTINUOUS
 62
     0
  0
LINE
  5
1D1B
  8
0
  6
CONTINUOUS
 62
     0
 10
77.46135972813596
 20
62.441407804280182
 30
0.0
 11
77.46135972813596
 21
52.441407804280182
 31
0.0
  0
LINE
  5
1D1C
  8
0
  6
CONTINUOUS
 62
     0
 10
65.46135972813596
 20
60.827907804280187
 30
0.0
 11
65.46135972813596
 21
54.054907804280163
 31
0.0
  0
LINE
  5
1D1D
  8
0
  6
CONTINUOUS
 62
     0
 10
66.074859728135948
 20
61.441407804280168
 30
0.0
 11
66.074859728135948
 21
53.441407804280168
 31
0.0
  0
LINE
  5
1D20
  8
0
  6
CONTINUOUS
 62
     0
 10
77.814913118729237
 20
62.441407804280182
 30
0.0
 11
77.814913118729237
 21
52.441407804280182
 31
0.0
  0
LINE
  5
1D21
  8
0
  6
CONTINUOUS
 62
     0
 10
84.061359728135926
 20
62.441407804280182
 30
0.0
 11
84.061359728135926
 21
52.441407804280182
 31
0.0
  0
LINE
  5
1D22
  8
0
  6
CONTINUOUS
 62
     0
 10
89.566887410020627
 20
66.441407804280175
 30
0.0
 11
89.566887410020627
 21
48.441407804280168
 31
0.0
  0
LINE
  5
1D23
  8
0
  6
CONTINUOUS
 62
     0
 10
89.961359728135946
 20
66.441407804280175
 30
0.0
 11
89.961359728135946
 21
48.441407804280168
 31
0.0
  0
LINE
  5
1D24
  8
0
  6
CONTINUOUS
 62
     0
 10
90.961359728135974
 20
65.441407804280175
 30
0.0
 11
90.961359728135974
 21
49.441407804280182
 31
0.0
  0
LINE
  5
1D25
  8
0
  6
CONTINUOUS
 62
     0
 10
69.88080314453515
 20
49.935854304815052
 30
0.0
 11
70.46135972813596
 21
50.941407804280168
 31
0.0
  0
LINE
  5
1D26
  8
0
  6
CONTINUOUS
 62
     0
 10
70.46135972813596
 20
63.941407804280168
 30
0.0
 11
69.88080314453515
 21
64.946961303745297
 31
0.0
  0
LINE
  5
1D27
  8
0
  6
CONTINUOUS
 62
     0
 10
66.46135972813596
 20
50.941407804280168
 30
0.0
 11
67.041916311736713
 21
49.935854304815052
 31
0.0
  0
LINE
  5
1D28
  8
0
  6
CONTINUOUS
 62
     0
 10
67.041916311736713
 20
64.946961303745297
 30
0.0
 11
66.46135972813596
 21
63.941407804280168
 31
0.0
  0
LINE
  5
1D29
  8
0
  6
CONTINUOUS
 62
     0
 10
71.061359728135955
 20
61.441407804280168
 30
0.0
 11
70.46135972813596
 21
61.441407804280168
 31
0.0
  0
LINE
  5
1D2A
  8
0
  6
CONTINUOUS
 62
     0
 10
70.46135972813596
 20
53.441407804280168
 30
0.0
 11
71.061359728135955
 21
53.441407804280168
 31
0.0
  0
LINE
  5
1D2B
  8
0
  6
CONTINUOUS
 62
     0
 10
77.46135972813596
 20
62.441407804280182
 30
0.0
 11
77.014777740750731
 21
63.214910496176451
 31
0.0
  0
LINE
  5
1D2C
  8
0
  6
CONTINUOUS
 62
     0
 10
77.014777740750731
 20
51.667905112383892
 30
0.0
 11
77.46135972813596
 21
52.441407804280182
 31
0.0
  0
LINE
  5
1D2D
  8
0
  6
CONTINUOUS
 62
     0
 10
66.074859728135948
 20
61.441407804280168
 30
0.0
 11
65.46135972813596
 21
60.827907804280187
 31
0.0
  0
LINE
  5
1D2E
  8
0
  6
CONTINUOUS
 62
     0
 10
65.46135972813596
 20
54.054907804280163
 30
0.0
 11
66.074859728135948
 21
53.441407804280168
 31
0.0
  0
LINE
  5
1D2F
  8
0
  6
CONTINUOUS
 62
     0
 10
66.46135972813596
 20
61.441407804280168
 30
0.0
 11
66.074859728135948
 21
61.441407804280168
 31
0.0
  0
LINE
  5
1D30
  8
0
  6
CONTINUOUS
 62
     0
 10
66.074859728135948
 20
53.441407804280168
 30
0.0
 11
66.46135972813596
 21
53.441407804280168
 31
0.0
  0
LINE
  5
1D35
  8
0
  6
CONTINUOUS
 62
     0
 10
77.814913118729237
 20
62.441407804280182
 30
0.0
 11
77.462906021222565
 21
62.089400706773567
 31
0.0
  0
LINE
  5
1D36
  8
0
  6
CONTINUOUS
 62
     0
 10
77.462906021222565
 20
52.793414901786768
 30
0.0
 11
77.814913118729237
 21
52.441407804280182
 31
0.0
  0
LINE
  5
1D37
  8
0
  6
CONTINUOUS
 62
     0
 10
84.061359728135926
 20
62.441407804280182
 30
0.0
 11
77.814913118729237
 21
62.441407804280182
 31
0.0
  0
LINE
  5
1D38
  8
0
  6
CONTINUOUS
 62
     0
 10
77.814913118729237
 20
52.441407804280182
 30
0.0
 11
84.061359728135926
 21
52.441407804280182
 31
0.0
  0
LINE
  5
1D39
  8
0
  6
CONTINUOUS
 62
     0
 10
89.566887410020627
 20
66.441407804280175
 30
0.0
 11
84.061359728135926
 21
62.441407804280182
 31
0.0
  0
LINE
  5
1D3A
  8
0
  6
CONTINUOUS
 62
     0
 10
84.061359728135926
 20
52.441407804280182
 30
0.0
 11
89.566887410020627
 21
48.441407804280168
 31
0.0
  0
LINE
  5
1D3B
  8
0
  6
CONTINUOUS
 62
     0
 10
89.961359728135946
 20
66.441407804280175
 30
0.0
 11
89.566887410020627
 21
66.441407804280175
 31
0.0
  0
LINE
  5
1D3C
  8
0
  6
CONTINUOUS
 62
     0
 10
89.566887410020627
 20
48.441407804280168
 30
0.0
 11
89.961359728135946
 21
48.441407804280168
 31
0.0
  0
ARC
  5
1D3D
  8
0
  6
CONTINUOUS
 62
     0
 10
89.961359728135946
 20
49.441407804280182
 30
0.0
 40
0.9999999999999982
 50
270.0
 51
0.0
  0
ARC
  5
1D3E
  8
0
  6
CONTINUOUS
 62
     0
 10
89.961359728135946
 20
65.441407804280175
 30
0.0
 40
1.0000000000000011
 50
0.0
 51
90.0
  0
LINE
  5
1D3F
  8
0
  6
CONTINUOUS
 62
     0
 10
90.961359728135974
 20
50.109985292337399
 30
0.0
 11
90.961359728135974
 21
64.772830316222951
 31
0.0
  0
ARC
  5
1D40
  8
2
 10
100.4613597281359
 20
57.441407804280182
 30
0.0
 40
12.000000000000011
 50
142.34153799379189
 51
217.65846200620811
  0
LINE
  5
1D91
  8
1
 10
93.96135972813596
 20
17.421372159473091
 30
0.0
 11
57.86708649512348
 21
17.421372159473091
 31
0.0
  0
LINE
  5
1D93
  8
3
 10
65.46135972813596
 20
20.80787215947311
 30
0.0
 11
66.46135972813596
 21
20.80787215947311
 31
0.0
  0
LINE
  5
1D95
  8
3
 10
65.46135972813596
 20
14.03487215947308
 30
0.0
 11
66.46135972813596
 21
14.034872159473091
 31
0.0
  0
POLYLINE
  5
1D96
  8
0
  6
CONTINUOUS
 62
     0
 66
     1
 10
0.0
 20
0.0
 30
0.0
  0
VERTEX
  5
2312
  8
0
  6
CONTINUOUS
 62
     0
 10
69.88080314453515
 20
17.421372159473091
 30
0.0
  0
VERTEX
  5
2313
  8
0
  6
CONTINUOUS
 62
     0
 10
69.912930993441535
 20
17.518860558646729
 30
0.0
  0
VERTEX
  5
2314
  8
0
  6
CONTINUOUS
 62
     0
 10
69.974225345404818
 20
17.711574121570429
 30
0.0
  0
VERTEX
  5
2315
  8
0
  6
CONTINUOUS
 62
     0
 10
70.031647615595134
 20
17.90149320239999
 30
0.0
  0
VERTEX
  5
2316
  8
0
  6
CONTINUOUS
 62
     0
 10
70.058932849360303
 20
17.99548657011746
 30
0.0
  0
VERTEX
  5
2317
  8
0
  6
CONTINUOUS
 62
     0
 10
70.085280113051155
 20
18.088878503546368
 30
0.0
  0
VERTEX
  5
2318
  8
0
  6
CONTINUOUS
 62
     0
 10
70.135194813420526
 20
18.273983688777371
 30
0.0
  0
VERTEX
  5
2319
  8
0
  6
CONTINUOUS
 62
     0
 10
70.181453681192636
 20
18.457056528887669
 30
0.0
  0
VERTEX
  5
231A
  8
0
  6
CONTINUOUS
 62
     0
 10
70.224108924440202
 20
18.638340009332289
 30
0.0
  0
VERTEX
  5
231B
  8
0
  6
CONTINUOUS
 62
     0
 10
70.263203184250585
 20
18.818073410246711
 30
0.0
  0
VERTEX
  5
231C
  8
0
  6
CONTINUOUS
 62
     0
 10
70.298769660211235
 20
18.99649336898716
 30
0.0
  0
VERTEX
  5
231D
  8
0
  6
CONTINUOUS
 62
     0
 10
70.315237789042044
 20
19.085284293719209
 30
0.0
  0
VERTEX
  5
231E
  8
0
  6
CONTINUOUS
 62
     0
 10
70.330832172507144
 20
19.173834935201398
 30
0.0
  0
VERTEX
  5
231F
  8
0
  6
CONTINUOUS
 62
     0
 10
70.359405160385393
 20
19.350332628474568
 30
0.0
  0
VERTEX
  5
2320
  8
0
  6
CONTINUOUS
 62
     0
 10
70.384493615916014
 20
19.526221508803701
 30
0.0
  0
VERTEX
  5
2321
  8
0
  6
CONTINUOUS
 62
     0
 10
70.406092951122162
 20
19.70173827053134
 30
0.0
  0
VERTEX
  5
2322
  8
0
  6
CONTINUOUS
 62
     0
 10
70.424188795638486
 20
19.877122370937229
 30
0.0
  0
VERTEX
  5
2323
  8
0
  6
CONTINUOUS
 62
     0
 10
70.438756721068785
 20
20.052617205458208
 30
0.0
  0
VERTEX
  5
2324
  8
0
  6
CONTINUOUS
 62
     0
 10
70.444707244626727
 20
20.1404835883597
 30
0.0
  0
VERTEX
  5
2325
  8
0
  6
CONTINUOUS
 62
     0
 10
70.449761887128489
 20
20.228471342506911
 30
0.0
  0
VERTEX
  5
2326
  8
0
  6
CONTINUOUS
 62
     0
 10
70.457158603444043
 20
20.40493983212065
 30
0.0
  0
VERTEX
  5
2327
  8
0
  6
CONTINUOUS
 62
     0
 10
70.460889799512699
 20
20.582285604227192
 30
0.0
  0
VERTEX
  5
2328
  8
0
  6
CONTINUOUS
 62
     0
 10
70.46135972813596
 20
20.671372159473101
 30
0.0
  0
SEQEND
  5
2329
  8
0
  6
CONTINUOUS
 62
     0
  0
POLYLINE
  5
1D97
  8
0
  6
CONTINUOUS
 62
     0
 66
     1
 10
0.0
 20
0.0
 30
0.0
  0
VERTEX
  5
232A
  8
0
  6
CONTINUOUS
 62
     0
 10
66.46135972813596
 20
20.671372159473101
 30
0.0
  0
VERTEX
  5
232B
  8
0
  6
CONTINUOUS
 62
     0
 10
66.461829656759221
 20
20.582285604227192
 30
0.0
  0
VERTEX
  5
232C
  8
0
  6
CONTINUOUS
 62
     0
 10
66.465560852827878
 20
20.40493983212065
 30
0.0
  0
VERTEX
  5
232D
  8
0
  6
CONTINUOUS
 62
     0
 10
66.472957569143375
 20
20.228471342506911
 30
0.0
  0
VERTEX
  5
232E
  8
0
  6
CONTINUOUS
 62
     0
 10
66.478012211645193
 20
20.1404835883597
 30
0.0
  0
VERTEX
  5
232F
  8
0
  6
CONTINUOUS
 62
     0
 10
66.483962735203079
 20
20.052617205458208
 30
0.0
  0
VERTEX
  5
2330
  8
0
  6
CONTINUOUS
 62
     0
 10
66.498530660633435
 20
19.877122370937229
 30
0.0
  0
VERTEX
  5
2331
  8
0
  6
CONTINUOUS
 62
     0
 10
66.516626505149702
 20
19.70173827053134
 30
0.0
  0
VERTEX
  5
2332
  8
0
  6
CONTINUOUS
 62
     0
 10
66.538225840355835
 20
19.526221508803701
 30
0.0
  0
VERTEX
  5
2333
  8
0
  6
CONTINUOUS
 62
     0
 10
66.563314295886471
 20
19.350332628474568
 30
0.0
  0
VERTEX
  5
2334
  8
0
  6
CONTINUOUS
 62
     0
 10
66.59188728376472
 20
19.173834935201398
 30
0.0
  0
VERTEX
  5
2335
  8
0
  6
CONTINUOUS
 62
     0
 10
66.607481667229806
 20
19.085284293719209
 30
0.0
  0
VERTEX
  5
2336
  8
0
  6
CONTINUOUS
 62
     0
 10
66.623949796060685
 20
18.99649336898716
 30
0.0
  0
VERTEX
  5
2337
  8
0
  6
CONTINUOUS
 62
     0
 10
66.659516272021278
 20
18.818073410246711
 30
0.0
  0
VERTEX
  5
2338
  8
0
  6
CONTINUOUS
 62
     0
 10
66.698610531831719
 20
18.638340009332289
 30
0.0
  0
VERTEX
  5
2339
  8
0
  6
CONTINUOUS
 62
     0
 10
66.741265775079285
 20
18.457056528887669
 30
0.0
  0
VERTEX
  5
233A
  8
0
  6
CONTINUOUS
 62
     0
 10
66.787524642851395
 20
18.273983688777371
 30
0.0
  0
VERTEX
  5
233B
  8
0
  6
CONTINUOUS
 62
     0
 10
66.837439343220694
 20
18.088878503546368
 30
0.0
  0
VERTEX
  5
233C
  8
0
  6
CONTINUOUS
 62
     0
 10
66.86378660691156
 20
17.99548657011746
 30
0.0
  0
VERTEX
  5
233D
  8
0
  6
CONTINUOUS
 62
     0
 10
66.891071840676716
 20
17.90149320239999
 30
0.0
  0
VERTEX
  5
233E
  8
0
  6
CONTINUOUS
 62
     0
 10
66.948494110867045
 20
17.711574121570429
 30
0.0
  0
VERTEX
  5
233F
  8
0
  6
CONTINUOUS
 62
     0
 10
67.009788462830386
 20
17.518860558646729
 30
0.0
  0
VERTEX
  5
2340
  8
0
  6
CONTINUOUS
 62
     0
 10
67.041916311736713
 20
17.421372159473091
 30
0.0
  0
SEQEND
  5
2341
  8
0
  6
CONTINUOUS
 62
     0
  0
POLYLINE
  5
1D98
  8
0
  6
CONTINUOUS
 62
     0
 66
     1
 10
0.0
 20
0.0
 30
0.0
  0
VERTEX
  5
2342
  8
0
  6
CONTINUOUS
 62
     0
 10
67.041916311736713
 20
23.921372159473091
 30
0.0
  0
VERTEX
  5
2343
  8
0
  6
CONTINUOUS
 62
     0
 10
67.009788462830386
 20
23.823883760299449
 30
0.0
  0
VERTEX
  5
2344
  8
0
  6
CONTINUOUS
 62
     0
 10
66.948494110867045
 20
23.631170197375749
 30
0.0
  0
VERTEX
  5
2345
  8
0
  6
CONTINUOUS
 62
     0
 10
66.891071840676716
 20
23.441251116546201
 30
0.0
  0
VERTEX
  5
2346
  8
0
  6
CONTINUOUS
 62
     0
 10
66.86378660691156
 20
23.347257748828731
 30
0.0
  0
VERTEX
  5
2347
  8
0
  6
CONTINUOUS
 62
     0
 10
66.837439343220694
 20
23.25386581539982
 30
0.0
  0
VERTEX
  5
2348
  8
0
  6
CONTINUOUS
 62
     0
 10
66.787524642851395
 20
23.068760630168811
 30
0.0
  0
VERTEX
  5
2349
  8
0
  6
CONTINUOUS
 62
     0
 10
66.741265775079285
 20
22.885687790058508
 30
0.0
  0
VERTEX
  5
234A
  8
0
  6
CONTINUOUS
 62
     0
 10
66.698610531831719
 20
22.704404309613889
 30
0.0
  0
VERTEX
  5
234B
  8
0
  6
CONTINUOUS
 62
     0
 10
66.659516272021278
 20
22.524670908699481
 30
0.0
  0
VERTEX
  5
234C
  8
0
  6
CONTINUOUS
 62
     0
 10
66.623949796060685
 20
22.346250949959028
 30
0.0
  0
VERTEX
  5
234D
  8
0
  6
CONTINUOUS
 62
     0
 10
66.607481667229806
 20
22.25746002522698
 30
0.0
  0
VERTEX
  5
234E
  8
0
  6
CONTINUOUS
 62
     0
 10
66.59188728376472
 20
22.16890938374479
 30
0.0
  0
VERTEX
  5
234F
  8
0
  6
CONTINUOUS
 62
     0
 10
66.563314295886471
 20
21.992411690471609
 30
0.0
  0
VERTEX
  5
2350
  8
0
  6
CONTINUOUS
 62
     0
 10
66.538225840355835
 20
21.816522810142491
 30
0.0
  0
VERTEX
  5
2351
  8
0
  6
CONTINUOUS
 62
     0
 10
66.516626505149702
 20
21.641006048414852
 30
0.0
  0
VERTEX
  5
2352
  8
0
  6
CONTINUOUS
 62
     0
 10
66.498530660633435
 20
21.465621948008959
 30
0.0
  0
VERTEX
  5
2353
  8
0
  6
CONTINUOUS
 62
     0
 10
66.483962735203079
 20
21.29012711348798
 30
0.0
  0
VERTEX
  5
2354
  8
0
  6
CONTINUOUS
 62
     0
 10
66.478012211645193
 20
21.202260730586492
 30
0.0
  0
VERTEX
  5
2355
  8
0
  6
CONTINUOUS
 62
     0
 10
66.472957569143375
 20
21.114272976439281
 30
0.0
  0
VERTEX
  5
2356
  8
0
  6
CONTINUOUS
 62
     0
 10
66.465560852827878
 20
20.937804486825542
 30
0.0
  0
VERTEX
  5
2357
  8
0
  6
CONTINUOUS
 62
     0
 10
66.461829656759221
 20
20.76045871471899
 30
0.0
  0
VERTEX
  5
2358
  8
0
  6
CONTINUOUS
 62
     0
 10
66.46135972813596
 20
20.671372159473101
 30
0.0
  0
SEQEND
  5
2359
  8
0
  6
CONTINUOUS
 62
     0
  0
POLYLINE
  5
1D99
  8
0
  6
CONTINUOUS
 62
     0
 66
     1
 10
0.0
 20
0.0
 30
0.0
  0
VERTEX
  5
235A
  8
0
  6
CONTINUOUS
 62
     0
 10
70.46135972813596
 20
20.671372159473101
 30
0.0
  0
VERTEX
  5
235B
  8
0
  6
CONTINUOUS
 62
     0
 10
70.460889799512699
 20
20.76045871471899
 30
0.0
  0
VERTEX
  5
235C
  8
0
  6
CONTINUOUS
 62
     0
 10
70.457158603444043
 20
20.937804486825542
 30
0.0
  0
VERTEX
  5
235D
  8
0
  6
CONTINUOUS
 62
     0
 10
70.449761887128489
 20
21.114272976439281
 30
0.0
  0
VERTEX
  5
235E
  8
0
  6
CONTINUOUS
 62
     0
 10
70.444707244626727
 20
21.202260730586492
 30
0.0
  0
VERTEX
  5
235F
  8
0
  6
CONTINUOUS
 62
     0
 10
70.438756721068785
 20
21.29012711348798
 30
0.0
  0
VERTEX
  5
2360
  8
0
  6
CONTINUOUS
 62
     0
 10
70.424188795638486
 20
21.465621948008959
 30
0.0
  0
VERTEX
  5
2361
  8
0
  6
CONTINUOUS
 62
     0
 10
70.406092951122162
 20
21.641006048414852
 30
0.0
  0
VERTEX
  5
2362
  8
0
  6
CONTINUOUS
 62
     0
 10
70.384493615916014
 20
21.816522810142491
 30
0.0
  0
VERTEX
  5
2363
  8
0
  6
CONTINUOUS
 62
     0
 10
70.359405160385393
 20
21.992411690471609
 30
0.0
  0
VERTEX
  5
2364
  8
0
  6
CONTINUOUS
 62
     0
 10
70.330832172507144
 20
22.16890938374479
 30
0.0
  0
VERTEX
  5
2365
  8
0
  6
CONTINUOUS
 62
     0
 10
70.315237789042044
 20
22.25746002522698
 30
0.0
  0
VERTEX
  5
2366
  8
0
  6
CONTINUOUS
 62
     0
 10
70.298769660211235
 20
22.346250949959028
 30
0.0
  0
VERTEX
  5
2367
  8
0
  6
CONTINUOUS
 62
     0
 10
70.263203184250585
 20
22.524670908699541
 30
0.0
  0
VERTEX
  5
2368
  8
0
  6
CONTINUOUS
 62
     0
 10
70.224108924440202
 20
22.704404309613889
 30
0.0
  0
VERTEX
  5
2369
  8
0
  6
CONTINUOUS
 62
     0
 10
70.181453681192636
 20
22.885687790058508
 30
0.0
  0
VERTEX
  5
236A
  8
0
  6
CONTINUOUS
 62
     0
 10
70.135194813420526
 20
23.068760630168811
 30
0.0
  0
VERTEX
  5
236B
  8
0
  6
CONTINUOUS
 62
     0
 10
70.085280113051155
 20
23.25386581539982
 30
0.0
  0
VERTEX
  5
236C
  8
0
  6
CONTINUOUS
 62
     0
 10
70.058932849360303
 20
23.347257748828731
 30
0.0
  0
VERTEX
  5
236D
  8
0
  6
CONTINUOUS
 62
     0
 10
70.031647615595134
 20
23.441251116546201
 30
0.0
  0
VERTEX
  5
236E
  8
0
  6
CONTINUOUS
 62
     0
 10
69.974225345404818
 20
23.631170197375749
 30
0.0
  0
VERTEX
  5
236F
  8
0
  6
CONTINUOUS
 62
     0
 10
69.912930993441535
 20
23.823883760299449
 30
0.0
  0
VERTEX
  5
2370
  8
0
  6
CONTINUOUS
 62
     0
 10
69.88080314453515
 20
23.921372159473091
 30
0.0
  0
SEQEND
  5
2371
  8
0
  6
CONTINUOUS
 62
     0
  0
POLYLINE
  5
1D9A
  8
0
  6
CONTINUOUS
 62
     0
 66
     1
 10
0.0
 20
0.0
 30
0.0
  0
VERTEX
  5
2372
  8
0
  6
CONTINUOUS
 62
     0
 10
69.88080314453515
 20
23.921372159473091
 30
0.0
  0
VERTEX
  5
2373
  8
0
  6
CONTINUOUS
 62
     0
 10
69.912930993441535
 20
23.823883760299449
 30
0.0
  0
VERTEX
  5
2374
  8
0
  6
CONTINUOUS
 62
     0
 10
69.974225345404818
 20
23.631170197375749
 30
0.0
  0
VERTEX
  5
2375
  8
0
  6
CONTINUOUS
 62
     0
 10
70.031647615595134
 20
23.441251116546201
 30
0.0
  0
VERTEX
  5
2376
  8
0
  6
CONTINUOUS
 62
     0
 10
70.058932849360303
 20
23.347257748828731
 30
0.0
  0
VERTEX
  5
2377
  8
0
  6
CONTINUOUS
 62
     0
 10
70.085280113051155
 20
23.25386581539982
 30
0.0
  0
VERTEX
  5
2378
  8
0
  6
CONTINUOUS
 62
     0
 10
70.135194813420526
 20
23.068760630168811
 30
0.0
  0
VERTEX
  5
2379
  8
0
  6
CONTINUOUS
 62
     0
 10
70.181453681192636
 20
22.885687790058508
 30
0.0
  0
VERTEX
  5
237A
  8
0
  6
CONTINUOUS
 62
     0
 10
70.224108924440202
 20
22.704404309613889
 30
0.0
  0
VERTEX
  5
237B
  8
0
  6
CONTINUOUS
 62
     0
 10
70.263203184250585
 20
22.524670908699541
 30
0.0
  0
VERTEX
  5
237C
  8
0
  6
CONTINUOUS
 62
     0
 10
70.298769660211235
 20
22.346250949959028
 30
0.0
  0
VERTEX
  5
237D
  8
0
  6
CONTINUOUS
 62
     0
 10
70.315237789042044
 20
22.25746002522698
 30
0.0
  0
VERTEX
  5
237E
  8
0
  6
CONTINUOUS
 62
     0
 10
70.330832172507144
 20
22.16890938374479
 30
0.0
  0
VERTEX
  5
237F
  8
0
  6
CONTINUOUS
 62
     0
 10
70.359405160385393
 20
21.992411690471609
 30
0.0
  0
VERTEX
  5
2380
  8
0
  6
CONTINUOUS
 62
     0
 10
70.384493615916014
 20
21.816522810142491
 30
0.0
  0
VERTEX
  5
2381
  8
0
  6
CONTINUOUS
 62
     0
 10
70.406092951122162
 20
21.641006048414852
 30
0.0
  0
VERTEX
  5
2382
  8
0
  6
CONTINUOUS
 62
     0
 10
70.424188795638486
 20
21.465621948008959
 30
0.0
  0
VERTEX
  5
2383
  8
0
  6
CONTINUOUS
 62
     0
 10
70.438756721068785
 20
21.29012711348798
 30
0.0
  0
VERTEX
  5
2384
  8
0
  6
CONTINUOUS
 62
     0
 10
70.444707244626727
 20
21.202260730586492
 30
0.0
  0
VERTEX
  5
2385
  8
0
  6
CONTINUOUS
 62
     0
 10
70.449761887128489
 20
21.114272976439281
 30
0.0
  0
VERTEX
  5
2386
  8
0
  6
CONTINUOUS
 62
     0
 10
70.457158603444043
 20
20.937804486825542
 30
0.0
  0
VERTEX
  5
2387
  8
0
  6
CONTINUOUS
 62
     0
 10
70.460889799512699
 20
20.76045871471899
 30
0.0
  0
VERTEX
  5
2388
  8
0
  6
CONTINUOUS
 62
     0
 10
70.46135972813596
 20
20.671372159473101
 30
0.0
  0
SEQEND
  5
2389
  8
0
  6
CONTINUOUS
 62
     0
  0
LINE
  5
1D9B
  8
0
  6
CONTINUOUS
 62
     0
 10
67.041916311736713
 20
23.921372159473091
 30
0.0
 11
69.88080314453515
 21
23.921372159473091
 31
0.0
  0
POLYLINE
  5
1D9C
  8
0
  6
CONTINUOUS
 62
     0
 66
     1
 10
0.0
 20
0.0
 30
0.0
  0
VERTEX
  5
238A
  8
0
  6
CONTINUOUS
 62
     0
 10
66.46135972813596
 20
20.671372159473101
 30
0.0
  0
VERTEX
  5
238B
  8
0
  6
CONTINUOUS
 62
     0
 10
66.461829656759221
 20
20.76045871471899
 30
0.0
  0
VERTEX
  5
238C
  8
0
  6
CONTINUOUS
 62
     0
 10
66.465560852827878
 20
20.937804486825542
 30
0.0
  0
VERTEX
  5
238D
  8
0
  6
CONTINUOUS
 62
     0
 10
66.472957569143375
 20
21.114272976439281
 30
0.0
  0
VERTEX
  5
238E
  8
0
  6
CONTINUOUS
 62
     0
 10
66.478012211645193
 20
21.202260730586492
 30
0.0
  0
VERTEX
  5
238F
  8
0
  6
CONTINUOUS
 62
     0
 10
66.483962735203079
 20
21.29012711348798
 30
0.0
  0
VERTEX
  5
2390
  8
0
  6
CONTINUOUS
 62
     0
 10
66.498530660633435
 20
21.465621948008959
 30
0.0
  0
VERTEX
  5
2391
  8
0
  6
CONTINUOUS
 62
     0
 10
66.516626505149702
 20
21.641006048414852
 30
0.0
  0
VERTEX
  5
2392
  8
0
  6
CONTINUOUS
 62
     0
 10
66.538225840355835
 20
21.816522810142491
 30
0.0
  0
VERTEX
  5
2393
  8
0
  6
CONTINUOUS
 62
     0
 10
66.563314295886471
 20
21.992411690471609
 30
0.0
  0
VERTEX
  5
2394
  8
0
  6
CONTINUOUS
 62
     0
 10
66.59188728376472
 20
22.16890938374479
 30
0.0
  0
VERTEX
  5
2395
  8
0
  6
CONTINUOUS
 62
     0
 10
66.607481667229806
 20
22.25746002522698
 30
0.0
  0
VERTEX
  5
2396
  8
0
  6
CONTINUOUS
 62
     0
 10
66.623949796060685
 20
22.346250949959028
 30
0.0
  0
VERTEX
  5
2397
  8
0
  6
CONTINUOUS
 62
     0
 10
66.659516272021278
 20
22.524670908699481
 30
0.0
  0
VERTEX
  5
2398
  8
0
  6
CONTINUOUS
 62
     0
 10
66.698610531831719
 20
22.704404309613839
 30
0.0
  0
VERTEX
  5
2399
  8
0
  6
CONTINUOUS
 62
     0
 10
66.741265775079285
 20
22.885687790058508
 30
0.0
  0
VERTEX
  5
239A
  8
0
  6
CONTINUOUS
 62
     0
 10
66.787524642851395
 20
23.068760630168811
 30
0.0
  0
VERTEX
  5
239B
  8
0
  6
CONTINUOUS
 62
     0
 10
66.837439343220694
 20
23.25386581539982
 30
0.0
  0
VERTEX
  5
239C
  8
0
  6
CONTINUOUS
 62
     0
 10
66.86378660691156
 20
23.347257748828731
 30
0.0
  0
VERTEX
  5
239D
  8
0
  6
CONTINUOUS
 62
     0
 10
66.891071840676716
 20
23.441251116546201
 30
0.0
  0
VERTEX
  5
239E
  8
0
  6
CONTINUOUS
 62
     0
 10
66.948494110867045
 20
23.631170197375749
 30
0.0
  0
VERTEX
  5
239F
  8
0
  6
CONTINUOUS
 62
     0
 10
67.009788462830386
 20
23.823883760299449
 30
0.0
  0
VERTEX
  5
23A0
  8
0
  6
CONTINUOUS
 62
     0
 10
67.041916311736713
 20
23.921372159473091
 30
0.0
  0
SEQEND
  5
23A1
  8
0
  6
CONTINUOUS
 62
     0
  0
POLYLINE
  5
1D9D
  8
0
  6
CONTINUOUS
 62
     0
 66
     1
 10
0.0
 20
0.0
 30
0.0
  0
VERTEX
  5
23A2
  8
0
  6
CONTINUOUS
 62
     0
 10
67.041916311736713
 20
17.421372159473091
 30
0.0
  0
VERTEX
  5
23A3
  8
0
  6
CONTINUOUS
 62
     0
 10
67.009788462830386
 20
17.518860558646729
 30
0.0
  0
VERTEX
  5
23A4
  8
0
  6
CONTINUOUS
 62
     0
 10
66.948494110867045
 20
17.711574121570429
 30
0.0
  0
VERTEX
  5
23A5
  8
0
  6
CONTINUOUS
 62
     0
 10
66.891071840676716
 20
17.90149320239999
 30
0.0
  0
VERTEX
  5
23A6
  8
0
  6
CONTINUOUS
 62
     0
 10
66.86378660691156
 20
17.99548657011746
 30
0.0
  0
VERTEX
  5
23A7
  8
0
  6
CONTINUOUS
 62
     0
 10
66.837439343220694
 20
18.088878503546368
 30
0.0
  0
VERTEX
  5
23A8
  8
0
  6
CONTINUOUS
 62
     0
 10
66.787524642851395
 20
18.273983688777371
 30
0.0
  0
VERTEX
  5
23A9
  8
0
  6
CONTINUOUS
 62
     0
 10
66.741265775079285
 20
18.457056528887669
 30
0.0
  0
VERTEX
  5
23AA
  8
0
  6
CONTINUOUS
 62
     0
 10
66.698610531831719
 20
18.638340009332289
 30
0.0
  0
VERTEX
  5
23AB
  8
0
  6
CONTINUOUS
 62
     0
 10
66.659516272021278
 20
18.818073410246711
 30
0.0
  0
VERTEX
  5
23AC
  8
0
  6
CONTINUOUS
 62
     0
 10
66.623949796060685
 20
18.99649336898716
 30
0.0
  0
VERTEX
  5
23AD
  8
0
  6
CONTINUOUS
 62
     0
 10
66.607481667229806
 20
19.085284293719209
 30
0.0
  0
VERTEX
  5
23AE
  8
0
  6
CONTINUOUS
 62
     0
 10
66.59188728376472
 20
19.173834935201398
 30
0.0
  0
VERTEX
  5
23AF
  8
0
  6
CONTINUOUS
 62
     0
 10
66.563314295886471
 20
19.350332628474568
 30
0.0
  0
VERTEX
  5
23B0
  8
0
  6
CONTINUOUS
 62
     0
 10
66.538225840355835
 20
19.526221508803701
 30
0.0
  0
VERTEX
  5
23B1
  8
0
  6
CONTINUOUS
 62
     0
 10
66.516626505149702
 20
19.70173827053134
 30
0.0
  0
VERTEX
  5
23B2
  8
0
  6
CONTINUOUS
 62
     0
 10
66.498530660633435
 20
19.877122370937229
 30
0.0
  0
VERTEX
  5
23B3
  8
0
  6
CONTINUOUS
 62
     0
 10
66.483962735203079
 20
20.052617205458208
 30
0.0
  0
VERTEX
  5
23B4
  8
0
  6
CONTINUOUS
 62
     0
 10
66.478012211645193
 20
20.1404835883597
 30
0.0
  0
VERTEX
  5
23B5
  8
0
  6
CONTINUOUS
 62
     0
 10
66.472957569143375
 20
20.228471342506911
 30
0.0
  0
VERTEX
  5
23B6
  8
0
  6
CONTINUOUS
 62
     0
 10
66.465560852827878
 20
20.40493983212065
 30
0.0
  0
VERTEX
  5
23B7
  8
0
  6
CONTINUOUS
 62
     0
 10
66.461829656759221
 20
20.582285604227192
 30
0.0
  0
VERTEX
  5
23B8
  8
0
  6
CONTINUOUS
 62
     0
 10
66.46135972813596
 20
20.671372159473101
 30
0.0
  0
SEQEND
  5
23B9
  8
0
  6
CONTINUOUS
 62
     0
  0
LINE
  5
1D9E
  8
0
  6
CONTINUOUS
 62
     0
 10
67.041916311736713
 20
17.421372159473091
 30
0.0
 11
69.88080314453515
 21
17.421372159473091
 31
0.0
  0
POLYLINE
  5
1D9F
  8
0
  6
CONTINUOUS
 62
     0
 66
     1
 10
0.0
 20
0.0
 30
0.0
  0
VERTEX
  5
23BA
  8
0
  6
CONTINUOUS
 62
     0
 10
70.46135972813596
 20
20.671372159473101
 30
0.0
  0
VERTEX
  5
23BB
  8
0
  6
CONTINUOUS
 62
     0
 10
70.460889799512699
 20
20.582285604227192
 30
0.0
  0
VERTEX
  5
23BC
  8
0
  6
CONTINUOUS
 62
     0
 10
70.457158603444043
 20
20.40493983212065
 30
0.0
  0
VERTEX
  5
23BD
  8
0
  6
CONTINUOUS
 62
     0
 10
70.449761887128489
 20
20.228471342506911
 30
0.0
  0
VERTEX
  5
23BE
  8
0
  6
CONTINUOUS
 62
     0
 10
70.444707244626727
 20
20.1404835883597
 30
0.0
  0
VERTEX
  5
23BF
  8
0
  6
CONTINUOUS
 62
     0
 10
70.438756721068785
 20
20.052617205458208
 30
0.0
  0
VERTEX
  5
23C0
  8
0
  6
CONTINUOUS
 62
     0
 10
70.424188795638486
 20
19.877122370937229
 30
0.0
  0
VERTEX
  5
23C1
  8
0
  6
CONTINUOUS
 62
     0
 10
70.406092951122162
 20
19.70173827053134
 30
0.0
  0
VERTEX
  5
23C2
  8
0
  6
CONTINUOUS
 62
     0
 10
70.384493615916014
 20
19.526221508803701
 30
0.0
  0
VERTEX
  5
23C3
  8
0
  6
CONTINUOUS
 62
     0
 10
70.359405160385393
 20
19.350332628474568
 30
0.0
  0
VERTEX
  5
23C4
  8
0
  6
CONTINUOUS
 62
     0
 10
70.330832172507144
 20
19.173834935201398
 30
0.0
  0
VERTEX
  5
23C5
  8
0
  6
CONTINUOUS
 62
     0
 10
70.315237789042044
 20
19.085284293719209
 30
0.0
  0
VERTEX
  5
23C6
  8
0
  6
CONTINUOUS
 62
     0
 10
70.298769660211235
 20
18.99649336898716
 30
0.0
  0
VERTEX
  5
23C7
  8
0
  6
CONTINUOUS
 62
     0
 10
70.263203184250585
 20
18.818073410246651
 30
0.0
  0
VERTEX
  5
23C8
  8
0
  6
CONTINUOUS
 62
     0
 10
70.224108924440202
 20
18.638340009332289
 30
0.0
  0
VERTEX
  5
23C9
  8
0
  6
CONTINUOUS
 62
     0
 10
70.181453681192636
 20
18.457056528887669
 30
0.0
  0
VERTEX
  5
23CA
  8
0
  6
CONTINUOUS
 62
     0
 10
70.135194813420526
 20
18.273983688777371
 30
0.0
  0
VERTEX
  5
23CB
  8
0
  6
CONTINUOUS
 62
     0
 10
70.085280113051155
 20
18.088878503546368
 30
0.0
  0
VERTEX
  5
23CC
  8
0
  6
CONTINUOUS
 62
     0
 10
70.058932849360303
 20
17.99548657011746
 30
0.0
  0
VERTEX
  5
23CD
  8
0
  6
CONTINUOUS
 62
     0
 10
70.031647615595134
 20
17.90149320239999
 30
0.0
  0
VERTEX
  5
23CE
  8
0
  6
CONTINUOUS
 62
     0
 10
69.974225345404818
 20
17.711574121570429
 30
0.0
  0
VERTEX
  5
23CF
  8
0
  6
CONTINUOUS
 62
     0
 10
69.912930993441535
 20
17.518860558646729
 30
0.0
  0
VERTEX
  5
23D0
  8
0
  6
CONTINUOUS
 62
     0
 10
69.88080314453515
 20
17.421372159473091
 30
0.0
  0
SEQEND
  5
23D1
  8
0
  6
CONTINUOUS
 62
     0
  0
POLYLINE
  5
1DA0
  8
0
  6
CONTINUOUS
 62
     0
 66
     1
 10
0.0
 20
0.0
 30
0.0
  0
VERTEX
  5
23D2
  8
0
  6
CONTINUOUS
 62
     0
 10
67.041916311736713
 20
23.921372159473091
 30
0.0
  0
VERTEX
  5
23D3
  8
0
  6
CONTINUOUS
 62
     0
 10
67.009788462830386
 20
23.921372159473091
 30
0.0
  0
VERTEX
  5
23D4
  8
0
  6
CONTINUOUS
 62
     0
 10
66.948494110867045
 20
23.921372159473091
 30
0.0
  0
VERTEX
  5
23D5
  8
0
  6
CONTINUOUS
 62
     0
 10
66.891071840676716
 20
23.921372159473091
 30
0.0
  0
VERTEX
  5
23D6
  8
0
  6
CONTINUOUS
 62
     0
 10
66.86378660691156
 20
23.921372159473091
 30
0.0
  0
VERTEX
  5
23D7
  8
0
  6
CONTINUOUS
 62
     0
 10
66.837439343220694
 20
23.921372159473091
 30
0.0
  0
VERTEX
  5
23D8
  8
0
  6
CONTINUOUS
 62
     0
 10
66.787524642851395
 20
23.921372159473091
 30
0.0
  0
VERTEX
  5
23D9
  8
0
  6
CONTINUOUS
 62
     0
 10
66.741265775079285
 20
23.921372159473091
 30
0.0
  0
VERTEX
  5
23DA
  8
0
  6
CONTINUOUS
 62
     0
 10
66.698610531831719
 20
23.921372159473091
 30
0.0
  0
VERTEX
  5
23DB
  8
0
  6
CONTINUOUS
 62
     0
 10
66.659516272021278
 20
23.921372159473091
 30
0.0
  0
VERTEX
  5
23DC
  8
0
  6
CONTINUOUS
 62
     0
 10
66.623949796060685
 20
23.921372159473091
 30
0.0
  0
VERTEX
  5
23DD
  8
0
  6
CONTINUOUS
 62
     0
 10
66.607481667229806
 20
23.921372159473091
 30
0.0
  0
VERTEX
  5
23DE
  8
0
  6
CONTINUOUS
 62
     0
 10
66.59188728376472
 20
23.921372159473091
 30
0.0
  0
VERTEX
  5
23DF
  8
0
  6
CONTINUOUS
 62
     0
 10
66.563314295886471
 20
23.921372159473091
 30
0.0
  0
VERTEX
  5
23E0
  8
0
  6
CONTINUOUS
 62
     0
 10
66.538225840355835
 20
23.921372159473091
 30
0.0
  0
VERTEX
  5
23E1
  8
0
  6
CONTINUOUS
 62
     0
 10
66.516626505149702
 20
23.921372159473091
 30
0.0
  0
VERTEX
  5
23E2
  8
0
  6
CONTINUOUS
 62
     0
 10
66.498530660633435
 20
23.921372159473091
 30
0.0
  0
VERTEX
  5
23E3
  8
0
  6
CONTINUOUS
 62
     0
 10
66.483962735203079
 20
23.921372159473091
 30
0.0
  0
VERTEX
  5
23E4
  8
0
  6
CONTINUOUS
 62
     0
 10
66.478012211645193
 20
23.921372159473091
 30
0.0
  0
VERTEX
  5
23E5
  8
0
  6
CONTINUOUS
 62
     0
 10
66.472957569143375
 20
23.921372159473091
 30
0.0
  0
VERTEX
  5
23E6
  8
0
  6
CONTINUOUS
 62
     0
 10
66.465560852827878
 20
23.921372159473091
 30
0.0
  0
VERTEX
  5
23E7
  8
0
  6
CONTINUOUS
 62
     0
 10
66.461829656759221
 20
23.921372159473091
 30
0.0
  0
VERTEX
  5
23E8
  8
0
  6
CONTINUOUS
 62
     0
 10
66.46135972813596
 20
23.921372159473091
 30
0.0
  0
SEQEND
  5
23E9
  8
0
  6
CONTINUOUS
 62
     0
  0
POLYLINE
  5
1DA1
  8
0
  6
CONTINUOUS
 62
     0
 66
     1
 10
0.0
 20
0.0
 30
0.0
  0
VERTEX
  5
23EA
  8
0
  6
CONTINUOUS
 62
     0
 10
70.46135972813596
 20
23.921372159473091
 30
0.0
  0
VERTEX
  5
23EB
  8
0
  6
CONTINUOUS
 62
     0
 10
70.460889799512699
 20
23.921372159473091
 30
0.0
  0
VERTEX
  5
23EC
  8
0
  6
CONTINUOUS
 62
     0
 10
70.457158603444043
 20
23.921372159473091
 30
0.0
  0
VERTEX
  5
23ED
  8
0
  6
CONTINUOUS
 62
     0
 10
70.449761887128489
 20
23.921372159473091
 30
0.0
  0
VERTEX
  5
23EE
  8
0
  6
CONTINUOUS
 62
     0
 10
70.444707244626727
 20
23.921372159473091
 30
0.0
  0
VERTEX
  5
23EF
  8
0
  6
CONTINUOUS
 62
     0
 10
70.438756721068785
 20
23.921372159473091
 30
0.0
  0
VERTEX
  5
23F0
  8
0
  6
CONTINUOUS
 62
     0
 10
70.424188795638486
 20
23.921372159473091
 30
0.0
  0
VERTEX
  5
23F1
  8
0
  6
CONTINUOUS
 62
     0
 10
70.406092951122162
 20
23.921372159473091
 30
0.0
  0
VERTEX
  5
23F2
  8
0
  6
CONTINUOUS
 62
     0
 10
70.384493615916014
 20
23.921372159473091
 30
0.0
  0
VERTEX
  5
23F3
  8
0
  6
CONTINUOUS
 62
     0
 10
70.359405160385393
 20
23.921372159473091
 30
0.0
  0
VERTEX
  5
23F4
  8
0
  6
CONTINUOUS
 62
     0
 10
70.330832172507144
 20
23.921372159473091
 30
0.0
  0
VERTEX
  5
23F5
  8
0
  6
CONTINUOUS
 62
     0
 10
70.315237789042044
 20
23.921372159473091
 30
0.0
  0
VERTEX
  5
23F6
  8
0
  6
CONTINUOUS
 62
     0
 10
70.298769660211235
 20
23.921372159473091
 30
0.0
  0
VERTEX
  5
23F7
  8
0
  6
CONTINUOUS
 62
     0
 10
70.263203184250585
 20
23.921372159473091
 30
0.0
  0
VERTEX
  5
23F8
  8
0
  6
CONTINUOUS
 62
     0
 10
70.224108924440202
 20
23.921372159473091
 30
0.0
  0
VERTEX
  5
23F9
  8
0
  6
CONTINUOUS
 62
     0
 10
70.181453681192636
 20
23.921372159473091
 30
0.0
  0
VERTEX
  5
23FA
  8
0
  6
CONTINUOUS
 62
     0
 10
70.135194813420526
 20
23.921372159473091
 30
0.0
  0
VERTEX
  5
23FB
  8
0
  6
CONTINUOUS
 62
     0
 10
70.085280113051155
 20
23.921372159473091
 30
0.0
  0
VERTEX
  5
23FC
  8
0
  6
CONTINUOUS
 62
     0
 10
70.058932849360303
 20
23.921372159473091
 30
0.0
  0
VERTEX
  5
23FD
  8
0
  6
CONTINUOUS
 62
     0
 10
70.031647615595134
 20
23.921372159473091
 30
0.0
  0
VERTEX
  5
23FE
  8
0
  6
CONTINUOUS
 62
     0
 10
69.974225345404818
 20
23.921372159473091
 30
0.0
  0
VERTEX
  5
23FF
  8
0
  6
CONTINUOUS
 62
     0
 10
69.912930993441535
 20
23.921372159473091
 30
0.0
  0
VERTEX
  5
2400
  8
0
  6
CONTINUOUS
 62
     0
 10
69.88080314453515
 20
23.921372159473091
 30
0.0
  0
SEQEND
  5
2401
  8
0
  6
CONTINUOUS
 62
     0
  0
POLYLINE
  5
1DA2
  8
0
  6
CONTINUOUS
 62
     0
 66
     1
 10
0.0
 20
0.0
 30
0.0
  0
VERTEX
  5
2402
  8
0
  6
CONTINUOUS
 62
     0
 10
70.46135972813596
 20
14.171372159473091
 30
0.0
  0
VERTEX
  5
2403
  8
0
  6
CONTINUOUS
 62
     0
 10
70.460889799512699
 20
14.08228560422719
 30
0.0
  0
VERTEX
  5
2404
  8
0
  6
CONTINUOUS
 62
     0
 10
70.457158603444043
 20
13.90493983212065
 30
0.0
  0
VERTEX
  5
2405
  8
0
  6
CONTINUOUS
 62
     0
 10
70.449761887128489
 20
13.7284713425069
 30
0.0
  0
VERTEX
  5
2406
  8
0
  6
CONTINUOUS
 62
     0
 10
70.444707244626727
 20
13.6404835883597
 30
0.0
  0
VERTEX
  5
2407
  8
0
  6
CONTINUOUS
 62
     0
 10
70.438756721068785
 20
13.552617205458199
 30
0.0
  0
VERTEX
  5
2408
  8
0
  6
CONTINUOUS
 62
     0
 10
70.424188795638486
 20
13.377122370937229
 30
0.0
  0
VERTEX
  5
2409
  8
0
  6
CONTINUOUS
 62
     0
 10
70.406092951122162
 20
13.20173827053134
 30
0.0
  0
VERTEX
  5
240A
  8
0
  6
CONTINUOUS
 62
     0
 10
70.384493615916014
 20
13.026221508803699
 30
0.0
  0
VERTEX
  5
240B
  8
0
  6
CONTINUOUS
 62
     0
 10
70.359405160385393
 20
12.85033262847457
 30
0.0
  0
VERTEX
  5
240C
  8
0
  6
CONTINUOUS
 62
     0
 10
70.330832172507144
 20
12.6738349352014
 30
0.0
  0
VERTEX
  5
240D
  8
0
  6
CONTINUOUS
 62
     0
 10
70.315237789042044
 20
12.58528429371921
 30
0.0
  0
VERTEX
  5
240E
  8
0
  6
CONTINUOUS
 62
     0
 10
70.298769660211235
 20
12.49649336898716
 30
0.0
  0
VERTEX
  5
240F
  8
0
  6
CONTINUOUS
 62
     0
 10
70.263203184250585
 20
12.318073410246649
 30
0.0
  0
VERTEX
  5
2410
  8
0
  6
CONTINUOUS
 62
     0
 10
70.224108924440202
 20
12.1383400093323
 30
0.0
  0
VERTEX
  5
2411
  8
0
  6
CONTINUOUS
 62
     0
 10
70.181453681192636
 20
11.957056528887669
 30
0.0
  0
VERTEX
  5
2412
  8
0
  6
CONTINUOUS
 62
     0
 10
70.135194813420526
 20
11.773983688777379
 30
0.0
  0
VERTEX
  5
2413
  8
0
  6
CONTINUOUS
 62
     0
 10
70.085280113051155
 20
11.58887850354637
 30
0.0
  0
VERTEX
  5
2414
  8
0
  6
CONTINUOUS
 62
     0
 10
70.058932849360303
 20
11.49548657011746
 30
0.0
  0
VERTEX
  5
2415
  8
0
  6
CONTINUOUS
 62
     0
 10
70.031647615595134
 20
11.40149320239999
 30
0.0
  0
VERTEX
  5
2416
  8
0
  6
CONTINUOUS
 62
     0
 10
69.974225345404818
 20
11.211574121570431
 30
0.0
  0
VERTEX
  5
2417
  8
0
  6
CONTINUOUS
 62
     0
 10
69.912930993441535
 20
11.018860558646731
 30
0.0
  0
VERTEX
  5
2418
  8
0
  6
CONTINUOUS
 62
     0
 10
69.88080314453515
 20
10.921372159473091
 30
0.0
  0
SEQEND
  5
2419
  8
0
  6
CONTINUOUS
 62
     0
  0
POLYLINE
  5
1DA3
  8
0
  6
CONTINUOUS
 62
     0
 66
     1
 10
0.0
 20
0.0
 30
0.0
  0
VERTEX
  5
241A
  8
0
  6
CONTINUOUS
 62
     0
 10
69.88080314453515
 20
17.421372159473091
 30
0.0
  0
VERTEX
  5
241B
  8
0
  6
CONTINUOUS
 62
     0
 10
69.912930993441535
 20
17.323883760299449
 30
0.0
  0
VERTEX
  5
241C
  8
0
  6
CONTINUOUS
 62
     0
 10
69.974225345404818
 20
17.131170197375749
 30
0.0
  0
VERTEX
  5
241D
  8
0
  6
CONTINUOUS
 62
     0
 10
70.031647615595134
 20
16.941251116546201
 30
0.0
  0
VERTEX
  5
241E
  8
0
  6
CONTINUOUS
 62
     0
 10
70.058932849360303
 20
16.847257748828721
 30
0.0
  0
VERTEX
  5
241F
  8
0
  6
CONTINUOUS
 62
     0
 10
70.085280113051155
 20
16.75386581539982
 30
0.0
  0
VERTEX
  5
2420
  8
0
  6
CONTINUOUS
 62
     0
 10
70.135194813420526
 20
16.568760630168811
 30
0.0
  0
VERTEX
  5
2421
  8
0
  6
CONTINUOUS
 62
     0
 10
70.181453681192636
 20
16.385687790058508
 30
0.0
  0
VERTEX
  5
2422
  8
0
  6
CONTINUOUS
 62
     0
 10
70.224108924440202
 20
16.204404309613889
 30
0.0
  0
VERTEX
  5
2423
  8
0
  6
CONTINUOUS
 62
     0
 10
70.263203184250585
 20
16.024670908699481
 30
0.0
  0
VERTEX
  5
2424
  8
0
  6
CONTINUOUS
 62
     0
 10
70.298769660211235
 20
15.84625094995903
 30
0.0
  0
VERTEX
  5
2425
  8
0
  6
CONTINUOUS
 62
     0
 10
70.315237789042044
 20
15.757460025226971
 30
0.0
  0
VERTEX
  5
2426
  8
0
  6
CONTINUOUS
 62
     0
 10
70.330832172507144
 20
15.66890938374479
 30
0.0
  0
VERTEX
  5
2427
  8
0
  6
CONTINUOUS
 62
     0
 10
70.359405160385393
 20
15.492411690471609
 30
0.0
  0
VERTEX
  5
2428
  8
0
  6
CONTINUOUS
 62
     0
 10
70.384493615916014
 20
15.31652281014248
 30
0.0
  0
VERTEX
  5
2429
  8
0
  6
CONTINUOUS
 62
     0
 10
70.406092951122162
 20
15.14100604841485
 30
0.0
  0
VERTEX
  5
242A
  8
0
  6
CONTINUOUS
 62
     0
 10
70.424188795638486
 20
14.965621948008961
 30
0.0
  0
VERTEX
  5
242B
  8
0
  6
CONTINUOUS
 62
     0
 10
70.438756721068785
 20
14.79012711348798
 30
0.0
  0
VERTEX
  5
242C
  8
0
  6
CONTINUOUS
 62
     0
 10
70.444707244626727
 20
14.70226073058649
 30
0.0
  0
VERTEX
  5
242D
  8
0
  6
CONTINUOUS
 62
     0
 10
70.449761887128489
 20
14.614272976439279
 30
0.0
  0
VERTEX
  5
242E
  8
0
  6
CONTINUOUS
 62
     0
 10
70.457158603444043
 20
14.43780448682554
 30
0.0
  0
VERTEX
  5
242F
  8
0
  6
CONTINUOUS
 62
     0
 10
70.460889799512699
 20
14.26045871471899
 30
0.0
  0
VERTEX
  5
2430
  8
0
  6
CONTINUOUS
 62
     0
 10
70.46135972813596
 20
14.171372159473091
 30
0.0
  0
SEQEND
  5
2431
  8
0
  6
CONTINUOUS
 62
     0
  0
POLYLINE
  5
1DA4
  8
0
  6
CONTINUOUS
 62
     0
 66
     1
 10
0.0
 20
0.0
 30
0.0
  0
VERTEX
  5
2432
  8
0
  6
CONTINUOUS
 62
     0
 10
66.46135972813596
 20
14.171372159473091
 30
0.0
  0
VERTEX
  5
2433
  8
0
  6
CONTINUOUS
 62
     0
 10
66.461829656759221
 20
14.26045871471899
 30
0.0
  0
VERTEX
  5
2434
  8
0
  6
CONTINUOUS
 62
     0
 10
66.465560852827878
 20
14.43780448682554
 30
0.0
  0
VERTEX
  5
2435
  8
0
  6
CONTINUOUS
 62
     0
 10
66.472957569143375
 20
14.614272976439279
 30
0.0
  0
VERTEX
  5
2436
  8
0
  6
CONTINUOUS
 62
     0
 10
66.478012211645193
 20
14.70226073058649
 30
0.0
  0
VERTEX
  5
2437
  8
0
  6
CONTINUOUS
 62
     0
 10
66.483962735203079
 20
14.79012711348798
 30
0.0
  0
VERTEX
  5
2438
  8
0
  6
CONTINUOUS
 62
     0
 10
66.498530660633435
 20
14.965621948008961
 30
0.0
  0
VERTEX
  5
2439
  8
0
  6
CONTINUOUS
 62
     0
 10
66.516626505149702
 20
15.14100604841485
 30
0.0
  0
VERTEX
  5
243A
  8
0
  6
CONTINUOUS
 62
     0
 10
66.538225840355835
 20
15.31652281014248
 30
0.0
  0
VERTEX
  5
243B
  8
0
  6
CONTINUOUS
 62
     0
 10
66.563314295886471
 20
15.492411690471609
 30
0.0
  0
VERTEX
  5
243C
  8
0
  6
CONTINUOUS
 62
     0
 10
66.59188728376472
 20
15.66890938374479
 30
0.0
  0
VERTEX
  5
243D
  8
0
  6
CONTINUOUS
 62
     0
 10
66.607481667229806
 20
15.757460025226971
 30
0.0
  0
VERTEX
  5
243E
  8
0
  6
CONTINUOUS
 62
     0
 10
66.623949796060685
 20
15.84625094995903
 30
0.0
  0
VERTEX
  5
243F
  8
0
  6
CONTINUOUS
 62
     0
 10
66.659516272021278
 20
16.024670908699481
 30
0.0
  0
VERTEX
  5
2440
  8
0
  6
CONTINUOUS
 62
     0
 10
66.698610531831719
 20
16.204404309613889
 30
0.0
  0
VERTEX
  5
2441
  8
0
  6
CONTINUOUS
 62
     0
 10
66.741265775079285
 20
16.385687790058508
 30
0.0
  0
VERTEX
  5
2442
  8
0
  6
CONTINUOUS
 62
     0
 10
66.787524642851395
 20
16.568760630168811
 30
0.0
  0
VERTEX
  5
2443
  8
0
  6
CONTINUOUS
 62
     0
 10
66.837439343220694
 20
16.75386581539982
 30
0.0
  0
VERTEX
  5
2444
  8
0
  6
CONTINUOUS
 62
     0
 10
66.86378660691156
 20
16.847257748828721
 30
0.0
  0
VERTEX
  5
2445
  8
0
  6
CONTINUOUS
 62
     0
 10
66.891071840676716
 20
16.941251116546201
 30
0.0
  0
VERTEX
  5
2446
  8
0
  6
CONTINUOUS
 62
     0
 10
66.948494110867045
 20
17.131170197375749
 30
0.0
  0
VERTEX
  5
2447
  8
0
  6
CONTINUOUS
 62
     0
 10
67.009788462830386
 20
17.323883760299449
 30
0.0
  0
VERTEX
  5
2448
  8
0
  6
CONTINUOUS
 62
     0
 10
67.041916311736713
 20
17.421372159473091
 30
0.0
  0
SEQEND
  5
2449
  8
0
  6
CONTINUOUS
 62
     0
  0
POLYLINE
  5
1DA5
  8
0
  6
CONTINUOUS
 62
     0
 66
     1
 10
0.0
 20
0.0
 30
0.0
  0
VERTEX
  5
244A
  8
0
  6
CONTINUOUS
 62
     0
 10
67.041916311736713
 20
10.921372159473091
 30
0.0
  0
VERTEX
  5
244B
  8
0
  6
CONTINUOUS
 62
     0
 10
67.009788462830386
 20
11.018860558646731
 30
0.0
  0
VERTEX
  5
244C
  8
0
  6
CONTINUOUS
 62
     0
 10
66.948494110867045
 20
11.211574121570431
 30
0.0
  0
VERTEX
  5
244D
  8
0
  6
CONTINUOUS
 62
     0
 10
66.891071840676716
 20
11.40149320239999
 30
0.0
  0
VERTEX
  5
244E
  8
0
  6
CONTINUOUS
 62
     0
 10
66.86378660691156
 20
11.49548657011746
 30
0.0
  0
VERTEX
  5
244F
  8
0
  6
CONTINUOUS
 62
     0
 10
66.837439343220694
 20
11.58887850354637
 30
0.0
  0
VERTEX
  5
2450
  8
0
  6
CONTINUOUS
 62
     0
 10
66.787524642851395
 20
11.773983688777379
 30
0.0
  0
VERTEX
  5
2451
  8
0
  6
CONTINUOUS
 62
     0
 10
66.741265775079285
 20
11.957056528887669
 30
0.0
  0
VERTEX
  5
2452
  8
0
  6
CONTINUOUS
 62
     0
 10
66.698610531831719
 20
12.1383400093323
 30
0.0
  0
VERTEX
  5
2453
  8
0
  6
CONTINUOUS
 62
     0
 10
66.659516272021278
 20
12.31807341024671
 30
0.0
  0
VERTEX
  5
2454
  8
0
  6
CONTINUOUS
 62
     0
 10
66.623949796060685
 20
12.49649336898716
 30
0.0
  0
VERTEX
  5
2455
  8
0
  6
CONTINUOUS
 62
     0
 10
66.607481667229806
 20
12.58528429371921
 30
0.0
  0
VERTEX
  5
2456
  8
0
  6
CONTINUOUS
 62
     0
 10
66.59188728376472
 20
12.6738349352014
 30
0.0
  0
VERTEX
  5
2457
  8
0
  6
CONTINUOUS
 62
     0
 10
66.563314295886471
 20
12.85033262847457
 30
0.0
  0
VERTEX
  5
2458
  8
0
  6
CONTINUOUS
 62
     0
 10
66.538225840355835
 20
13.026221508803699
 30
0.0
  0
VERTEX
  5
2459
  8
0
  6
CONTINUOUS
 62
     0
 10
66.516626505149702
 20
13.20173827053134
 30
0.0
  0
VERTEX
  5
245A
  8
0
  6
CONTINUOUS
 62
     0
 10
66.498530660633435
 20
13.377122370937229
 30
0.0
  0
VERTEX
  5
245B
  8
0
  6
CONTINUOUS
 62
     0
 10
66.483962735203079
 20
13.552617205458199
 30
0.0
  0
VERTEX
  5
245C
  8
0
  6
CONTINUOUS
 62
     0
 10
66.478012211645193
 20
13.6404835883597
 30
0.0
  0
VERTEX
  5
245D
  8
0
  6
CONTINUOUS
 62
     0
 10
66.472957569143375
 20
13.7284713425069
 30
0.0
  0
VERTEX
  5
245E
  8
0
  6
CONTINUOUS
 62
     0
 10
66.465560852827878
 20
13.90493983212065
 30
0.0
  0
VERTEX
  5
245F
  8
0
  6
CONTINUOUS
 62
     0
 10
66.461829656759221
 20
14.08228560422719
 30
0.0
  0
VERTEX
  5
2460
  8
0
  6
CONTINUOUS
 62
     0
 10
66.46135972813596
 20
14.171372159473091
 30
0.0
  0
SEQEND
  5
2461
  8
0
  6
CONTINUOUS
 62
     0
  0
LINE
  5
1DA6
  8
0
  6
CONTINUOUS
 62
     0
 10
67.041916311736713
 20
10.921372159473091
 30
0.0
 11
69.88080314453515
 21
10.921372159473091
 31
0.0
  0
POLYLINE
  5
1DA7
  8
0
  6
CONTINUOUS
 62
     0
 66
     1
 10
0.0
 20
0.0
 30
0.0
  0
VERTEX
  5
2462
  8
0
  6
CONTINUOUS
 62
     0
 10
69.88080314453515
 20
10.921372159473091
 30
0.0
  0
VERTEX
  5
2463
  8
0
  6
CONTINUOUS
 62
     0
 10
69.912930993441535
 20
10.921372159473091
 30
0.0
  0
VERTEX
  5
2464
  8
0
  6
CONTINUOUS
 62
     0
 10
69.974225345404818
 20
10.921372159473091
 30
0.0
  0
VERTEX
  5
2465
  8
0
  6
CONTINUOUS
 62
     0
 10
70.031647615595134
 20
10.921372159473091
 30
0.0
  0
VERTEX
  5
2466
  8
0
  6
CONTINUOUS
 62
     0
 10
70.058932849360303
 20
10.921372159473091
 30
0.0
  0
VERTEX
  5
2467
  8
0
  6
CONTINUOUS
 62
     0
 10
70.085280113051155
 20
10.921372159473091
 30
0.0
  0
VERTEX
  5
2468
  8
0
  6
CONTINUOUS
 62
     0
 10
70.135194813420526
 20
10.921372159473091
 30
0.0
  0
VERTEX
  5
2469
  8
0
  6
CONTINUOUS
 62
     0
 10
70.181453681192636
 20
10.921372159473091
 30
0.0
  0
VERTEX
  5
246A
  8
0
  6
CONTINUOUS
 62
     0
 10
70.224108924440202
 20
10.921372159473091
 30
0.0
  0
VERTEX
  5
246B
  8
0
  6
CONTINUOUS
 62
     0
 10
70.263203184250585
 20
10.921372159473091
 30
0.0
  0
VERTEX
  5
246C
  8
0
  6
CONTINUOUS
 62
     0
 10
70.298769660211235
 20
10.921372159473091
 30
0.0
  0
VERTEX
  5
246D
  8
0
  6
CONTINUOUS
 62
     0
 10
70.315237789042044
 20
10.921372159473091
 30
0.0
  0
VERTEX
  5
246E
  8
0
  6
CONTINUOUS
 62
     0
 10
70.330832172507144
 20
10.921372159473091
 30
0.0
  0
VERTEX
  5
246F
  8
0
  6
CONTINUOUS
 62
     0
 10
70.359405160385393
 20
10.921372159473091
 30
0.0
  0
VERTEX
  5
2470
  8
0
  6
CONTINUOUS
 62
     0
 10
70.384493615916014
 20
10.921372159473091
 30
0.0
  0
VERTEX
  5
2471
  8
0
  6
CONTINUOUS
 62
     0
 10
70.406092951122162
 20
10.921372159473091
 30
0.0
  0
VERTEX
  5
2472
  8
0
  6
CONTINUOUS
 62
     0
 10
70.424188795638486
 20
10.921372159473091
 30
0.0
  0
VERTEX
  5
2473
  8
0
  6
CONTINUOUS
 62
     0
 10
70.438756721068785
 20
10.921372159473091
 30
0.0
  0
VERTEX
  5
2474
  8
0
  6
CONTINUOUS
 62
     0
 10
70.444707244626727
 20
10.921372159473091
 30
0.0
  0
VERTEX
  5
2475
  8
0
  6
CONTINUOUS
 62
     0
 10
70.449761887128489
 20
10.921372159473091
 30
0.0
  0
VERTEX
  5
2476
  8
0
  6
CONTINUOUS
 62
     0
 10
70.457158603444043
 20
10.921372159473091
 30
0.0
  0
VERTEX
  5
2477
  8
0
  6
CONTINUOUS
 62
     0
 10
70.460889799512699
 20
10.921372159473091
 30
0.0
  0
VERTEX
  5
2478
  8
0
  6
CONTINUOUS
 62
     0
 10
70.46135972813596
 20
10.921372159473091
 30
0.0
  0
SEQEND
  5
2479
  8
0
  6
CONTINUOUS
 62
     0
  0
POLYLINE
  5
1DA8
  8
0
  6
CONTINUOUS
 62
     0
 66
     1
 10
0.0
 20
0.0
 30
0.0
  0
VERTEX
  5
247A
  8
0
  6
CONTINUOUS
 62
     0
 10
66.46135972813596
 20
10.921372159473091
 30
0.0
  0
VERTEX
  5
247B
  8
0
  6
CONTINUOUS
 62
     0
 10
66.461829656759221
 20
10.921372159473091
 30
0.0
  0
VERTEX
  5
247C
  8
0
  6
CONTINUOUS
 62
     0
 10
66.465560852827878
 20
10.921372159473091
 30
0.0
  0
VERTEX
  5
247D
  8
0
  6
CONTINUOUS
 62
     0
 10
66.472957569143375
 20
10.921372159473091
 30
0.0
  0
VERTEX
  5
247E
  8
0
  6
CONTINUOUS
 62
     0
 10
66.478012211645193
 20
10.921372159473091
 30
0.0
  0
VERTEX
  5
247F
  8
0
  6
CONTINUOUS
 62
     0
 10
66.483962735203079
 20
10.921372159473091
 30
0.0
  0
VERTEX
  5
2480
  8
0
  6
CONTINUOUS
 62
     0
 10
66.498530660633435
 20
10.921372159473091
 30
0.0
  0
VERTEX
  5
2481
  8
0
  6
CONTINUOUS
 62
     0
 10
66.516626505149702
 20
10.921372159473091
 30
0.0
  0
VERTEX
  5
2482
  8
0
  6
CONTINUOUS
 62
     0
 10
66.538225840355835
 20
10.921372159473091
 30
0.0
  0
VERTEX
  5
2483
  8
0
  6
CONTINUOUS
 62
     0
 10
66.563314295886471
 20
10.921372159473091
 30
0.0
  0
VERTEX
  5
2484
  8
0
  6
CONTINUOUS
 62
     0
 10
66.59188728376472
 20
10.921372159473091
 30
0.0
  0
VERTEX
  5
2485
  8
0
  6
CONTINUOUS
 62
     0
 10
66.607481667229806
 20
10.921372159473091
 30
0.0
  0
VERTEX
  5
2486
  8
0
  6
CONTINUOUS
 62
     0
 10
66.623949796060685
 20
10.921372159473091
 30
0.0
  0
VERTEX
  5
2487
  8
0
  6
CONTINUOUS
 62
     0
 10
66.659516272021278
 20
10.921372159473091
 30
0.0
  0
VERTEX
  5
2488
  8
0
  6
CONTINUOUS
 62
     0
 10
66.698610531831719
 20
10.921372159473091
 30
0.0
  0
VERTEX
  5
2489
  8
0
  6
CONTINUOUS
 62
     0
 10
66.741265775079285
 20
10.921372159473091
 30
0.0
  0
VERTEX
  5
248A
  8
0
  6
CONTINUOUS
 62
     0
 10
66.787524642851395
 20
10.921372159473091
 30
0.0
  0
VERTEX
  5
248B
  8
0
  6
CONTINUOUS
 62
     0
 10
66.837439343220694
 20
10.921372159473091
 30
0.0
  0
VERTEX
  5
248C
  8
0
  6
CONTINUOUS
 62
     0
 10
66.86378660691156
 20
10.921372159473091
 30
0.0
  0
VERTEX
  5
248D
  8
0
  6
CONTINUOUS
 62
     0
 10
66.891071840676716
 20
10.921372159473091
 30
0.0
  0
VERTEX
  5
248E
  8
0
  6
CONTINUOUS
 62
     0
 10
66.948494110867045
 20
10.921372159473091
 30
0.0
  0
VERTEX
  5
248F
  8
0
  6
CONTINUOUS
 62
     0
 10
67.009788462830386
 20
10.921372159473091
 30
0.0
  0
VERTEX
  5
2490
  8
0
  6
CONTINUOUS
 62
     0
 10
67.041916311736713
 20
10.921372159473091
 30
0.0
  0
SEQEND
  5
2491
  8
0
  6
CONTINUOUS
 62
     0
  0
POLYLINE
  5
1DA9
  8
0
  6
CONTINUOUS
 62
     0
 66
     1
 10
0.0
 20
0.0
 30
0.0
  0
VERTEX
  5
2492
  8
0
  6
CONTINUOUS
 62
     0
 10
70.46135972813596
 20
14.171372159473091
 30
0.0
  0
VERTEX
  5
2493
  8
0
  6
CONTINUOUS
 62
     0
 10
70.460889799512699
 20
14.26045871471899
 30
0.0
  0
VERTEX
  5
2494
  8
0
  6
CONTINUOUS
 62
     0
 10
70.457158603444043
 20
14.43780448682554
 30
0.0
  0
VERTEX
  5
2495
  8
0
  6
CONTINUOUS
 62
     0
 10
70.449761887128489
 20
14.614272976439279
 30
0.0
  0
VERTEX
  5
2496
  8
0
  6
CONTINUOUS
 62
     0
 10
70.444707244626727
 20
14.70226073058649
 30
0.0
  0
VERTEX
  5
2497
  8
0
  6
CONTINUOUS
 62
     0
 10
70.438756721068785
 20
14.79012711348798
 30
0.0
  0
VERTEX
  5
2498
  8
0
  6
CONTINUOUS
 62
     0
 10
70.424188795638486
 20
14.965621948008961
 30
0.0
  0
VERTEX
  5
2499
  8
0
  6
CONTINUOUS
 62
     0
 10
70.406092951122162
 20
15.14100604841485
 30
0.0
  0
VERTEX
  5
249A
  8
0
  6
CONTINUOUS
 62
     0
 10
70.384493615916014
 20
15.31652281014248
 30
0.0
  0
VERTEX
  5
249B
  8
0
  6
CONTINUOUS
 62
     0
 10
70.359405160385393
 20
15.492411690471609
 30
0.0
  0
VERTEX
  5
249C
  8
0
  6
CONTINUOUS
 62
     0
 10
70.330832172507144
 20
15.66890938374479
 30
0.0
  0
VERTEX
  5
249D
  8
0
  6
CONTINUOUS
 62
     0
 10
70.315237789042044
 20
15.757460025226971
 30
0.0
  0
VERTEX
  5
249E
  8
0
  6
CONTINUOUS
 62
     0
 10
70.298769660211235
 20
15.84625094995903
 30
0.0
  0
VERTEX
  5
249F
  8
0
  6
CONTINUOUS
 62
     0
 10
70.263203184250585
 20
16.02467090869953
 30
0.0
  0
VERTEX
  5
24A0
  8
0
  6
CONTINUOUS
 62
     0
 10
70.224108924440202
 20
16.204404309613889
 30
0.0
  0
VERTEX
  5
24A1
  8
0
  6
CONTINUOUS
 62
     0
 10
70.181453681192636
 20
16.385687790058508
 30
0.0
  0
VERTEX
  5
24A2
  8
0
  6
CONTINUOUS
 62
     0
 10
70.135194813420526
 20
16.568760630168811
 30
0.0
  0
VERTEX
  5
24A3
  8
0
  6
CONTINUOUS
 62
     0
 10
70.085280113051155
 20
16.75386581539982
 30
0.0
  0
VERTEX
  5
24A4
  8
0
  6
CONTINUOUS
 62
     0
 10
70.058932849360303
 20
16.847257748828721
 30
0.0
  0
VERTEX
  5
24A5
  8
0
  6
CONTINUOUS
 62
     0
 10
70.031647615595134
 20
16.941251116546201
 30
0.0
  0
VERTEX
  5
24A6
  8
0
  6
CONTINUOUS
 62
     0
 10
69.974225345404818
 20
17.131170197375749
 30
0.0
  0
VERTEX
  5
24A7
  8
0
  6
CONTINUOUS
 62
     0
 10
69.912930993441535
 20
17.323883760299449
 30
0.0
  0
VERTEX
  5
24A8
  8
0
  6
CONTINUOUS
 62
     0
 10
69.88080314453515
 20
17.421372159473091
 30
0.0
  0
SEQEND
  5
24A9
  8
0
  6
CONTINUOUS
 62
     0
  0
POLYLINE
  5
1DAA
  8
0
  6
CONTINUOUS
 62
     0
 66
     1
 10
0.0
 20
0.0
 30
0.0
  0
VERTEX
  5
24AA
  8
0
  6
CONTINUOUS
 62
     0
 10
69.88080314453515
 20
10.921372159473091
 30
0.0
  0
VERTEX
  5
24AB
  8
0
  6
CONTINUOUS
 62
     0
 10
69.912930993441535
 20
11.018860558646731
 30
0.0
  0
VERTEX
  5
24AC
  8
0
  6
CONTINUOUS
 62
     0
 10
69.974225345404818
 20
11.211574121570431
 30
0.0
  0
VERTEX
  5
24AD
  8
0
  6
CONTINUOUS
 62
     0
 10
70.031647615595134
 20
11.40149320239999
 30
0.0
  0
VERTEX
  5
24AE
  8
0
  6
CONTINUOUS
 62
     0
 10
70.058932849360303
 20
11.49548657011746
 30
0.0
  0
VERTEX
  5
24AF
  8
0
  6
CONTINUOUS
 62
     0
 10
70.085280113051155
 20
11.58887850354637
 30
0.0
  0
VERTEX
  5
24B0
  8
0
  6
CONTINUOUS
 62
     0
 10
70.135194813420526
 20
11.773983688777379
 30
0.0
  0
VERTEX
  5
24B1
  8
0
  6
CONTINUOUS
 62
     0
 10
70.181453681192636
 20
11.957056528887669
 30
0.0
  0
VERTEX
  5
24B2
  8
0
  6
CONTINUOUS
 62
     0
 10
70.224108924440202
 20
12.1383400093323
 30
0.0
  0
VERTEX
  5
24B3
  8
0
  6
CONTINUOUS
 62
     0
 10
70.263203184250585
 20
12.318073410246649
 30
0.0
  0
VERTEX
  5
24B4
  8
0
  6
CONTINUOUS
 62
     0
 10
70.298769660211235
 20
12.49649336898716
 30
0.0
  0
VERTEX
  5
24B5
  8
0
  6
CONTINUOUS
 62
     0
 10
70.315237789042044
 20
12.58528429371921
 30
0.0
  0
VERTEX
  5
24B6
  8
0
  6
CONTINUOUS
 62
     0
 10
70.330832172507144
 20
12.6738349352014
 30
0.0
  0
VERTEX
  5
24B7
  8
0
  6
CONTINUOUS
 62
     0
 10
70.359405160385393
 20
12.85033262847457
 30
0.0
  0
VERTEX
  5
24B8
  8
0
  6
CONTINUOUS
 62
     0
 10
70.384493615916014
 20
13.026221508803699
 30
0.0
  0
VERTEX
  5
24B9
  8
0
  6
CONTINUOUS
 62
     0
 10
70.406092951122162
 20
13.20173827053134
 30
0.0
  0
VERTEX
  5
24BA
  8
0
  6
CONTINUOUS
 62
     0
 10
70.424188795638486
 20
13.377122370937229
 30
0.0
  0
VERTEX
  5
24BB
  8
0
  6
CONTINUOUS
 62
     0
 10
70.438756721068785
 20
13.552617205458199
 30
0.0
  0
VERTEX
  5
24BC
  8
0
  6
CONTINUOUS
 62
     0
 10
70.444707244626727
 20
13.6404835883597
 30
0.0
  0
VERTEX
  5
24BD
  8
0
  6
CONTINUOUS
 62
     0
 10
70.449761887128489
 20
13.7284713425069
 30
0.0
  0
VERTEX
  5
24BE
  8
0
  6
CONTINUOUS
 62
     0
 10
70.457158603444043
 20
13.90493983212065
 30
0.0
  0
VERTEX
  5
24BF
  8
0
  6
CONTINUOUS
 62
     0
 10
70.460889799512699
 20
14.08228560422719
 30
0.0
  0
VERTEX
  5
24C0
  8
0
  6
CONTINUOUS
 62
     0
 10
70.46135972813596
 20
14.171372159473091
 30
0.0
  0
SEQEND
  5
24C1
  8
0
  6
CONTINUOUS
 62
     0
  0
POLYLINE
  5
1DAB
  8
0
  6
CONTINUOUS
 62
     0
 66
     1
 10
0.0
 20
0.0
 30
0.0
  0
VERTEX
  5
24C2
  8
0
  6
CONTINUOUS
 62
     0
 10
66.46135972813596
 20
14.171372159473091
 30
0.0
  0
VERTEX
  5
24C3
  8
0
  6
CONTINUOUS
 62
     0
 10
66.461829656759221
 20
14.08228560422719
 30
0.0
  0
VERTEX
  5
24C4
  8
0
  6
CONTINUOUS
 62
     0
 10
66.465560852827878
 20
13.90493983212065
 30
0.0
  0
VERTEX
  5
24C5
  8
0
  6
CONTINUOUS
 62
     0
 10
66.472957569143375
 20
13.7284713425069
 30
0.0
  0
VERTEX
  5
24C6
  8
0
  6
CONTINUOUS
 62
     0
 10
66.478012211645193
 20
13.6404835883597
 30
0.0
  0
VERTEX
  5
24C7
  8
0
  6
CONTINUOUS
 62
     0
 10
66.483962735203079
 20
13.552617205458199
 30
0.0
  0
VERTEX
  5
24C8
  8
0
  6
CONTINUOUS
 62
     0
 10
66.498530660633435
 20
13.377122370937229
 30
0.0
  0
VERTEX
  5
24C9
  8
0
  6
CONTINUOUS
 62
     0
 10
66.516626505149702
 20
13.20173827053134
 30
0.0
  0
VERTEX
  5
24CA
  8
0
  6
CONTINUOUS
 62
     0
 10
66.538225840355835
 20
13.026221508803699
 30
0.0
  0
VERTEX
  5
24CB
  8
0
  6
CONTINUOUS
 62
     0
 10
66.563314295886471
 20
12.85033262847457
 30
0.0
  0
VERTEX
  5
24CC
  8
0
  6
CONTINUOUS
 62
     0
 10
66.59188728376472
 20
12.6738349352014
 30
0.0
  0
VERTEX
  5
24CD
  8
0
  6
CONTINUOUS
 62
     0
 10
66.607481667229806
 20
12.58528429371921
 30
0.0
  0
VERTEX
  5
24CE
  8
0
  6
CONTINUOUS
 62
     0
 10
66.623949796060685
 20
12.49649336898716
 30
0.0
  0
VERTEX
  5
24CF
  8
0
  6
CONTINUOUS
 62
     0
 10
66.659516272021278
 20
12.31807341024671
 30
0.0
  0
VERTEX
  5
24D0
  8
0
  6
CONTINUOUS
 62
     0
 10
66.698610531831719
 20
12.138340009332349
 30
0.0
  0
VERTEX
  5
24D1
  8
0
  6
CONTINUOUS
 62
     0
 10
66.741265775079285
 20
11.957056528887669
 30
0.0
  0
VERTEX
  5
24D2
  8
0
  6
CONTINUOUS
 62
     0
 10
66.787524642851395
 20
11.773983688777379
 30
0.0
  0
VERTEX
  5
24D3
  8
0
  6
CONTINUOUS
 62
     0
 10
66.837439343220694
 20
11.58887850354637
 30
0.0
  0
VERTEX
  5
24D4
  8
0
  6
CONTINUOUS
 62
     0
 10
66.86378660691156
 20
11.49548657011746
 30
0.0
  0
VERTEX
  5
24D5
  8
0
  6
CONTINUOUS
 62
     0
 10
66.891071840676716
 20
11.40149320239999
 30
0.0
  0
VERTEX
  5
24D6
  8
0
  6
CONTINUOUS
 62
     0
 10
66.948494110867045
 20
11.211574121570431
 30
0.0
  0
VERTEX
  5
24D7
  8
0
  6
CONTINUOUS
 62
     0
 10
67.009788462830386
 20
11.018860558646731
 30
0.0
  0
VERTEX
  5
24D8
  8
0
  6
CONTINUOUS
 62
     0
 10
67.041916311736713
 20
10.921372159473091
 30
0.0
  0
SEQEND
  5
24D9
  8
0
  6
CONTINUOUS
 62
     0
  0
POLYLINE
  5
1DAC
  8
0
  6
CONTINUOUS
 62
     0
 66
     1
 10
0.0
 20
0.0
 30
0.0
  0
VERTEX
  5
24DA
  8
0
  6
CONTINUOUS
 62
     0
 10
67.041916311736713
 20
17.421372159473091
 30
0.0
  0
VERTEX
  5
24DB
  8
0
  6
CONTINUOUS
 62
     0
 10
67.009788462830386
 20
17.323883760299449
 30
0.0
  0
VERTEX
  5
24DC
  8
0
  6
CONTINUOUS
 62
     0
 10
66.948494110867045
 20
17.131170197375749
 30
0.0
  0
VERTEX
  5
24DD
  8
0
  6
CONTINUOUS
 62
     0
 10
66.891071840676716
 20
16.941251116546201
 30
0.0
  0
VERTEX
  5
24DE
  8
0
  6
CONTINUOUS
 62
     0
 10
66.86378660691156
 20
16.847257748828721
 30
0.0
  0
VERTEX
  5
24DF
  8
0
  6
CONTINUOUS
 62
     0
 10
66.837439343220694
 20
16.75386581539982
 30
0.0
  0
VERTEX
  5
24E0
  8
0
  6
CONTINUOUS
 62
     0
 10
66.787524642851395
 20
16.568760630168811
 30
0.0
  0
VERTEX
  5
24E1
  8
0
  6
CONTINUOUS
 62
     0
 10
66.741265775079285
 20
16.385687790058508
 30
0.0
  0
VERTEX
  5
24E2
  8
0
  6
CONTINUOUS
 62
     0
 10
66.698610531831719
 20
16.204404309613889
 30
0.0
  0
VERTEX
  5
24E3
  8
0
  6
CONTINUOUS
 62
     0
 10
66.659516272021278
 20
16.024670908699481
 30
0.0
  0
VERTEX
  5
24E4
  8
0
  6
CONTINUOUS
 62
     0
 10
66.623949796060685
 20
15.84625094995903
 30
0.0
  0
VERTEX
  5
24E5
  8
0
  6
CONTINUOUS
 62
     0
 10
66.607481667229806
 20
15.757460025226971
 30
0.0
  0
VERTEX
  5
24E6
  8
0
  6
CONTINUOUS
 62
     0
 10
66.59188728376472
 20
15.66890938374479
 30
0.0
  0
VERTEX
  5
24E7
  8
0
  6
CONTINUOUS
 62
     0
 10
66.563314295886471
 20
15.492411690471609
 30
0.0
  0
VERTEX
  5
24E8
  8
0
  6
CONTINUOUS
 62
     0
 10
66.538225840355835
 20
15.31652281014248
 30
0.0
  0
VERTEX
  5
24E9
  8
0
  6
CONTINUOUS
 62
     0
 10
66.516626505149702
 20
15.14100604841485
 30
0.0
  0
VERTEX
  5
24EA
  8
0
  6
CONTINUOUS
 62
     0
 10
66.498530660633435
 20
14.965621948008961
 30
0.0
  0
VERTEX
  5
24EB
  8
0
  6
CONTINUOUS
 62
     0
 10
66.483962735203079
 20
14.79012711348798
 30
0.0
  0
VERTEX
  5
24EC
  8
0
  6
CONTINUOUS
 62
     0
 10
66.478012211645193
 20
14.70226073058649
 30
0.0
  0
VERTEX
  5
24ED
  8
0
  6
CONTINUOUS
 62
     0
 10
66.472957569143375
 20
14.614272976439279
 30
0.0
  0
VERTEX
  5
24EE
  8
0
  6
CONTINUOUS
 62
     0
 10
66.465560852827878
 20
14.43780448682554
 30
0.0
  0
VERTEX
  5
24EF
  8
0
  6
CONTINUOUS
 62
     0
 10
66.461829656759221
 20
14.26045871471899
 30
0.0
  0
VERTEX
  5
24F0
  8
0
  6
CONTINUOUS
 62
     0
 10
66.46135972813596
 20
14.171372159473091
 30
0.0
  0
SEQEND
  5
24F1
  8
0
  6
CONTINUOUS
 62
     0
  0
LINE
  5
1DAD
  8
0
  6
CONTINUOUS
 62
     0
 10
70.46135972813596
 20
23.921372159473091
 30
0.0
 11
70.46135972813596
 21
10.921372159473091
 31
0.0
  0
LINE
  5
1DAE
  8
0
  6
CONTINUOUS
 62
     0
 10
66.46135972813596
 20
23.921372159473091
 30
0.0
 11
66.46135972813596
 21
10.921372159473091
 31
0.0
  0
LINE
  5
1DAF
  8
0
  6
CONTINUOUS
 62
     0
 10
77.014777740750731
 20
17.421372159473091
 30
0.0
 11
71.46135972813596
 21
17.421372159473091
 31
0.0
  0
POLYLINE
  5
1DB0
  8
0
  6
CONTINUOUS
 62
     0
 66
     1
 10
0.0
 20
0.0
 30
0.0
  0
VERTEX
  5
24F2
  8
0
  6
CONTINUOUS
 62
     0
 10
77.46135972813596
 20
19.921372159473091
 30
0.0
  0
VERTEX
  5
24F3
  8
0
  6
CONTINUOUS
 62
     0
 10
77.461001093553136
 20
19.85311463766709
 30
0.0
  0
VERTEX
  5
24F4
  8
0
  6
CONTINUOUS
 62
     0
 10
77.458152042102142
 20
19.71718544418189
 30
0.0
  0
VERTEX
  5
24F5
  8
0
  6
CONTINUOUS
 62
     0
 10
77.452500278526884
 20
19.581866300125512
 30
0.0
  0
VERTEX
  5
24F6
  8
0
  6
CONTINUOUS
 62
     0
 10
77.448636147420871
 20
19.514372880254989
 30
0.0
  0
VERTEX
  5
24F7
  8
0
  6
CONTINUOUS
 62
     0
 10
77.444085575583074
 20
19.446957556120712
 30
0.0
  0
VERTEX
  5
24F8
  8
0
  6
CONTINUOUS
 62
     0
 10
77.432939152446053
 20
19.312265027196869
 30
0.0
  0
VERTEX
  5
24F9
  8
0
  6
CONTINUOUS
 62
     0
 10
77.419084039552047
 20
19.17759895459562
 30
0.0
  0
VERTEX
  5
24FA
  8
0
  6
CONTINUOUS
 62
     0
 10
77.402535376150979
 20
19.042773028713331
 30
0.0
  0
VERTEX
  5
24FB
  8
0
  6
CONTINUOUS
 62
     0
 10
77.383300645635074
 20
18.90760346177149
 30
0.0
  0
VERTEX
  5
24FC
  8
0
  6
CONTINUOUS
 62
     0
 10
77.361379852729954
 20
18.771908099845401
 30
0.0
  0
VERTEX
  5
24FD
  8
0
  6
CONTINUOUS
 62
     0
 10
77.349410170584576
 20
18.70380655776631
 30
0.0
  0
VERTEX
  5
24FE
  8
0
  6
CONTINUOUS
 62
     0
 10
77.336765645762114
 20
18.635505564712901
 30
0.0
  0
VERTEX
  5
24FF
  8
0
  6
CONTINUOUS
 62
     0
 10
77.309443386428256
 20
18.498214416632209
 30
0.0
  0
VERTEX
  5
2500
  8
0
  6
CONTINUOUS
 62
     0
 10
77.279391168762515
 20
18.35985232963986
 30
0.0
  0
VERTEX
  5
2501
  8
0
  6
CONTINUOUS
 62
     0
 10
77.246579788316978
 20
18.220235271291639
 30
0.0
  0
VERTEX
  5
2502
  8
0
  6
CONTINUOUS
 62
     0
 10
77.21097266192055
 20
18.079176678963051
 30
0.0
  0
VERTEX
  5
2503
  8
0
  6
CONTINUOUS
 62
     0
 10
77.17252569774746
 20
17.936486624887721
 30
0.0
  0
VERTEX
  5
2504
  8
0
  6
CONTINUOUS
 62
     0
 10
77.152221401287022
 20
17.864469317442278
 30
0.0
  0
VERTEX
  5
2505
  8
0
  6
CONTINUOUS
 62
     0
 10
77.131187114798138
 20
17.79197096204387
 30
0.0
  0
VERTEX
  5
2506
  8
0
  6
CONTINUOUS
 62
     0
 10
77.086897210253994
 20
17.645430442801789
 30
0.0
  0
VERTEX
  5
2507
  8
0
  6
CONTINUOUS
 62
     0
 10
77.039588072510526
 20
17.49665980192054
 30
0.0
  0
VERTEX
  5
2508
  8
0
  6
CONTINUOUS
 62
     0
 10
77.014777740750731
 20
17.421372159473091
 30
0.0
  0
SEQEND
  5
2509
  8
0
  6
CONTINUOUS
 62
     0
  0
POLYLINE
  5
1DB1
  8
0
  6
CONTINUOUS
 62
     0
 66
     1
 10
0.0
 20
0.0
 30
0.0
  0
VERTEX
  5
250A
  8
0
  6
CONTINUOUS
 62
     0
 10
77.014777740750731
 20
22.421372159473091
 30
0.0
  0
VERTEX
  5
250B
  8
0
  6
CONTINUOUS
 62
     0
 10
77.039588072510526
 20
22.346084517025641
 30
0.0
  0
VERTEX
  5
250C
  8
0
  6
CONTINUOUS
 62
     0
 10
77.086897210253994
 20
22.197313876144388
 30
0.0
  0
VERTEX
  5
250D
  8
0
  6
CONTINUOUS
 62
     0
 10
77.131187114798138
 20
22.050773356902312
 30
0.0
  0
VERTEX
  5
250E
  8
0
  6
CONTINUOUS
 62
     0
 10
77.152221401287022
 20
21.978275001503899
 30
0.0
  0
VERTEX
  5
250F
  8
0
  6
CONTINUOUS
 62
     0
 10
77.17252569774746
 20
21.906257694058411
 30
0.0
  0
VERTEX
  5
2510
  8
0
  6
CONTINUOUS
 62
     0
 10
77.21097266192055
 20
21.76356763998314
 30
0.0
  0
VERTEX
  5
2511
  8
0
  6
CONTINUOUS
 62
     0
 10
77.246579788316978
 20
21.62250904765455
 30
0.0
  0
VERTEX
  5
2512
  8
0
  6
CONTINUOUS
 62
     0
 10
77.279391168762515
 20
21.482891989306321
 30
0.0
  0
VERTEX
  5
2513
  8
0
  6
CONTINUOUS
 62
     0
 10
77.309443386428256
 20
21.34452990231398
 30
0.0
  0
VERTEX
  5
2514
  8
0
  6
CONTINUOUS
 62
     0
 10
77.336765645762114
 20
21.207238754233291
 30
0.0
  0
VERTEX
  5
2515
  8
0
  6
CONTINUOUS
 62
     0
 10
77.349410170584576
 20
21.138937761179822
 30
0.0
  0
VERTEX
  5
2516
  8
0
  6
CONTINUOUS
 62
     0
 10
77.361379852729954
 20
21.07083621910073
 30
0.0
  0
VERTEX
  5
2517
  8
0
  6
CONTINUOUS
 62
     0
 10
77.383300645635074
 20
20.935140857174648
 30
0.0
  0
VERTEX
  5
2518
  8
0
  6
CONTINUOUS
 62
     0
 10
77.402535376150979
 20
20.799971290232861
 30
0.0
  0
VERTEX
  5
2519
  8
0
  6
CONTINUOUS
 62
     0
 10
77.419084039552047
 20
20.665145364350568
 30
0.0
  0
VERTEX
  5
251A
  8
0
  6
CONTINUOUS
 62
     0
 10
77.432939152446053
 20
20.530479291749309
 30
0.0
  0
VERTEX
  5
251B
  8
0
  6
CONTINUOUS
 62
     0
 10
77.444085575583074
 20
20.39578676282548
 30
0.0
  0
VERTEX
  5
251C
  8
0
  6
CONTINUOUS
 62
     0
 10
77.448636147420871
 20
20.328371438691189
 30
0.0
  0
VERTEX
  5
251D
  8
0
  6
CONTINUOUS
 62
     0
 10
77.452500278526884
 20
20.26087801882068
 30
0.0
  0
VERTEX
  5
251E
  8
0
  6
CONTINUOUS
 62
     0
 10
77.458152042102142
 20
20.125558874764291
 30
0.0
  0
VERTEX
  5
251F
  8
0
  6
CONTINUOUS
 62
     0
 10
77.461001093553136
 20
19.989629681279101
 30
0.0
  0
VERTEX
  5
2520
  8
0
  6
CONTINUOUS
 62
     0
 10
77.46135972813596
 20
19.921372159473091
 30
0.0
  0
SEQEND
  5
2521
  8
0
  6
CONTINUOUS
 62
     0
  0
LINE
  5
1DB2
  8
0
  6
CONTINUOUS
 62
     0
 10
77.014777740750731
 20
22.421372159473091
 30
0.0
 11
71.46135972813596
 21
22.421372159473091
 31
0.0
  0
POLYLINE
  5
1DB3
  8
0
  6
CONTINUOUS
 62
     0
 66
     1
 10
0.0
 20
0.0
 30
0.0
  0
VERTEX
  5
2522
  8
0
  6
CONTINUOUS
 62
     0
 10
77.46135972813596
 20
19.921372159473091
 30
0.0
  0
VERTEX
  5
2523
  8
0
  6
CONTINUOUS
 62
     0
 10
77.461001093553136
 20
19.989629681279101
 30
0.0
  0
VERTEX
  5
2524
  8
0
  6
CONTINUOUS
 62
     0
 10
77.458152042102142
 20
20.125558874764291
 30
0.0
  0
VERTEX
  5
2525
  8
0
  6
CONTINUOUS
 62
     0
 10
77.452500278526884
 20
20.26087801882068
 30
0.0
  0
VERTEX
  5
2526
  8
0
  6
CONTINUOUS
 62
     0
 10
77.448636147420871
 20
20.328371438691189
 30
0.0
  0
VERTEX
  5
2527
  8
0
  6
CONTINUOUS
 62
     0
 10
77.444085575583074
 20
20.39578676282548
 30
0.0
  0
VERTEX
  5
2528
  8
0
  6
CONTINUOUS
 62
     0
 10
77.432939152446053
 20
20.530479291749309
 30
0.0
  0
VERTEX
  5
2529
  8
0
  6
CONTINUOUS
 62
     0
 10
77.419084039552047
 20
20.665145364350568
 30
0.0
  0
VERTEX
  5
252A
  8
0
  6
CONTINUOUS
 62
     0
 10
77.402535376150979
 20
20.799971290232861
 30
0.0
  0
VERTEX
  5
252B
  8
0
  6
CONTINUOUS
 62
     0
 10
77.383300645635074
 20
20.935140857174702
 30
0.0
  0
VERTEX
  5
252C
  8
0
  6
CONTINUOUS
 62
     0
 10
77.361379852729954
 20
21.07083621910073
 30
0.0
  0
VERTEX
  5
252D
  8
0
  6
CONTINUOUS
 62
     0
 10
77.349410170584576
 20
21.138937761179822
 30
0.0
  0
VERTEX
  5
252E
  8
0
  6
CONTINUOUS
 62
     0
 10
77.336765645762114
 20
21.207238754233291
 30
0.0
  0
VERTEX
  5
252F
  8
0
  6
CONTINUOUS
 62
     0
 10
77.309443386428256
 20
21.34452990231398
 30
0.0
  0
VERTEX
  5
2530
  8
0
  6
CONTINUOUS
 62
     0
 10
77.279391168762515
 20
21.482891989306321
 30
0.0
  0
VERTEX
  5
2531
  8
0
  6
CONTINUOUS
 62
     0
 10
77.246579788316978
 20
21.62250904765455
 30
0.0
  0
VERTEX
  5
2532
  8
0
  6
CONTINUOUS
 62
     0
 10
77.21097266192055
 20
21.76356763998314
 30
0.0
  0
VERTEX
  5
2533
  8
0
  6
CONTINUOUS
 62
     0
 10
77.17252569774746
 20
21.906257694058411
 30
0.0
  0
VERTEX
  5
2534
  8
0
  6
CONTINUOUS
 62
     0
 10
77.152221401287022
 20
21.978275001503899
 30
0.0
  0
VERTEX
  5
2535
  8
0
  6
CONTINUOUS
 62
     0
 10
77.131187114798138
 20
22.050773356902312
 30
0.0
  0
VERTEX
  5
2536
  8
0
  6
CONTINUOUS
 62
     0
 10
77.086897210253994
 20
22.197313876144388
 30
0.0
  0
VERTEX
  5
2537
  8
0
  6
CONTINUOUS
 62
     0
 10
77.039588072510526
 20
22.346084517025641
 30
0.0
  0
VERTEX
  5
2538
  8
0
  6
CONTINUOUS
 62
     0
 10
77.014777740750731
 20
22.421372159473091
 30
0.0
  0
SEQEND
  5
2539
  8
0
  6
CONTINUOUS
 62
     0
  0
POLYLINE
  5
1DB4
  8
0
  6
CONTINUOUS
 62
     0
 66
     1
 10
0.0
 20
0.0
 30
0.0
  0
VERTEX
  5
253A
  8
0
  6
CONTINUOUS
 62
     0
 10
77.014777740750731
 20
17.421372159473091
 30
0.0
  0
VERTEX
  5
253B
  8
0
  6
CONTINUOUS
 62
     0
 10
77.039588072510526
 20
17.49665980192054
 30
0.0
  0
VERTEX
  5
253C
  8
0
  6
CONTINUOUS
 62
     0
 10
77.086897210253994
 20
17.645430442801789
 30
0.0
  0
VERTEX
  5
253D
  8
0
  6
CONTINUOUS
 62
     0
 10
77.131187114798138
 20
17.79197096204387
 30
0.0
  0
VERTEX
  5
253E
  8
0
  6
CONTINUOUS
 62
     0
 10
77.152221401287022
 20
17.864469317442278
 30
0.0
  0
VERTEX
  5
253F
  8
0
  6
CONTINUOUS
 62
     0
 10
77.17252569774746
 20
17.936486624887721
 30
0.0
  0
VERTEX
  5
2540
  8
0
  6
CONTINUOUS
 62
     0
 10
77.21097266192055
 20
18.079176678963051
 30
0.0
  0
VERTEX
  5
2541
  8
0
  6
CONTINUOUS
 62
     0
 10
77.246579788316978
 20
18.220235271291639
 30
0.0
  0
VERTEX
  5
2542
  8
0
  6
CONTINUOUS
 62
     0
 10
77.279391168762515
 20
18.35985232963986
 30
0.0
  0
VERTEX
  5
2543
  8
0
  6
CONTINUOUS
 62
     0
 10
77.309443386428256
 20
18.498214416632148
 30
0.0
  0
VERTEX
  5
2544
  8
0
  6
CONTINUOUS
 62
     0
 10
77.336765645762114
 20
18.635505564712901
 30
0.0
  0
VERTEX
  5
2545
  8
0
  6
CONTINUOUS
 62
     0
 10
77.349410170584576
 20
18.70380655776631
 30
0.0
  0
VERTEX
  5
2546
  8
0
  6
CONTINUOUS
 62
     0
 10
77.361379852729954
 20
18.771908099845401
 30
0.0
  0
VERTEX
  5
2547
  8
0
  6
CONTINUOUS
 62
     0
 10
77.383300645635074
 20
18.90760346177149
 30
0.0
  0
VERTEX
  5
2548
  8
0
  6
CONTINUOUS
 62
     0
 10
77.402535376150979
 20
19.042773028713331
 30
0.0
  0
VERTEX
  5
2549
  8
0
  6
CONTINUOUS
 62
     0
 10
77.419084039552047
 20
19.17759895459562
 30
0.0
  0
VERTEX
  5
254A
  8
0
  6
CONTINUOUS
 62
     0
 10
77.432939152446053
 20
19.312265027196869
 30
0.0
  0
VERTEX
  5
254B
  8
0
  6
CONTINUOUS
 62
     0
 10
77.444085575583074
 20
19.446957556120712
 30
0.0
  0
VERTEX
  5
254C
  8
0
  6
CONTINUOUS
 62
     0
 10
77.448636147420871
 20
19.514372880254989
 30
0.0
  0
VERTEX
  5
254D
  8
0
  6
CONTINUOUS
 62
     0
 10
77.452500278526884
 20
19.581866300125512
 30
0.0
  0
VERTEX
  5
254E
  8
0
  6
CONTINUOUS
 62
     0
 10
77.458152042102142
 20
19.71718544418189
 30
0.0
  0
VERTEX
  5
254F
  8
0
  6
CONTINUOUS
 62
     0
 10
77.461001093553136
 20
19.85311463766709
 30
0.0
  0
VERTEX
  5
2550
  8
0
  6
CONTINUOUS
 62
     0
 10
77.46135972813596
 20
19.921372159473091
 30
0.0
  0
SEQEND
  5
2551
  8
0
  6
CONTINUOUS
 62
     0
  0
POLYLINE
  5
1DB5
  8
0
  6
CONTINUOUS
 62
     0
 66
     1
 10
0.0
 20
0.0
 30
0.0
  0
VERTEX
  5
2552
  8
0
  6
CONTINUOUS
 62
     0
 10
77.46135972813596
 20
22.421372159473091
 30
0.0
  0
VERTEX
  5
2553
  8
0
  6
CONTINUOUS
 62
     0
 10
77.461001093553136
 20
22.421372159473091
 30
0.0
  0
VERTEX
  5
2554
  8
0
  6
CONTINUOUS
 62
     0
 10
77.458152042102142
 20
22.421372159473091
 30
0.0
  0
VERTEX
  5
2555
  8
0
  6
CONTINUOUS
 62
     0
 10
77.452500278526884
 20
22.421372159473091
 30
0.0
  0
VERTEX
  5
2556
  8
0
  6
CONTINUOUS
 62
     0
 10
77.448636147420871
 20
22.421372159473091
 30
0.0
  0
VERTEX
  5
2557
  8
0
  6
CONTINUOUS
 62
     0
 10
77.444085575583074
 20
22.421372159473091
 30
0.0
  0
VERTEX
  5
2558
  8
0
  6
CONTINUOUS
 62
     0
 10
77.432939152446053
 20
22.421372159473091
 30
0.0
  0
VERTEX
  5
2559
  8
0
  6
CONTINUOUS
 62
     0
 10
77.419084039552047
 20
22.421372159473091
 30
0.0
  0
VERTEX
  5
255A
  8
0
  6
CONTINUOUS
 62
     0
 10
77.402535376150979
 20
22.421372159473091
 30
0.0
  0
VERTEX
  5
255B
  8
0
  6
CONTINUOUS
 62
     0
 10
77.383300645635074
 20
22.421372159473091
 30
0.0
  0
VERTEX
  5
255C
  8
0
  6
CONTINUOUS
 62
     0
 10
77.361379852729954
 20
22.421372159473091
 30
0.0
  0
VERTEX
  5
255D
  8
0
  6
CONTINUOUS
 62
     0
 10
77.349410170584576
 20
22.421372159473091
 30
0.0
  0
VERTEX
  5
255E
  8
0
  6
CONTINUOUS
 62
     0
 10
77.336765645762114
 20
22.421372159473091
 30
0.0
  0
VERTEX
  5
255F
  8
0
  6
CONTINUOUS
 62
     0
 10
77.309443386428256
 20
22.421372159473091
 30
0.0
  0
VERTEX
  5
2560
  8
0
  6
CONTINUOUS
 62
     0
 10
77.279391168762515
 20
22.421372159473091
 30
0.0
  0
VERTEX
  5
2561
  8
0
  6
CONTINUOUS
 62
     0
 10
77.246579788316978
 20
22.421372159473091
 30
0.0
  0
VERTEX
  5
2562
  8
0
  6
CONTINUOUS
 62
     0
 10
77.21097266192055
 20
22.421372159473091
 30
0.0
  0
VERTEX
  5
2563
  8
0
  6
CONTINUOUS
 62
     0
 10
77.17252569774746
 20
22.421372159473091
 30
0.0
  0
VERTEX
  5
2564
  8
0
  6
CONTINUOUS
 62
     0
 10
77.152221401287022
 20
22.421372159473091
 30
0.0
  0
VERTEX
  5
2565
  8
0
  6
CONTINUOUS
 62
     0
 10
77.131187114798138
 20
22.421372159473091
 30
0.0
  0
VERTEX
  5
2566
  8
0
  6
CONTINUOUS
 62
     0
 10
77.086897210253994
 20
22.421372159473091
 30
0.0
  0
VERTEX
  5
2567
  8
0
  6
CONTINUOUS
 62
     0
 10
77.039588072510526
 20
22.421372159473091
 30
0.0
  0
VERTEX
  5
2568
  8
0
  6
CONTINUOUS
 62
     0
 10
77.014777740750731
 20
22.421372159473091
 30
0.0
  0
SEQEND
  5
2569
  8
0
  6
CONTINUOUS
 62
     0
  0
POLYLINE
  5
1DB6
  8
0
  6
CONTINUOUS
 62
     0
 66
     1
 10
0.0
 20
0.0
 30
0.0
  0
VERTEX
  5
256A
  8
0
  6
CONTINUOUS
 62
     0
 10
77.46135972813596
 20
14.921372159473091
 30
0.0
  0
VERTEX
  5
256B
  8
0
  6
CONTINUOUS
 62
     0
 10
77.461001093553136
 20
14.9896296812791
 30
0.0
  0
VERTEX
  5
256C
  8
0
  6
CONTINUOUS
 62
     0
 10
77.458152042102142
 20
15.125558874764289
 30
0.0
  0
VERTEX
  5
256D
  8
0
  6
CONTINUOUS
 62
     0
 10
77.452500278526884
 20
15.26087801882068
 30
0.0
  0
VERTEX
  5
256E
  8
0
  6
CONTINUOUS
 62
     0
 10
77.448636147420871
 20
15.328371438691191
 30
0.0
  0
VERTEX
  5
256F
  8
0
  6
CONTINUOUS
 62
     0
 10
77.444085575583074
 20
15.39578676282548
 30
0.0
  0
VERTEX
  5
2570
  8
0
  6
CONTINUOUS
 62
     0
 10
77.432939152446053
 20
15.530479291749311
 30
0.0
  0
VERTEX
  5
2571
  8
0
  6
CONTINUOUS
 62
     0
 10
77.419084039552047
 20
15.665145364350559
 30
0.0
  0
VERTEX
  5
2572
  8
0
  6
CONTINUOUS
 62
     0
 10
77.402535376150979
 20
15.799971290232859
 30
0.0
  0
VERTEX
  5
2573
  8
0
  6
CONTINUOUS
 62
     0
 10
77.383300645635074
 20
15.9351408571747
 30
0.0
  0
VERTEX
  5
2574
  8
0
  6
CONTINUOUS
 62
     0
 10
77.361379852729954
 20
16.07083621910078
 30
0.0
  0
VERTEX
  5
2575
  8
0
  6
CONTINUOUS
 62
     0
 10
77.349410170584576
 20
16.138937761179871
 30
0.0
  0
VERTEX
  5
2576
  8
0
  6
CONTINUOUS
 62
     0
 10
77.336765645762114
 20
16.207238754233291
 30
0.0
  0
VERTEX
  5
2577
  8
0
  6
CONTINUOUS
 62
     0
 10
77.309443386428256
 20
16.34452990231398
 30
0.0
  0
VERTEX
  5
2578
  8
0
  6
CONTINUOUS
 62
     0
 10
77.279391168762515
 20
16.482891989306321
 30
0.0
  0
VERTEX
  5
2579
  8
0
  6
CONTINUOUS
 62
     0
 10
77.246579788316978
 20
16.622509047654539
 30
0.0
  0
VERTEX
  5
257A
  8
0
  6
CONTINUOUS
 62
     0
 10
77.21097266192055
 20
16.76356763998313
 30
0.0
  0
VERTEX
  5
257B
  8
0
  6
CONTINUOUS
 62
     0
 10
77.17252569774746
 20
16.906257694058471
 30
0.0
  0
VERTEX
  5
257C
  8
0
  6
CONTINUOUS
 62
     0
 10
77.152221401287022
 20
16.978275001503899
 30
0.0
  0
VERTEX
  5
257D
  8
0
  6
CONTINUOUS
 62
     0
 10
77.131187114798138
 20
17.050773356902312
 30
0.0
  0
VERTEX
  5
257E
  8
0
  6
CONTINUOUS
 62
     0
 10
77.086897210253994
 20
17.197313876144388
 30
0.0
  0
VERTEX
  5
257F
  8
0
  6
CONTINUOUS
 62
     0
 10
77.039588072510526
 20
17.346084517025641
 30
0.0
  0
VERTEX
  5
2580
  8
0
  6
CONTINUOUS
 62
     0
 10
77.014777740750731
 20
17.421372159473091
 30
0.0
  0
SEQEND
  5
2581
  8
0
  6
CONTINUOUS
 62
     0
  0
POLYLINE
  5
1DB7
  8
0
  6
CONTINUOUS
 62
     0
 66
     1
 10
0.0
 20
0.0
 30
0.0
  0
VERTEX
  5
2582
  8
0
  6
CONTINUOUS
 62
     0
 10
77.014777740750731
 20
12.421372159473091
 30
0.0
  0
VERTEX
  5
2583
  8
0
  6
CONTINUOUS
 62
     0
 10
77.039588072510526
 20
12.49665980192054
 30
0.0
  0
VERTEX
  5
2584
  8
0
  6
CONTINUOUS
 62
     0
 10
77.086897210253994
 20
12.645430442801789
 30
0.0
  0
VERTEX
  5
2585
  8
0
  6
CONTINUOUS
 62
     0
 10
77.131187114798138
 20
12.79197096204387
 30
0.0
  0
VERTEX
  5
2586
  8
0
  6
CONTINUOUS
 62
     0
 10
77.152221401287022
 20
12.86446931744228
 30
0.0
  0
VERTEX
  5
2587
  8
0
  6
CONTINUOUS
 62
     0
 10
77.172525697747517
 20
12.936486624887721
 30
0.0
  0
VERTEX
  5
2588
  8
0
  6
CONTINUOUS
 62
     0
 10
77.21097266192055
 20
13.079176678962989
 30
0.0
  0
VERTEX
  5
2589
  8
0
  6
CONTINUOUS
 62
     0
 10
77.246579788316978
 20
13.22023527129164
 30
0.0
  0
VERTEX
  5
258A
  8
0
  6
CONTINUOUS
 62
     0
 10
77.279391168762515
 20
13.35985232963986
 30
0.0
  0
VERTEX
  5
258B
  8
0
  6
CONTINUOUS
 62
     0
 10
77.309443386428256
 20
13.49821441663215
 30
0.0
  0
VERTEX
  5
258C
  8
0
  6
CONTINUOUS
 62
     0
 10
77.336765645762114
 20
13.635505564712901
 30
0.0
  0
VERTEX
  5
258D
  8
0
  6
CONTINUOUS
 62
     0
 10
77.349410170584576
 20
13.70380655776631
 30
0.0
  0
VERTEX
  5
258E
  8
0
  6
CONTINUOUS
 62
     0
 10
77.361379852729954
 20
13.771908099845399
 30
0.0
  0
VERTEX
  5
258F
  8
0
  6
CONTINUOUS
 62
     0
 10
77.383300645635074
 20
13.90760346177148
 30
0.0
  0
VERTEX
  5
2590
  8
0
  6
CONTINUOUS
 62
     0
 10
77.402535376150979
 20
14.042773028713331
 30
0.0
  0
VERTEX
  5
2591
  8
0
  6
CONTINUOUS
 62
     0
 10
77.419084039552047
 20
14.17759895459562
 30
0.0
  0
VERTEX
  5
2592
  8
0
  6
CONTINUOUS
 62
     0
 10
77.432939152446053
 20
14.312265027196871
 30
0.0
  0
VERTEX
  5
2593
  8
0
  6
CONTINUOUS
 62
     0
 10
77.444085575583074
 20
14.44695755612071
 30
0.0
  0
VERTEX
  5
2594
  8
0
  6
CONTINUOUS
 62
     0
 10
77.448636147420871
 20
14.514372880254991
 30
0.0
  0
VERTEX
  5
2595
  8
0
  6
CONTINUOUS
 62
     0
 10
77.452500278526884
 20
14.58186630012551
 30
0.0
  0
VERTEX
  5
2596
  8
0
  6
CONTINUOUS
 62
     0
 10
77.458152042102142
 20
14.71718544418189
 30
0.0
  0
VERTEX
  5
2597
  8
0
  6
CONTINUOUS
 62
     0
 10
77.461001093553136
 20
14.85311463766709
 30
0.0
  0
VERTEX
  5
2598
  8
0
  6
CONTINUOUS
 62
     0
 10
77.46135972813596
 20
14.921372159473091
 30
0.0
  0
SEQEND
  5
2599
  8
0
  6
CONTINUOUS
 62
     0
  0
POLYLINE
  5
1DB8
  8
0
  6
CONTINUOUS
 62
     0
 66
     1
 10
0.0
 20
0.0
 30
0.0
  0
VERTEX
  5
259A
  8
0
  6
CONTINUOUS
 62
     0
 10
77.014777740750731
 20
12.421372159473091
 30
0.0
  0
VERTEX
  5
259B
  8
0
  6
CONTINUOUS
 62
     0
 10
77.039588072510526
 20
12.421372159473091
 30
0.0
  0
VERTEX
  5
259C
  8
0
  6
CONTINUOUS
 62
     0
 10
77.086897210253994
 20
12.421372159473091
 30
0.0
  0
VERTEX
  5
259D
  8
0
  6
CONTINUOUS
 62
     0
 10
77.131187114798138
 20
12.421372159473091
 30
0.0
  0
VERTEX
  5
259E
  8
0
  6
CONTINUOUS
 62
     0
 10
77.152221401287022
 20
12.421372159473091
 30
0.0
  0
VERTEX
  5
259F
  8
0
  6
CONTINUOUS
 62
     0
 10
77.172525697747517
 20
12.421372159473091
 30
0.0
  0
VERTEX
  5
25A0
  8
0
  6
CONTINUOUS
 62
     0
 10
77.21097266192055
 20
12.421372159473091
 30
0.0
  0
VERTEX
  5
25A1
  8
0
  6
CONTINUOUS
 62
     0
 10
77.246579788316978
 20
12.421372159473091
 30
0.0
  0
VERTEX
  5
25A2
  8
0
  6
CONTINUOUS
 62
     0
 10
77.279391168762515
 20
12.421372159473091
 30
0.0
  0
VERTEX
  5
25A3
  8
0
  6
CONTINUOUS
 62
     0
 10
77.309443386428256
 20
12.421372159473091
 30
0.0
  0
VERTEX
  5
25A4
  8
0
  6
CONTINUOUS
 62
     0
 10
77.336765645762114
 20
12.421372159473091
 30
0.0
  0
VERTEX
  5
25A5
  8
0
  6
CONTINUOUS
 62
     0
 10
77.349410170584576
 20
12.421372159473091
 30
0.0
  0
VERTEX
  5
25A6
  8
0
  6
CONTINUOUS
 62
     0
 10
77.361379852729954
 20
12.421372159473091
 30
0.0
  0
VERTEX
  5
25A7
  8
0
  6
CONTINUOUS
 62
     0
 10
77.383300645635074
 20
12.421372159473091
 30
0.0
  0
VERTEX
  5
25A8
  8
0
  6
CONTINUOUS
 62
     0
 10
77.402535376150979
 20
12.421372159473091
 30
0.0
  0
VERTEX
  5
25A9
  8
0
  6
CONTINUOUS
 62
     0
 10
77.419084039552047
 20
12.421372159473091
 30
0.0
  0
VERTEX
  5
25AA
  8
0
  6
CONTINUOUS
 62
     0
 10
77.432939152446053
 20
12.421372159473091
 30
0.0
  0
VERTEX
  5
25AB
  8
0
  6
CONTINUOUS
 62
     0
 10
77.444085575583074
 20
12.421372159473091
 30
0.0
  0
VERTEX
  5
25AC
  8
0
  6
CONTINUOUS
 62
     0
 10
77.448636147420871
 20
12.421372159473091
 30
0.0
  0
VERTEX
  5
25AD
  8
0
  6
CONTINUOUS
 62
     0
 10
77.452500278526884
 20
12.421372159473091
 30
0.0
  0
VERTEX
  5
25AE
  8
0
  6
CONTINUOUS
 62
     0
 10
77.458152042102142
 20
12.421372159473091
 30
0.0
  0
VERTEX
  5
25AF
  8
0
  6
CONTINUOUS
 62
     0
 10
77.461001093553136
 20
12.421372159473091
 30
0.0
  0
VERTEX
  5
25B0
  8
0
  6
CONTINUOUS
 62
     0
 10
77.46135972813596
 20
12.421372159473091
 30
0.0
  0
SEQEND
  5
25B1
  8
0
  6
CONTINUOUS
 62
     0
  0
LINE
  5
1DB9
  8
0
  6
CONTINUOUS
 62
     0
 10
77.014777740750731
 20
12.421372159473091
 30
0.0
 11
71.46135972813596
 21
12.421372159473091
 31
0.0
  0
LINE
  5
1DBA
  8
0
  6
CONTINUOUS
 62
     0
 10
71.46135972813596
 20
12.421372159473091
 30
0.0
 11
71.46135972813596
 21
22.421372159473091
 31
0.0
  0
POLYLINE
  5
1DBB
  8
0
  6
CONTINUOUS
 62
     0
 66
     1
 10
0.0
 20
0.0
 30
0.0
  0
VERTEX
  5
25B2
  8
0
  6
CONTINUOUS
 62
     0
 10
77.46135972813596
 20
14.921372159473091
 30
0.0
  0
VERTEX
  5
25B3
  8
0
  6
CONTINUOUS
 62
     0
 10
77.461001093553136
 20
14.85311463766709
 30
0.0
  0
VERTEX
  5
25B4
  8
0
  6
CONTINUOUS
 62
     0
 10
77.458152042102142
 20
14.71718544418189
 30
0.0
  0
VERTEX
  5
25B5
  8
0
  6
CONTINUOUS
 62
     0
 10
77.452500278526884
 20
14.58186630012551
 30
0.0
  0
VERTEX
  5
25B6
  8
0
  6
CONTINUOUS
 62
     0
 10
77.448636147420871
 20
14.514372880254991
 30
0.0
  0
VERTEX
  5
25B7
  8
0
  6
CONTINUOUS
 62
     0
 10
77.444085575583074
 20
14.44695755612071
 30
0.0
  0
VERTEX
  5
25B8
  8
0
  6
CONTINUOUS
 62
     0
 10
77.432939152446053
 20
14.312265027196871
 30
0.0
  0
VERTEX
  5
25B9
  8
0
  6
CONTINUOUS
 62
     0
 10
77.419084039552047
 20
14.17759895459562
 30
0.0
  0
VERTEX
  5
25BA
  8
0
  6
CONTINUOUS
 62
     0
 10
77.402535376150979
 20
14.042773028713331
 30
0.0
  0
VERTEX
  5
25BB
  8
0
  6
CONTINUOUS
 62
     0
 10
77.383300645635074
 20
13.90760346177148
 30
0.0
  0
VERTEX
  5
25BC
  8
0
  6
CONTINUOUS
 62
     0
 10
77.361379852729954
 20
13.771908099845399
 30
0.0
  0
VERTEX
  5
25BD
  8
0
  6
CONTINUOUS
 62
     0
 10
77.349410170584576
 20
13.70380655776631
 30
0.0
  0
VERTEX
  5
25BE
  8
0
  6
CONTINUOUS
 62
     0
 10
77.336765645762114
 20
13.635505564712901
 30
0.0
  0
VERTEX
  5
25BF
  8
0
  6
CONTINUOUS
 62
     0
 10
77.309443386428256
 20
13.49821441663221
 30
0.0
  0
VERTEX
  5
25C0
  8
0
  6
CONTINUOUS
 62
     0
 10
77.279391168762515
 20
13.35985232963986
 30
0.0
  0
VERTEX
  5
25C1
  8
0
  6
CONTINUOUS
 62
     0
 10
77.246579788316978
 20
13.22023527129164
 30
0.0
  0
VERTEX
  5
25C2
  8
0
  6
CONTINUOUS
 62
     0
 10
77.21097266192055
 20
13.07917667896305
 30
0.0
  0
VERTEX
  5
25C3
  8
0
  6
CONTINUOUS
 62
     0
 10
77.172525697747517
 20
12.936486624887721
 30
0.0
  0
VERTEX
  5
25C4
  8
0
  6
CONTINUOUS
 62
     0
 10
77.152221401287022
 20
12.86446931744228
 30
0.0
  0
VERTEX
  5
25C5
  8
0
  6
CONTINUOUS
 62
     0
 10
77.131187114798138
 20
12.79197096204387
 30
0.0
  0
VERTEX
  5
25C6
  8
0
  6
CONTINUOUS
 62
     0
 10
77.086897210253994
 20
12.645430442801789
 30
0.0
  0
VERTEX
  5
25C7
  8
0
  6
CONTINUOUS
 62
     0
 10
77.039588072510526
 20
12.49665980192054
 30
0.0
  0
VERTEX
  5
25C8
  8
0
  6
CONTINUOUS
 62
     0
 10
77.014777740750731
 20
12.421372159473091
 30
0.0
  0
SEQEND
  5
25C9
  8
0
  6
CONTINUOUS
 62
     0
  0
POLYLINE
  5
1DBC
  8
0
  6
CONTINUOUS
 62
     0
 66
     1
 10
0.0
 20
0.0
 30
0.0
  0
VERTEX
  5
25CA
  8
0
  6
CONTINUOUS
 62
     0
 10
77.014777740750731
 20
17.421372159473091
 30
0.0
  0
VERTEX
  5
25CB
  8
0
  6
CONTINUOUS
 62
     0
 10
77.039588072510526
 20
17.346084517025641
 30
0.0
  0
VERTEX
  5
25CC
  8
0
  6
CONTINUOUS
 62
     0
 10
77.086897210253994
 20
17.197313876144388
 30
0.0
  0
VERTEX
  5
25CD
  8
0
  6
CONTINUOUS
 62
     0
 10
77.131187114798138
 20
17.050773356902312
 30
0.0
  0
VERTEX
  5
25CE
  8
0
  6
CONTINUOUS
 62
     0
 10
77.152221401287022
 20
16.978275001503899
 30
0.0
  0
VERTEX
  5
25CF
  8
0
  6
CONTINUOUS
 62
     0
 10
77.17252569774746
 20
16.906257694058411
 30
0.0
  0
VERTEX
  5
25D0
  8
0
  6
CONTINUOUS
 62
     0
 10
77.21097266192055
 20
16.76356763998313
 30
0.0
  0
VERTEX
  5
25D1
  8
0
  6
CONTINUOUS
 62
     0
 10
77.246579788316978
 20
16.622509047654539
 30
0.0
  0
VERTEX
  5
25D2
  8
0
  6
CONTINUOUS
 62
     0
 10
77.279391168762515
 20
16.482891989306321
 30
0.0
  0
VERTEX
  5
25D3
  8
0
  6
CONTINUOUS
 62
     0
 10
77.309443386428256
 20
16.34452990231398
 30
0.0
  0
VERTEX
  5
25D4
  8
0
  6
CONTINUOUS
 62
     0
 10
77.336765645762114
 20
16.207238754233291
 30
0.0
  0
VERTEX
  5
25D5
  8
0
  6
CONTINUOUS
 62
     0
 10
77.349410170584576
 20
16.138937761179822
 30
0.0
  0
VERTEX
  5
25D6
  8
0
  6
CONTINUOUS
 62
     0
 10
77.361379852729954
 20
16.07083621910078
 30
0.0
  0
VERTEX
  5
25D7
  8
0
  6
CONTINUOUS
 62
     0
 10
77.383300645635074
 20
15.9351408571747
 30
0.0
  0
VERTEX
  5
25D8
  8
0
  6
CONTINUOUS
 62
     0
 10
77.402535376150979
 20
15.799971290232859
 30
0.0
  0
VERTEX
  5
25D9
  8
0
  6
CONTINUOUS
 62
     0
 10
77.419084039552047
 20
15.665145364350559
 30
0.0
  0
VERTEX
  5
25DA
  8
0
  6
CONTINUOUS
 62
     0
 10
77.432939152446053
 20
15.530479291749311
 30
0.0
  0
VERTEX
  5
25DB
  8
0
  6
CONTINUOUS
 62
     0
 10
77.444085575583074
 20
15.39578676282548
 30
0.0
  0
VERTEX
  5
25DC
  8
0
  6
CONTINUOUS
 62
     0
 10
77.448636147420871
 20
15.328371438691191
 30
0.0
  0
VERTEX
  5
25DD
  8
0
  6
CONTINUOUS
 62
     0
 10
77.452500278526884
 20
15.26087801882068
 30
0.0
  0
VERTEX
  5
25DE
  8
0
  6
CONTINUOUS
 62
     0
 10
77.458152042102142
 20
15.125558874764289
 30
0.0
  0
VERTEX
  5
25DF
  8
0
  6
CONTINUOUS
 62
     0
 10
77.461001093553136
 20
14.9896296812791
 30
0.0
  0
VERTEX
  5
25E0
  8
0
  6
CONTINUOUS
 62
     0
 10
77.46135972813596
 20
14.921372159473091
 30
0.0
  0
SEQEND
  5
25E1
  8
0
  6
CONTINUOUS
 62
     0
  0
LINE
  5
1DBD
  8
0
  6
CONTINUOUS
 62
     0
 10
77.46135972813596
 20
22.421372159473091
 30
0.0
 11
77.46135972813596
 21
12.421372159473091
 31
0.0
  0
LINE
  5
1DBE
  8
0
  6
CONTINUOUS
 62
     0
 10
65.46135972813596
 20
20.80787215947311
 30
0.0
 11
65.46135972813596
 21
14.03487215947308
 31
0.0
  0
LINE
  5
1DBF
  8
0
  6
CONTINUOUS
 62
     0
 10
66.074859728135948
 20
21.421372159473091
 30
0.0
 11
66.074859728135948
 21
13.421372159473091
 31
0.0
  0
LINE
  5
1DC2
  8
0
  6
CONTINUOUS
 62
     0
 10
77.814913118729237
 20
22.421372159473091
 30
0.0
 11
77.814913118729237
 21
12.421372159473091
 31
0.0
  0
LINE
  5
1DC3
  8
0
  6
CONTINUOUS
 62
     0
 10
84.061359728135926
 20
22.421372159473091
 30
0.0
 11
84.061359728135926
 21
12.421372159473091
 31
0.0
  0
LINE
  5
1DC4
  8
0
  6
CONTINUOUS
 62
     0
 10
89.566887410020627
 20
26.421372159473101
 30
0.0
 11
89.566887410020627
 21
8.4213721594730941
 31
0.0
  0
LINE
  5
1DC5
  8
0
  6
CONTINUOUS
 62
     0
 10
89.961359728135946
 20
26.421372159473101
 30
0.0
 11
89.961359728135946
 21
8.4213721594730941
 31
0.0
  0
LINE
  5
1DC6
  8
0
  6
CONTINUOUS
 62
     0
 10
90.961359728135974
 20
25.421372159473101
 30
0.0
 11
90.961359728135974
 21
9.4213721594730941
 31
0.0
  0
LINE
  5
1DC7
  8
0
  6
CONTINUOUS
 62
     0
 10
71.061359728135983
 20
21.421372159473091
 30
0.0
 11
70.46135972813596
 21
21.421372159473091
 31
0.0
  0
LINE
  5
1DC8
  8
0
  6
CONTINUOUS
 62
     0
 10
70.46135972813596
 20
13.421372159473091
 30
0.0
 11
71.092416723529738
 21
13.420164665718019
 31
0.0
  0
LINE
  5
1DC9
  8
0
  6
CONTINUOUS
 62
     0
 10
66.074859728135948
 20
21.421372159473091
 30
0.0
 11
65.46135972813596
 21
20.80787215947311
 31
0.0
  0
LINE
  5
1DCA
  8
0
  6
CONTINUOUS
 62
     0
 10
65.46135972813596
 20
14.03487215947308
 30
0.0
 11
66.074859728135948
 21
13.421372159473091
 31
0.0
  0
LINE
  5
1DCB
  8
0
  6
CONTINUOUS
 62
     0
 10
66.46135972813596
 20
21.421372159473091
 30
0.0
 11
66.074859728135948
 21
21.421372159473091
 31
0.0
  0
LINE
  5
1DCC
  8
0
  6
CONTINUOUS
 62
     0
 10
66.074859728135948
 20
13.421372159473091
 30
0.0
 11
66.46135972813596
 21
13.421372159473091
 31
0.0
  0
LINE
  5
1DD1
  8
0
  6
CONTINUOUS
 62
     0
 10
77.814913118729237
 20
22.421372159473091
 30
0.0
 11
77.46135972813596
 21
22.067818768879821
 31
0.0
  0
LINE
  5
1DD2
  8
0
  6
CONTINUOUS
 62
     0
 10
77.46135972813596
 20
12.774925550066371
 30
0.0
 11
77.814913118729237
 21
12.421372159473091
 31
0.0
  0
LINE
  5
1DD3
  8
0
  6
CONTINUOUS
 62
     0
 10
84.061359728135926
 20
22.421372159473091
 30
0.0
 11
77.814913118729237
 21
22.421372159473091
 31
0.0
  0
LINE
  5
1DD4
  8
0
  6
CONTINUOUS
 62
     0
 10
77.814913118729237
 20
12.421372159473091
 30
0.0
 11
84.061359728135926
 21
12.421372159473091
 31
0.0
  0
LINE
  5
1DD5
  8
0
  6
CONTINUOUS
 62
     0
 10
89.566887410020627
 20
26.421372159473101
 30
0.0
 11
84.061359728135926
 21
22.421372159473091
 31
0.0
  0
LINE
  5
1DD6
  8
0
  6
CONTINUOUS
 62
     0
 10
84.061359728135926
 20
12.421372159473091
 30
0.0
 11
89.566887410020627
 21
8.4213721594730941
 31
0.0
  0
LINE
  5
1DD7
  8
0
  6
CONTINUOUS
 62
     0
 10
89.961359728135946
 20
26.421372159473101
 30
0.0
 11
89.566887410020627
 21
26.421372159473101
 31
0.0
  0
LINE
  5
1DD8
  8
0
  6
CONTINUOUS
 62
     0
 10
89.566887410020627
 20
8.4213721594730941
 30
0.0
 11
89.961359728135946
 21
8.4213721594730941
 31
0.0
  0
ARC
  5
1DD9
  8
0
  6
CONTINUOUS
 62
     0
 10
89.961359728135946
 20
9.4213721594730941
 30
0.0
 40
0.9999999999999982
 50
270.0
 51
0.0
  0
ARC
  5
1DDA
  8
0
  6
CONTINUOUS
 62
     0
 10
89.961359728135946
 20
25.421372159473101
 30
0.0
 40
1.0000000000000011
 50
0.0
 51
90.0
  0
ARC
  5
1DDB
  8
2
 10
100.4613597281359
 20
17.421372159473091
 30
0.0
 40
12.000000000000011
 50
142.34153799379189
 51
217.65846200620811
  0
CIRCLE
  5
1E05
  8
0
  6
CONTINUOUS
 62
     0
 10
23.052411365280818
 20
57.441407804280153
 30
0.0
 40
6.5000000000000044
  0
LINE
  5
1E06
  8
1
 10
35.052411365280818
 20
57.441407804280182
 30
0.0
 11
11.05241136528082
 21
57.441407804280182
 31
0.0
  0
LINE
  5
1E07
  8
1
 10
23.052411365280879
 20
45.441407804280153
 30
0.0
 11
23.052411365280879
 21
69.441407804280146
 31
0.0
  0
POLYLINE
  5
1E09
  8
0
  6
CONTINUOUS
 62
     0
 66
     1
 10
0.0
 20
0.0
 30
0.0
  0
VERTEX
  5
25E2
  8
0
  6
CONTINUOUS
 62
     0
 10
16.552411365280879
 20
53.688631054547614
 30
0.0
  0
VERTEX
  5
25E3
  8
0
  6
CONTINUOUS
 62
     0
 10
16.649899764454489
 20
53.632346101041833
 30
0.0
  0
VERTEX
  5
25E4
  8
0
  6
CONTINUOUS
 62
     0
 10
16.84261332737821
 20
53.521082873611363
 30
0.0
  0
VERTEX
  5
25E5
  8
0
  6
CONTINUOUS
 62
     0
 10
17.03253240820775
 20
53.411433041170149
 30
0.0
  0
VERTEX
  5
25E6
  8
0
  6
CONTINUOUS
 62
     0
 10
17.126525775925199
 20
53.357165945016419
 30
0.0
  0
VERTEX
  5
25E7
  8
0
  6
CONTINUOUS
 62
     0
 10
17.21991770935416
 20
53.303246087111127
 30
0.0
  0
VERTEX
  5
25E8
  8
0
  6
CONTINUOUS
 62
     0
 10
17.405022894585091
 20
53.196375558589573
 30
0.0
  0
VERTEX
  5
25E9
  8
0
  6
CONTINUOUS
 62
     0
 10
17.588095734695429
 20
53.090678405070612
 30
0.0
  0
VERTEX
  5
25EA
  8
0
  6
CONTINUOUS
 62
     0
 10
17.76937921514007
 20
52.986014338836291
 30
0.0
  0
VERTEX
  5
25EB
  8
0
  6
CONTINUOUS
 62
     0
 10
17.949112616054439
 20
52.882245211435958
 30
0.0
  0
VERTEX
  5
25EC
  8
0
  6
CONTINUOUS
 62
     0
 10
18.12753257479492
 20
52.779234400228383
 30
0.0
  0
VERTEX
  5
25ED
  8
0
  6
CONTINUOUS
 62
     0
 10
18.216323499526961
 20
52.727970935932717
 30
0.0
  0
VERTEX
  5
25EE
  8
0
  6
CONTINUOUS
 62
     0
 10
18.30487414100914
 20
52.676846199236053
 30
0.0
  0
VERTEX
  5
25EF
  8
0
  6
CONTINUOUS
 62
     0
 10
18.481371834282331
 20
52.574945208513448
 30
0.0
  0
VERTEX
  5
25F0
  8
0
  6
CONTINUOUS
 62
     0
 10
18.657260714611439
 20
52.473395716107959
 30
0.0
  0
VERTEX
  5
25F1
  8
0
  6
CONTINUOUS
 62
     0
 10
18.832777476339089
 20
52.372061066477229
 30
0.0
  0
VERTEX
  5
25F2
  8
0
  6
CONTINUOUS
 62
     0
 10
19.008161576744989
 20
52.270803008896308
 30
0.0
  0
VERTEX
  5
25F3
  8
0
  6
CONTINUOUS
 62
     0
 10
19.183656411265911
 20
52.169481018944197
 30
0.0
  0
VERTEX
  5
25F4
  8
0
  6
CONTINUOUS
 62
     0
 10
19.271522794167449
 20
52.118751339123328
 30
0.0
  0
VERTEX
  5
25F5
  8
0
  6
CONTINUOUS
 62
     0
 10
19.359510548314638
 20
52.067951585581042
 30
0.0
  0
VERTEX
  5
25F6
  8
0
  6
CONTINUOUS
 62
     0
 10
19.535979037928371
 20
51.966067455599038
 30
0.0
  0
VERTEX
  5
25F7
  8
0
  6
CONTINUOUS
 62
     0
 10
19.713324810034958
 20
51.863676826333709
 30
0.0
  0
VERTEX
  5
25F8
  8
0
  6
CONTINUOUS
 62
     0
 10
19.802411365280829
 20
51.812242679681297
 30
0.0
  0
SEQEND
  5
25F9
  8
0
  6
CONTINUOUS
 62
     0
  0
POLYLINE
  5
1E0A
  8
0
  6
CONTINUOUS
 62
     0
 66
     1
 10
0.0
 20
0.0
 30
0.0
  0
VERTEX
  5
25FA
  8
0
  6
CONTINUOUS
 62
     0
 10
19.802411365280829
 20
51.812242679681297
 30
0.0
  0
VERTEX
  5
25FB
  8
0
  6
CONTINUOUS
 62
     0
 10
19.891497920526739
 20
51.760808533028921
 30
0.0
  0
VERTEX
  5
25FC
  8
0
  6
CONTINUOUS
 62
     0
 10
20.068843692633301
 20
51.658417903763556
 30
0.0
  0
VERTEX
  5
25FD
  8
0
  6
CONTINUOUS
 62
     0
 10
20.245312182247009
 20
51.556533773781567
 30
0.0
  0
VERTEX
  5
25FE
  8
0
  6
CONTINUOUS
 62
     0
 10
20.333299936394202
 20
51.505734020239267
 30
0.0
  0
VERTEX
  5
25FF
  8
0
  6
CONTINUOUS
 62
     0
 10
20.42116631929575
 20
51.455004340418412
 30
0.0
  0
VERTEX
  5
2600
  8
0
  6
CONTINUOUS
 62
     0
 10
20.596661153816662
 20
51.3536823504663
 30
0.0
  0
VERTEX
  5
2601
  8
0
  6
CONTINUOUS
 62
     0
 10
20.772045254222562
 20
51.252424292885379
 30
0.0
  0
VERTEX
  5
2602
  8
0
  6
CONTINUOUS
 62
     0
 10
20.947562015950211
 20
51.15108964325465
 30
0.0
  0
VERTEX
  5
2603
  8
0
  6
CONTINUOUS
 62
     0
 10
21.12345089627938
 20
51.049540150849197
 30
0.0
  0
VERTEX
  5
2604
  8
0
  6
CONTINUOUS
 62
     0
 10
21.299948589552528
 20
50.947639160126563
 30
0.0
  0
VERTEX
  5
2605
  8
0
  6
CONTINUOUS
 62
     0
 10
21.388499231034739
 20
50.89651442342992
 30
0.0
  0
VERTEX
  5
2606
  8
0
  6
CONTINUOUS
 62
     0
 10
21.477290155766781
 20
50.845250959134262
 30
0.0
  0
VERTEX
  5
2607
  8
0
  6
CONTINUOUS
 62
     0
 10
21.65571011450724
 20
50.742240147926609
 30
0.0
  0
VERTEX
  5
2608
  8
0
  6
CONTINUOUS
 62
     0
 10
21.835443515421641
 20
50.638471020526353
 30
0.0
  0
VERTEX
  5
2609
  8
0
  6
CONTINUOUS
 62
     0
 10
22.016726995866239
 20
50.533806954292011
 30
0.0
  0
VERTEX
  5
260A
  8
0
  6
CONTINUOUS
 62
     0
 10
22.19979983597657
 20
50.428109800773029
 30
0.0
  0
VERTEX
  5
260B
  8
0
  6
CONTINUOUS
 62
     0
 10
22.384905021207601
 20
50.321239272251532
 30
0.0
  0
VERTEX
  5
260C
  8
0
  6
CONTINUOUS
 62
     0
 10
22.478296954636459
 20
50.267319414346183
 30
0.0
  0
VERTEX
  5
260D
  8
0
  6
CONTINUOUS
 62
     0
 10
22.572290322353911
 20
50.213052318192453
 30
0.0
  0
VERTEX
  5
260E
  8
0
  6
CONTINUOUS
 62
     0
 10
22.762209403183491
 20
50.103402485751268
 30
0.0
  0
VERTEX
  5
260F
  8
0
  6
CONTINUOUS
 62
     0
 10
22.95492296610718
 20
49.992139258320769
 30
0.0
  0
VERTEX
  5
2610
  8
0
  6
CONTINUOUS
 62
     0
 10
23.052411365280879
 20
49.935854304815052
 30
0.0
  0
SEQEND
  5
2611
  8
0
  6
CONTINUOUS
 62
     0
  0
POLYLINE
  5
1E0B
  8
0
  6
CONTINUOUS
 62
     0
 66
     1
 10
0.0
 20
0.0
 30
0.0
  0
VERTEX
  5
2612
  8
0
  6
CONTINUOUS
 62
     0
 10
29.552411365280861
 20
53.688631054547614
 30
0.0
  0
VERTEX
  5
2613
  8
0
  6
CONTINUOUS
 62
     0
 10
29.552411365280829
 20
53.801200961559118
 30
0.0
  0
VERTEX
  5
2614
  8
0
  6
CONTINUOUS
 62
     0
 10
29.552411365280861
 20
54.023727416420108
 30
0.0
  0
VERTEX
  5
2615
  8
0
  6
CONTINUOUS
 62
     0
 10
29.552411365280829
 20
54.243027081302479
 30
0.0
  0
VERTEX
  5
2616
  8
0
  6
CONTINUOUS
 62
     0
 10
29.552411365280818
 20
54.351561273609917
 30
0.0
  0
VERTEX
  5
2617
  8
0
  6
CONTINUOUS
 62
     0
 10
29.552411365280872
 20
54.459400989420587
 30
0.0
  0
VERTEX
  5
2618
  8
0
  6
CONTINUOUS
 62
     0
 10
29.55241136528085
 20
54.673142046463603
 30
0.0
  0
VERTEX
  5
2619
  8
0
  6
CONTINUOUS
 62
     0
 10
29.552411365280829
 20
54.884536353501581
 30
0.0
  0
VERTEX
  5
261A
  8
0
  6
CONTINUOUS
 62
     0
 10
29.55241136528085
 20
55.093864485970258
 30
0.0
  0
VERTEX
  5
261B
  8
0
  6
CONTINUOUS
 62
     0
 10
29.552411365280829
 20
55.301402740770797
 30
0.0
  0
VERTEX
  5
261C
  8
0
  6
CONTINUOUS
 62
     0
 10
29.55241136528085
 20
55.507424363186061
 30
0.0
  0
VERTEX
  5
261D
  8
0
  6
CONTINUOUS
 62
     0
 10
29.552411365280829
 20
55.60995129177735
 30
0.0
  0
VERTEX
  5
261E
  8
0
  6
CONTINUOUS
 62
     0
 10
29.552411365280861
 20
55.712200765170678
 30
0.0
  0
VERTEX
  5
261F
  8
0
  6
CONTINUOUS
 62
     0
 10
29.552411365280889
 20
55.916002746615931
 30
0.0
  0
VERTEX
  5
2620
  8
0
  6
CONTINUOUS
 62
     0
 10
29.552411365280818
 20
56.119101731426852
 30
0.0
  0
VERTEX
  5
2621
  8
0
  6
CONTINUOUS
 62
     0
 10
29.552411365280829
 20
56.321771030688332
 30
0.0
  0
VERTEX
  5
2622
  8
0
  6
CONTINUOUS
 62
     0
 10
29.55241136528085
 20
56.524287145850202
 30
0.0
  0
VERTEX
  5
2623
  8
0
  6
CONTINUOUS
 62
     0
 10
29.552411365280829
 20
56.726931125754341
 30
0.0
  0
VERTEX
  5
2624
  8
0
  6
CONTINUOUS
 62
     0
 10
29.552411365280829
 20
56.82839048539612
 30
0.0
  0
VERTEX
  5
2625
  8
0
  6
CONTINUOUS
 62
     0
 10
29.552411365280818
 20
56.929989992480678
 30
0.0
  0
VERTEX
  5
2626
  8
0
  6
CONTINUOUS
 62
     0
 10
29.55241136528085
 20
57.133758252444657
 30
0.0
  0
VERTEX
  5
2627
  8
0
  6
CONTINUOUS
 62
     0
 10
29.55241136528085
 20
57.33853951097538
 30
0.0
  0
VERTEX
  5
2628
  8
0
  6
CONTINUOUS
 62
     0
 10
29.552411365280818
 20
57.441407804280153
 30
0.0
  0
SEQEND
  5
2629
  8
0
  6
CONTINUOUS
 62
     0
  0
POLYLINE
  5
1E0C
  8
0
  6
CONTINUOUS
 62
     0
 66
     1
 10
0.0
 20
0.0
 30
0.0
  0
VERTEX
  5
262A
  8
0
  6
CONTINUOUS
 62
     0
 10
29.552411365280818
 20
57.441407804280153
 30
0.0
  0
VERTEX
  5
262B
  8
0
  6
CONTINUOUS
 62
     0
 10
29.552411365280872
 20
57.544276097584969
 30
0.0
  0
VERTEX
  5
262C
  8
0
  6
CONTINUOUS
 62
     0
 10
29.552411365280829
 20
57.749057356115649
 30
0.0
  0
VERTEX
  5
262D
  8
0
  6
CONTINUOUS
 62
     0
 10
29.552411365280861
 20
57.952825616079629
 30
0.0
  0
VERTEX
  5
262E
  8
0
  6
CONTINUOUS
 62
     0
 10
29.55241136528085
 20
58.054425123164172
 30
0.0
  0
VERTEX
  5
262F
  8
0
  6
CONTINUOUS
 62
     0
 10
29.55241136528085
 20
58.155884482805988
 30
0.0
  0
VERTEX
  5
2630
  8
0
  6
CONTINUOUS
 62
     0
 10
29.552411365280829
 20
58.358528462710133
 30
0.0
  0
VERTEX
  5
2631
  8
0
  6
CONTINUOUS
 62
     0
 10
29.55241136528085
 20
58.561044577871961
 30
0.0
  0
VERTEX
  5
2632
  8
0
  6
CONTINUOUS
 62
     0
 10
29.5524113652808
 20
58.763713877133441
 30
0.0
  0
VERTEX
  5
2633
  8
0
  6
CONTINUOUS
 62
     0
 10
29.55241136528085
 20
58.966812861944419
 30
0.0
  0
VERTEX
  5
2634
  8
0
  6
CONTINUOUS
 62
     0
 10
29.552411365280818
 20
59.170614843389643
 30
0.0
  0
VERTEX
  5
2635
  8
0
  6
CONTINUOUS
 62
     0
 10
29.55241136528085
 20
59.272864316782972
 30
0.0
  0
VERTEX
  5
2636
  8
0
  6
CONTINUOUS
 62
     0
 10
29.552411365280829
 20
59.37539124537426
 30
0.0
  0
VERTEX
  5
2637
  8
0
  6
CONTINUOUS
 62
     0
 10
29.552411365280829
 20
59.581412867789517
 30
0.0
  0
VERTEX
  5
2638
  8
0
  6
CONTINUOUS
 62
     0
 10
29.552411365280818
 20
59.788951122590049
 30
0.0
  0
VERTEX
  5
2639
  8
0
  6
CONTINUOUS
 62
     0
 10
29.55241136528085
 20
59.998279255058748
 30
0.0
  0
VERTEX
  5
263A
  8
0
  6
CONTINUOUS
 62
     0
 10
29.552411365280829
 20
60.209673562096711
 30
0.0
  0
VERTEX
  5
263B
  8
0
  6
CONTINUOUS
 62
     0
 10
29.552411365280861
 20
60.423414619139763
 30
0.0
  0
VERTEX
  5
263C
  8
0
  6
CONTINUOUS
 62
     0
 10
29.552411365280861
 20
60.531254334950397
 30
0.0
  0
VERTEX
  5
263D
  8
0
  6
CONTINUOUS
 62
     0
 10
29.552411365280829
 20
60.639788527257828
 30
0.0
  0
VERTEX
  5
263E
  8
0
  6
CONTINUOUS
 62
     0
 10
29.552411365280861
 20
60.859088192140227
 30
0.0
  0
VERTEX
  5
263F
  8
0
  6
CONTINUOUS
 62
     0
 10
29.5524113652808
 20
61.081614647001167
 30
0.0
  0
VERTEX
  5
2640
  8
0
  6
CONTINUOUS
 62
     0
 10
29.552411365280861
 20
61.194184554012729
 30
0.0
  0
SEQEND
  5
2641
  8
0
  6
CONTINUOUS
 62
     0
  0
POLYLINE
  5
1E0D
  8
0
  6
CONTINUOUS
 62
     0
 66
     1
 10
0.0
 20
0.0
 30
0.0
  0
VERTEX
  5
2642
  8
0
  6
CONTINUOUS
 62
     0
 10
23.052411365280879
 20
49.935854304815052
 30
0.0
  0
VERTEX
  5
2643
  8
0
  6
CONTINUOUS
 62
     0
 10
23.149899764454538
 20
49.99213925832084
 30
0.0
  0
VERTEX
  5
2644
  8
0
  6
CONTINUOUS
 62
     0
 10
23.342613327378199
 20
50.103402485751303
 30
0.0
  0
VERTEX
  5
2645
  8
0
  6
CONTINUOUS
 62
     0
 10
23.532532408207771
 20
50.213052318192489
 30
0.0
  0
VERTEX
  5
2646
  8
0
  6
CONTINUOUS
 62
     0
 10
23.626525775925192
 20
50.267319414346183
 30
0.0
  0
VERTEX
  5
2647
  8
0
  6
CONTINUOUS
 62
     0
 10
23.71991770935416
 20
50.321239272251539
 30
0.0
  0
VERTEX
  5
2648
  8
0
  6
CONTINUOUS
 62
     0
 10
23.905022894585109
 20
50.428109800773029
 30
0.0
  0
VERTEX
  5
2649
  8
0
  6
CONTINUOUS
 62
     0
 10
24.088095734695429
 20
50.533806954292032
 30
0.0
  0
VERTEX
  5
264A
  8
0
  6
CONTINUOUS
 62
     0
 10
24.269379215140049
 20
50.638471020526367
 30
0.0
  0
VERTEX
  5
264B
  8
0
  6
CONTINUOUS
 62
     0
 10
24.449112616054439
 20
50.742240147926651
 30
0.0
  0
VERTEX
  5
264C
  8
0
  6
CONTINUOUS
 62
     0
 10
24.627532574794898
 20
50.845250959134262
 30
0.0
  0
VERTEX
  5
264D
  8
0
  6
CONTINUOUS
 62
     0
 10
24.716323499526919
 20
50.896514423429892
 30
0.0
  0
VERTEX
  5
264E
  8
0
  6
CONTINUOUS
 62
     0
 10
24.804874141009179
 20
50.947639160126577
 30
0.0
  0
VERTEX
  5
264F
  8
0
  6
CONTINUOUS
 62
     0
 10
24.981371834282388
 20
51.049540150849218
 30
0.0
  0
VERTEX
  5
2650
  8
0
  6
CONTINUOUS
 62
     0
 10
25.1572607146115
 20
51.151089643254693
 30
0.0
  0
VERTEX
  5
2651
  8
0
  6
CONTINUOUS
 62
     0
 10
25.3327774763391
 20
51.252424292885422
 30
0.0
  0
VERTEX
  5
2652
  8
0
  6
CONTINUOUS
 62
     0
 10
25.508161576744971
 20
51.353682350466329
 30
0.0
  0
VERTEX
  5
2653
  8
0
  6
CONTINUOUS
 62
     0
 10
25.683656411265918
 20
51.455004340418391
 30
0.0
  0
VERTEX
  5
2654
  8
0
  6
CONTINUOUS
 62
     0
 10
25.771522794167421
 20
51.505734020239288
 30
0.0
  0
VERTEX
  5
2655
  8
0
  6
CONTINUOUS
 62
     0
 10
25.859510548314649
 20
51.556533773781581
 30
0.0
  0
VERTEX
  5
2656
  8
0
  6
CONTINUOUS
 62
     0
 10
26.035979037928399
 20
51.658417903763556
 30
0.0
  0
VERTEX
  5
2657
  8
0
  6
CONTINUOUS
 62
     0
 10
26.213324810034951
 20
51.760808533028921
 30
0.0
  0
VERTEX
  5
2658
  8
0
  6
CONTINUOUS
 62
     0
 10
26.302411365280879
 20
51.812242679681333
 30
0.0
  0
SEQEND
  5
2659
  8
0
  6
CONTINUOUS
 62
     0
  0
POLYLINE
  5
1E0E
  8
0
  6
CONTINUOUS
 62
     0
 66
     1
 10
0.0
 20
0.0
 30
0.0
  0
VERTEX
  5
265A
  8
0
  6
CONTINUOUS
 62
     0
 10
26.302411365280879
 20
51.812242679681333
 30
0.0
  0
VERTEX
  5
265B
  8
0
  6
CONTINUOUS
 62
     0
 10
26.391497920526749
 20
51.863676826333709
 30
0.0
  0
VERTEX
  5
265C
  8
0
  6
CONTINUOUS
 62
     0
 10
26.56884369263329
 20
51.966067455599081
 30
0.0
  0
VERTEX
  5
265D
  8
0
  6
CONTINUOUS
 62
     0
 10
26.745312182247041
 20
52.067951585581049
 30
0.0
  0
VERTEX
  5
265E
  8
0
  6
CONTINUOUS
 62
     0
 10
26.83329993639423
 20
52.118751339123321
 30
0.0
  0
VERTEX
  5
265F
  8
0
  6
CONTINUOUS
 62
     0
 10
26.921166319295718
 20
52.169481018944232
 30
0.0
  0
VERTEX
  5
2660
  8
0
  6
CONTINUOUS
 62
     0
 10
27.096661153816669
 20
52.27080300889628
 30
0.0
  0
VERTEX
  5
2661
  8
0
  6
CONTINUOUS
 62
     0
 10
27.27204525422259
 20
52.372061066477222
 30
0.0
  0
VERTEX
  5
2662
  8
0
  6
CONTINUOUS
 62
     0
 10
27.447562015950201
 20
52.473395716107937
 30
0.0
  0
VERTEX
  5
2663
  8
0
  6
CONTINUOUS
 62
     0
 10
27.623450896279351
 20
52.574945208513441
 30
0.0
  0
VERTEX
  5
2664
  8
0
  6
CONTINUOUS
 62
     0
 10
27.799948589552521
 20
52.676846199236053
 30
0.0
  0
VERTEX
  5
2665
  8
0
  6
CONTINUOUS
 62
     0
 10
27.888499231034722
 20
52.727970935932717
 30
0.0
  0
VERTEX
  5
2666
  8
0
  6
CONTINUOUS
 62
     0
 10
27.977290155766742
 20
52.779234400228347
 30
0.0
  0
VERTEX
  5
2667
  8
0
  6
CONTINUOUS
 62
     0
 10
28.155710114507261
 20
52.882245211435979
 30
0.0
  0
VERTEX
  5
2668
  8
0
  6
CONTINUOUS
 62
     0
 10
28.335443515421591
 20
52.986014338836242
 30
0.0
  0
VERTEX
  5
2669
  8
0
  6
CONTINUOUS
 62
     0
 10
28.516726995866271
 20
53.090678405070612
 30
0.0
  0
VERTEX
  5
266A
  8
0
  6
CONTINUOUS
 62
     0
 10
28.699799835976581
 20
53.196375558589601
 30
0.0
  0
VERTEX
  5
266B
  8
0
  6
CONTINUOUS
 62
     0
 10
28.88490502120759
 20
53.30324608711112
 30
0.0
  0
VERTEX
  5
266C
  8
0
  6
CONTINUOUS
 62
     0
 10
28.978296954636509
 20
53.35716594501644
 30
0.0
  0
VERTEX
  5
266D
  8
0
  6
CONTINUOUS
 62
     0
 10
29.072290322353918
 20
53.411433041170142
 30
0.0
  0
VERTEX
  5
266E
  8
0
  6
CONTINUOUS
 62
     0
 10
29.262209403183491
 20
53.521082873611327
 30
0.0
  0
VERTEX
  5
266F
  8
0
  6
CONTINUOUS
 62
     0
 10
29.454922966107208
 20
53.632346101041833
 30
0.0
  0
VERTEX
  5
2670
  8
0
  6
CONTINUOUS
 62
     0
 10
29.552411365280861
 20
53.688631054547614
 30
0.0
  0
SEQEND
  5
2671
  8
0
  6
CONTINUOUS
 62
     0
  0
POLYLINE
  5
1E0F
  8
0
  6
CONTINUOUS
 62
     0
 66
     1
 10
0.0
 20
0.0
 30
0.0
  0
VERTEX
  5
2672
  8
0
  6
CONTINUOUS
 62
     0
 10
26.302411365280818
 20
63.070572928878988
 30
0.0
  0
VERTEX
  5
2673
  8
0
  6
CONTINUOUS
 62
     0
 10
26.213324810034951
 20
63.122007075531421
 30
0.0
  0
VERTEX
  5
2674
  8
0
  6
CONTINUOUS
 62
     0
 10
26.035979037928399
 20
63.224397704796772
 30
0.0
  0
VERTEX
  5
2675
  8
0
  6
CONTINUOUS
 62
     0
 10
25.859510548314631
 20
63.32628183477874
 30
0.0
  0
VERTEX
  5
2676
  8
0
  6
CONTINUOUS
 62
     0
 10
25.771522794167439
 20
63.377081588321019
 30
0.0
  0
VERTEX
  5
2677
  8
0
  6
CONTINUOUS
 62
     0
 10
25.68365641126594
 20
63.427811268141909
 30
0.0
  0
VERTEX
  5
2678
  8
0
  6
CONTINUOUS
 62
     0
 10
25.508161576744978
 20
63.529133258093992
 30
0.0
  0
VERTEX
  5
2679
  8
0
  6
CONTINUOUS
 62
     0
 10
25.332777476339079
 20
63.630391315674913
 30
0.0
  0
VERTEX
  5
267A
  8
0
  6
CONTINUOUS
 62
     0
 10
25.157260714611429
 20
63.73172596530565
 30
0.0
  0
VERTEX
  5
267B
  8
0
  6
CONTINUOUS
 62
     0
 10
24.981371834282371
 20
63.83327545771116
 30
0.0
  0
VERTEX
  5
267C
  8
0
  6
CONTINUOUS
 62
     0
 10
24.804874141009169
 20
63.935176448433772
 30
0.0
  0
VERTEX
  5
267D
  8
0
  6
CONTINUOUS
 62
     0
 10
24.716323499526951
 20
63.986301185130401
 30
0.0
  0
VERTEX
  5
267E
  8
0
  6
CONTINUOUS
 62
     0
 10
24.627532574794909
 20
64.037564649426059
 30
0.0
  0
VERTEX
  5
267F
  8
0
  6
CONTINUOUS
 62
     0
 10
24.449112616054389
 20
64.140575460633698
 30
0.0
  0
VERTEX
  5
2680
  8
0
  6
CONTINUOUS
 62
     0
 10
24.269379215140049
 20
64.244344588033954
 30
0.0
  0
VERTEX
  5
2681
  8
0
  6
CONTINUOUS
 62
     0
 10
24.088095734695418
 20
64.349008654268289
 30
0.0
  0
VERTEX
  5
2682
  8
0
  6
CONTINUOUS
 62
     0
 10
23.90502289458513
 20
64.454705807787292
 30
0.0
  0
VERTEX
  5
2683
  8
0
  6
CONTINUOUS
 62
     0
 10
23.719917709354149
 20
64.561576336308832
 30
0.0
  0
VERTEX
  5
2684
  8
0
  6
CONTINUOUS
 62
     0
 10
23.626525775925192
 20
64.615496194214103
 30
0.0
  0
VERTEX
  5
2685
  8
0
  6
CONTINUOUS
 62
     0
 10
23.532532408207729
 20
64.669763290367854
 30
0.0
  0
VERTEX
  5
2686
  8
0
  6
CONTINUOUS
 62
     0
 10
23.342613327378199
 20
64.779413122809046
 30
0.0
  0
VERTEX
  5
2687
  8
0
  6
CONTINUOUS
 62
     0
 10
23.149899764454471
 20
64.890676350239517
 30
0.0
  0
VERTEX
  5
2688
  8
0
  6
CONTINUOUS
 62
     0
 10
23.052411365280861
 20
64.946961303745312
 30
0.0
  0
SEQEND
  5
2689
  8
0
  6
CONTINUOUS
 62
     0
  0
POLYLINE
  5
1E10
  8
0
  6
CONTINUOUS
 62
     0
 66
     1
 10
0.0
 20
0.0
 30
0.0
  0
VERTEX
  5
268A
  8
0
  6
CONTINUOUS
 62
     0
 10
29.552411365280861
 20
61.194184554012729
 30
0.0
  0
VERTEX
  5
268B
  8
0
  6
CONTINUOUS
 62
     0
 10
29.454922966107159
 20
61.250469507518481
 30
0.0
  0
VERTEX
  5
268C
  8
0
  6
CONTINUOUS
 62
     0
 10
29.262209403183519
 20
61.361732734949001
 30
0.0
  0
VERTEX
  5
268D
  8
0
  6
CONTINUOUS
 62
     0
 10
29.07229032235394
 20
61.471382567390179
 30
0.0
  0
VERTEX
  5
268E
  8
0
  6
CONTINUOUS
 62
     0
 10
28.978296954636491
 20
61.525649663543902
 30
0.0
  0
VERTEX
  5
268F
  8
0
  6
CONTINUOUS
 62
     0
 10
28.88490502120759
 20
61.57956952144923
 30
0.0
  0
VERTEX
  5
2690
  8
0
  6
CONTINUOUS
 62
     0
 10
28.699799835976549
 20
61.686440049970741
 30
0.0
  0
VERTEX
  5
2691
  8
0
  6
CONTINUOUS
 62
     0
 10
28.516726995866271
 20
61.79213720348973
 30
0.0
  0
VERTEX
  5
2692
  8
0
  6
CONTINUOUS
 62
     0
 10
28.33544351542162
 20
61.896801269724051
 30
0.0
  0
VERTEX
  5
2693
  8
0
  6
CONTINUOUS
 62
     0
 10
28.155710114507251
 20
62.00057039712437
 30
0.0
  0
VERTEX
  5
2694
  8
0
  6
CONTINUOUS
 62
     0
 10
27.97729015576677
 20
62.10358120833196
 30
0.0
  0
VERTEX
  5
2695
  8
0
  6
CONTINUOUS
 62
     0
 10
27.888499231034729
 20
62.154844672627597
 30
0.0
  0
VERTEX
  5
2696
  8
0
  6
CONTINUOUS
 62
     0
 10
27.799948589552521
 20
62.205969409324233
 30
0.0
  0
VERTEX
  5
2697
  8
0
  6
CONTINUOUS
 62
     0
 10
27.623450896279369
 20
62.30787040004688
 30
0.0
  0
VERTEX
  5
2698
  8
0
  6
CONTINUOUS
 62
     0
 10
27.447562015950201
 20
62.409419892452348
 30
0.0
  0
VERTEX
  5
2699
  8
0
  6
CONTINUOUS
 62
     0
 10
27.272045254222611
 20
62.510754542083113
 30
0.0
  0
VERTEX
  5
269A
  8
0
  6
CONTINUOUS
 62
     0
 10
27.096661153816701
 20
62.612012599664013
 30
0.0
  0
VERTEX
  5
269B
  8
0
  6
CONTINUOUS
 62
     0
 10
26.92116631929574
 20
62.713334589616103
 30
0.0
  0
VERTEX
  5
269C
  8
0
  6
CONTINUOUS
 62
     0
 10
26.833299936394241
 20
62.764064269437
 30
0.0
  0
VERTEX
  5
269D
  8
0
  6
CONTINUOUS
 62
     0
 10
26.745312182247051
 20
62.814864022979293
 30
0.0
  0
VERTEX
  5
269E
  8
0
  6
CONTINUOUS
 62
     0
 10
26.56884369263328
 20
62.916748152961247
 30
0.0
  0
VERTEX
  5
269F
  8
0
  6
CONTINUOUS
 62
     0
 10
26.391497920526771
 20
63.019138782226626
 30
0.0
  0
VERTEX
  5
26A0
  8
0
  6
CONTINUOUS
 62
     0
 10
26.302411365280818
 20
63.070572928878988
 30
0.0
  0
SEQEND
  5
26A1
  8
0
  6
CONTINUOUS
 62
     0
  0
POLYLINE
  5
1E11
  8
0
  6
CONTINUOUS
 62
     0
 66
     1
 10
0.0
 20
0.0
 30
0.0
  0
VERTEX
  5
26A2
  8
0
  6
CONTINUOUS
 62
     0
 10
19.802411365280872
 20
63.070572928879031
 30
0.0
  0
VERTEX
  5
26A3
  8
0
  6
CONTINUOUS
 62
     0
 10
19.713324810034951
 20
63.019138782226619
 30
0.0
  0
VERTEX
  5
26A4
  8
0
  6
CONTINUOUS
 62
     0
 10
19.535979037928399
 20
62.916748152961262
 30
0.0
  0
VERTEX
  5
26A5
  8
0
  6
CONTINUOUS
 62
     0
 10
19.359510548314649
 20
62.814864022979279
 30
0.0
  0
VERTEX
  5
26A6
  8
0
  6
CONTINUOUS
 62
     0
 10
19.271522794167421
 20
62.764064269436979
 30
0.0
  0
VERTEX
  5
26A7
  8
0
  6
CONTINUOUS
 62
     0
 10
19.183656411265911
 20
62.713334589616082
 30
0.0
  0
VERTEX
  5
26A8
  8
0
  6
CONTINUOUS
 62
     0
 10
19.008161576744971
 20
62.61201259966402
 30
0.0
  0
VERTEX
  5
26A9
  8
0
  6
CONTINUOUS
 62
     0
 10
18.8327774763391
 20
62.51075454208312
 30
0.0
  0
VERTEX
  5
26AA
  8
0
  6
CONTINUOUS
 62
     0
 10
18.657260714611489
 20
62.409419892452391
 30
0.0
  0
VERTEX
  5
26AB
  8
0
  6
CONTINUOUS
 62
     0
 10
18.481371834282388
 20
62.307870400046923
 30
0.0
  0
VERTEX
  5
26AC
  8
0
  6
CONTINUOUS
 62
     0
 10
18.304874141009179
 20
62.205969409324283
 30
0.0
  0
VERTEX
  5
26AD
  8
0
  6
CONTINUOUS
 62
     0
 10
18.216323499526919
 20
62.15484467262759
 30
0.0
  0
VERTEX
  5
26AE
  8
0
  6
CONTINUOUS
 62
     0
 10
18.127532574794898
 20
62.10358120833196
 30
0.0
  0
VERTEX
  5
26AF
  8
0
  6
CONTINUOUS
 62
     0
 10
17.949112616054428
 20
62.000570397124349
 30
0.0
  0
VERTEX
  5
26B0
  8
0
  6
CONTINUOUS
 62
     0
 10
17.769379215140049
 20
61.896801269724058
 30
0.0
  0
VERTEX
  5
26B1
  8
0
  6
CONTINUOUS
 62
     0
 10
17.588095734695429
 20
61.79213720348973
 30
0.0
  0
VERTEX
  5
26B2
  8
0
  6
CONTINUOUS
 62
     0
 10
17.405022894585109
 20
61.686440049970727
 30
0.0
  0
VERTEX
  5
26B3
  8
0
  6
CONTINUOUS
 62
     0
 10
17.21991770935416
 20
61.579569521449251
 30
0.0
  0
VERTEX
  5
26B4
  8
0
  6
CONTINUOUS
 62
     0
 10
17.126525775925192
 20
61.525649663543888
 30
0.0
  0
VERTEX
  5
26B5
  8
0
  6
CONTINUOUS
 62
     0
 10
17.032532408207761
 20
61.471382567390187
 30
0.0
  0
VERTEX
  5
26B6
  8
0
  6
CONTINUOUS
 62
     0
 10
16.842613327378199
 20
61.361732734949001
 30
0.0
  0
VERTEX
  5
26B7
  8
0
  6
CONTINUOUS
 62
     0
 10
16.649899764454538
 20
61.250469507518531
 30
0.0
  0
VERTEX
  5
26B8
  8
0
  6
CONTINUOUS
 62
     0
 10
16.552411365280872
 20
61.19418455401275
 30
0.0
  0
SEQEND
  5
26B9
  8
0
  6
CONTINUOUS
 62
     0
  0
POLYLINE
  5
1E12
  8
0
  6
CONTINUOUS
 62
     0
 66
     1
 10
0.0
 20
0.0
 30
0.0
  0
VERTEX
  5
26BA
  8
0
  6
CONTINUOUS
 62
     0
 10
23.052411365280861
 20
64.946961303745312
 30
0.0
  0
VERTEX
  5
26BB
  8
0
  6
CONTINUOUS
 62
     0
 10
22.954922966107208
 20
64.890676350239531
 30
0.0
  0
VERTEX
  5
26BC
  8
0
  6
CONTINUOUS
 62
     0
 10
22.762209403183491
 20
64.779413122809032
 30
0.0
  0
VERTEX
  5
26BD
  8
0
  6
CONTINUOUS
 62
     0
 10
22.572290322353918
 20
64.66976329036784
 30
0.0
  0
VERTEX
  5
26BE
  8
0
  6
CONTINUOUS
 62
     0
 10
22.478296954636502
 20
64.615496194214145
 30
0.0
  0
VERTEX
  5
26BF
  8
0
  6
CONTINUOUS
 62
     0
 10
22.38490502120759
 20
64.561576336308818
 30
0.0
  0
VERTEX
  5
26C0
  8
0
  6
CONTINUOUS
 62
     0
 10
22.199799835976581
 20
64.454705807787306
 30
0.0
  0
VERTEX
  5
26C1
  8
0
  6
CONTINUOUS
 62
     0
 10
22.016726995866271
 20
64.349008654268303
 30
0.0
  0
VERTEX
  5
26C2
  8
0
  6
CONTINUOUS
 62
     0
 10
21.835443515421591
 20
64.24434458803394
 30
0.0
  0
VERTEX
  5
26C3
  8
0
  6
CONTINUOUS
 62
     0
 10
21.655710114507261
 20
64.140575460633684
 30
0.0
  0
VERTEX
  5
26C4
  8
0
  6
CONTINUOUS
 62
     0
 10
21.477290155766742
 20
64.037564649426045
 30
0.0
  0
VERTEX
  5
26C5
  8
0
  6
CONTINUOUS
 62
     0
 10
21.388499231034711
 20
63.986301185130408
 30
0.0
  0
VERTEX
  5
26C6
  8
0
  6
CONTINUOUS
 62
     0
 10
21.29994858955251
 20
63.935176448433751
 30
0.0
  0
VERTEX
  5
26C7
  8
0
  6
CONTINUOUS
 62
     0
 10
21.123450896279351
 20
63.833275457711139
 30
0.0
  0
VERTEX
  5
26C8
  8
0
  6
CONTINUOUS
 62
     0
 10
20.947562015950201
 20
63.731725965305642
 30
0.0
  0
VERTEX
  5
26C9
  8
0
  6
CONTINUOUS
 62
     0
 10
20.77204525422259
 20
63.630391315674913
 30
0.0
  0
VERTEX
  5
26CA
  8
0
  6
CONTINUOUS
 62
     0
 10
20.596661153816669
 20
63.529133258093978
 30
0.0
  0
VERTEX
  5
26CB
  8
0
  6
CONTINUOUS
 62
     0
 10
20.421166319295718
 20
63.427811268141923
 30
0.0
  0
VERTEX
  5
26CC
  8
0
  6
CONTINUOUS
 62
     0
 10
20.33329993639423
 20
63.377081588321019
 30
0.0
  0
VERTEX
  5
26CD
  8
0
  6
CONTINUOUS
 62
     0
 10
20.24531218224703
 20
63.326281834778761
 30
0.0
  0
VERTEX
  5
26CE
  8
0
  6
CONTINUOUS
 62
     0
 10
20.068843692633301
 20
63.224397704796772
 30
0.0
  0
VERTEX
  5
26CF
  8
0
  6
CONTINUOUS
 62
     0
 10
19.891497920526739
 20
63.122007075531421
 30
0.0
  0
VERTEX
  5
26D0
  8
0
  6
CONTINUOUS
 62
     0
 10
19.802411365280872
 20
63.070572928879031
 30
0.0
  0
SEQEND
  5
26D1
  8
0
  6
CONTINUOUS
 62
     0
  0
POLYLINE
  5
1E13
  8
0
  6
CONTINUOUS
 62
     0
 66
     1
 10
0.0
 20
0.0
 30
0.0
  0
VERTEX
  5
26D2
  8
0
  6
CONTINUOUS
 62
     0
 10
16.552411365280829
 20
57.441407804280161
 30
0.0
  0
VERTEX
  5
26D3
  8
0
  6
CONTINUOUS
 62
     0
 10
16.552411365280861
 20
57.33853951097538
 30
0.0
  0
VERTEX
  5
26D4
  8
0
  6
CONTINUOUS
 62
     0
 10
16.552411365280818
 20
57.133758252444629
 30
0.0
  0
VERTEX
  5
26D5
  8
0
  6
CONTINUOUS
 62
     0
 10
16.552411365280829
 20
56.929989992480699
 30
0.0
  0
VERTEX
  5
26D6
  8
0
  6
CONTINUOUS
 62
     0
 10
16.55241136528085
 20
56.828390485396142
 30
0.0
  0
VERTEX
  5
26D7
  8
0
  6
CONTINUOUS
 62
     0
 10
16.55241136528079
 20
56.726931125754319
 30
0.0
  0
VERTEX
  5
26D8
  8
0
  6
CONTINUOUS
 62
     0
 10
16.552411365280861
 20
56.524287145850202
 30
0.0
  0
VERTEX
  5
26D9
  8
0
  6
CONTINUOUS
 62
     0
 10
16.55241136528085
 20
56.321771030688353
 30
0.0
  0
VERTEX
  5
26DA
  8
0
  6
CONTINUOUS
 62
     0
 10
16.552411365280829
 20
56.119101731426859
 30
0.0
  0
VERTEX
  5
26DB
  8
0
  6
CONTINUOUS
 62
     0
 10
16.55241136528085
 20
55.916002746615902
 30
0.0
  0
VERTEX
  5
26DC
  8
0
  6
CONTINUOUS
 62
     0
 10
16.552411365280829
 20
55.712200765170657
 30
0.0
  0
VERTEX
  5
26DD
  8
0
  6
CONTINUOUS
 62
     0
 10
16.55241136528085
 20
55.609951291777371
 30
0.0
  0
VERTEX
  5
26DE
  8
0
  6
CONTINUOUS
 62
     0
 10
16.552411365280861
 20
55.507424363186068
 30
0.0
  0
VERTEX
  5
26DF
  8
0
  6
CONTINUOUS
 62
     0
 10
16.55241136528085
 20
55.301402740770811
 30
0.0
  0
VERTEX
  5
26E0
  8
0
  6
CONTINUOUS
 62
     0
 10
16.552411365280861
 20
55.093864485970272
 30
0.0
  0
VERTEX
  5
26E1
  8
0
  6
CONTINUOUS
 62
     0
 10
16.55241136528085
 20
54.884536353501581
 30
0.0
  0
VERTEX
  5
26E2
  8
0
  6
CONTINUOUS
 62
     0
 10
16.5524113652808
 20
54.673142046463603
 30
0.0
  0
VERTEX
  5
26E3
  8
0
  6
CONTINUOUS
 62
     0
 10
16.552411365280829
 20
54.459400989420573
 30
0.0
  0
VERTEX
  5
26E4
  8
0
  6
CONTINUOUS
 62
     0
 10
16.552411365280829
 20
54.351561273609931
 30
0.0
  0
VERTEX
  5
26E5
  8
0
  6
CONTINUOUS
 62
     0
 10
16.55241136528085
 20
54.2430270813025
 30
0.0
  0
VERTEX
  5
26E6
  8
0
  6
CONTINUOUS
 62
     0
 10
16.552411365280872
 20
54.02372741642013
 30
0.0
  0
VERTEX
  5
26E7
  8
0
  6
CONTINUOUS
 62
     0
 10
16.55241136528085
 20
53.801200961559132
 30
0.0
  0
VERTEX
  5
26E8
  8
0
  6
CONTINUOUS
 62
     0
 10
16.552411365280879
 20
53.688631054547614
 30
0.0
  0
SEQEND
  5
26E9
  8
0
  6
CONTINUOUS
 62
     0
  0
POLYLINE
  5
1E14
  8
0
  6
CONTINUOUS
 62
     0
 66
     1
 10
0.0
 20
0.0
 30
0.0
  0
VERTEX
  5
26EA
  8
0
  6
CONTINUOUS
 62
     0
 10
16.552411365280872
 20
61.19418455401275
 30
0.0
  0
VERTEX
  5
26EB
  8
0
  6
CONTINUOUS
 62
     0
 10
16.552411365280818
 20
61.081614647001167
 30
0.0
  0
VERTEX
  5
26EC
  8
0
  6
CONTINUOUS
 62
     0
 10
16.552411365280829
 20
60.859088192140199
 30
0.0
  0
VERTEX
  5
26ED
  8
0
  6
CONTINUOUS
 62
     0
 10
16.5524113652808
 20
60.639788527257821
 30
0.0
  0
VERTEX
  5
26EE
  8
0
  6
CONTINUOUS
 62
     0
 10
16.552411365280829
 20
60.531254334950368
 30
0.0
  0
VERTEX
  5
26EF
  8
0
  6
CONTINUOUS
 62
     0
 10
16.552411365280872
 20
60.42341461913977
 30
0.0
  0
VERTEX
  5
26F0
  8
0
  6
CONTINUOUS
 62
     0
 10
16.55241136528085
 20
60.209673562096732
 30
0.0
  0
VERTEX
  5
26F1
  8
0
  6
CONTINUOUS
 62
     0
 10
16.552411365280818
 20
59.998279255058719
 30
0.0
  0
VERTEX
  5
26F2
  8
0
  6
CONTINUOUS
 62
     0
 10
16.55241136528084
 20
59.78895112259007
 30
0.0
  0
VERTEX
  5
26F3
  8
0
  6
CONTINUOUS
 62
     0
 10
16.5524113652808
 20
59.58141286778951
 30
0.0
  0
VERTEX
  5
26F4
  8
0
  6
CONTINUOUS
 62
     0
 10
16.55241136528085
 20
59.37539124537426
 30
0.0
  0
VERTEX
  5
26F5
  8
0
  6
CONTINUOUS
 62
     0
 10
16.552411365280861
 20
59.272864316782972
 30
0.0
  0
VERTEX
  5
26F6
  8
0
  6
CONTINUOUS
 62
     0
 10
16.552411365280829
 20
59.170614843389643
 30
0.0
  0
VERTEX
  5
26F7
  8
0
  6
CONTINUOUS
 62
     0
 10
16.552411365280861
 20
58.966812861944433
 30
0.0
  0
VERTEX
  5
26F8
  8
0
  6
CONTINUOUS
 62
     0
 10
16.552411365280818
 20
58.763713877133448
 30
0.0
  0
VERTEX
  5
26F9
  8
0
  6
CONTINUOUS
 62
     0
 10
16.5524113652808
 20
58.561044577871947
 30
0.0
  0
VERTEX
  5
26FA
  8
0
  6
CONTINUOUS
 62
     0
 10
16.55241136528079
 20
58.358528462710112
 30
0.0
  0
VERTEX
  5
26FB
  8
0
  6
CONTINUOUS
 62
     0
 10
16.552411365280861
 20
58.155884482806002
 30
0.0
  0
VERTEX
  5
26FC
  8
0
  6
CONTINUOUS
 62
     0
 10
16.5524113652808
 20
58.054425123164172
 30
0.0
  0
VERTEX
  5
26FD
  8
0
  6
CONTINUOUS
 62
     0
 10
16.552411365280818
 20
57.952825616079622
 30
0.0
  0
VERTEX
  5
26FE
  8
0
  6
CONTINUOUS
 62
     0
 10
16.55241136528085
 20
57.749057356115671
 30
0.0
  0
VERTEX
  5
26FF
  8
0
  6
CONTINUOUS
 62
     0
 10
16.55241136528085
 20
57.544276097584948
 30
0.0
  0
VERTEX
  5
2700
  8
0
  6
CONTINUOUS
 62
     0
 10
16.552411365280829
 20
57.441407804280161
 30
0.0
  0
SEQEND
  5
2701
  8
0
  6
CONTINUOUS
 62
     0
  0
CIRCLE
  5
1E15
  8
0
  6
CONTINUOUS
 62
     0
 10
23.052411365280818
 20
57.441407804280153
 30
0.0
 40
3.9999999999999929
  0
CIRCLE
  5
1E23
  8
0
  6
CONTINUOUS
 62
     0
 10
23.052411365280818
 20
57.441407804280153
 30
0.0
 40
2.0
  0
CIRCLE
  5
1E24
  8
0
  6
CONTINUOUS
 62
     0
 10
23.052411365280818
 20
57.441407804280153
 30
0.0
 40
1.4226497308103629
  0
CIRCLE
  5
1E26
  8
0
  6
CONTINUOUS
 62
     0
 10
23.052411365280818
 20
57.441407804280153
 30
0.0
 40
9.0
  0
ARC
  5
1E29
  8
0
 10
71.061359728135955
 20
61.84140780428018
 30
0.0
 40
0.4
 50
270.00000000000142
 51
0.0
  0
ARC
  5
1E2A
  8
0
 10
71.061359728135955
 20
53.041407804280169
 30
0.0
 40
0.4
 50
0.0
 51
89.999999999998593
  0
ARC
  5
1E2B
  8
0
 10
71.061359728135955
 20
21.8213721594731
 30
0.0
 40
0.4
 50
270.00000000000142
 51
0.0
  0
ARC
  5
1E2C
  8
0
 10
71.061359728135955
 20
13.02137215947309
 30
0.0
 40
0.4
 50
0.0
 51
89.999999999998593
  0
CIRCLE
  5
1E34
  8
3
 10
23.052411365280879
 20
57.441407804280182
 30
0.0
 40
3.3865000000000118
  0
LINE
  5
1E39
  8
2
 10
23.052411365280879
 20
63.214910496176451
 30
0.0
 11
28.052411365280818
 21
60.328159150228267
 31
0.0
  0
LINE
  5
1E3A
  8
2
 10
28.052411365280818
 20
60.328159150228267
 30
0.0
 11
28.05241136528085
 21
54.55465645833204
 31
0.0
  0
LINE
  5
1E3B
  8
2
 10
28.05241136528085
 20
54.55465645833204
 30
0.0
 11
23.05241136528085
 21
51.667905112383892
 31
0.0
  0
LINE
  5
1E3C
  8
2
 10
23.05241136528085
 20
51.667905112383892
 30
0.0
 11
18.052411365280818
 21
54.554656458332019
 31
0.0
  0
LINE
  5
1E3D
  8
2
 10
18.052411365280818
 20
54.554656458332019
 30
0.0
 11
18.052411365280829
 21
60.328159150228288
 31
0.0
  0
LINE
  5
1E3E
  8
2
 10
18.052411365280829
 20
60.328159150228288
 30
0.0
 11
23.052411365280879
 21
63.214910496176451
 31
0.0
  0
LINE
  5
1E48
  8
1
 10
128.9613597281359
 20
45.441397316952433
 30
0.0
 11
128.9613597281359
 21
69.441418291607917
 31
0.0
  0
LINE
  5
1E49
  8
1
 10
116.9613492408082
 20
57.441407804280182
 30
0.0
 11
140.96137021546369
 21
57.441407804280182
 31
0.0
  0
CIRCLE
  5
1E4D
  8
0
 10
128.9613597281359
 20
57.441407804280182
 30
0.0
 40
7.3314225119427761
  0
CIRCLE
  5
1E4E
  8
0
 10
128.9613597281359
 20
57.441407804280182
 30
0.0
 40
8.0000002248310533
  0
CIRCLE
  5
1E4F
  8
0
 10
128.9613597281359
 20
57.441407804280182
 30
0.0
 40
9.0000104873277404
  0
POLYLINE
  5
1E72
  8
0
 66
     1
 10
0.0
 20
0.0
 30
0.0
  0
VERTEX
  5
1E73
  8
0
 10
61.661359728135963
 20
18.959491944121389
 30
0.0
 42
0.3276813223934047
  0
VERTEX
  5
1E74
  8
0
 10
61.610996690923642
 20
18.922515548568409
 30
0.0
 42
0.0437459544518764
  0
VERTEX
  5
1E75
  8
0
 10
61.519938371898661
 20
18.508987089475099
 30
0.0
 42
0.0188761590834481
 70
     2
 50
262.59146041517357
  0
VERTEX
  5
1E76
  8
0
 10
61.47847477258555
 20
18.057374173765879
 30
0.0
 42
0.0134527459397667
 50
262.59146041517357
  0
VERTEX
  5
1E77
  8
0
 10
61.46135972813596
 20
17.421372159473059
 30
0.0
 42
0.0134527459397577
  0
VERTEX
  5
1E78
  8
0
 10
61.478474772585542
 20
16.785370145180309
 30
0.0
 42
0.018876159083438
  0
VERTEX
  5
1E79
  8
0
 10
61.519938371898661
 20
16.333757229471029
 30
0.0
 42
0.0437459544518766
 70
     2
 50
277.40853958482643
  0
VERTEX
  5
1E7A
  8
0
 10
61.610996690923642
 20
15.920228770377721
 30
0.0
 42
0.3276813223932475
 50
277.40853958482643
  0
VERTEX
  5
1E7B
  8
0
 10
61.661359728135963
 20
15.88325237482475
 30
0.0
 42
0.3276813223932475
  0
SEQEND
  5
1E7C
  8
0
  0
LINE
  5
1E7D
  8
0
  6
CONTINUOUS
 62
     0
 10
61.661359728135977
 20
18.959491944121389
 30
0.0
 11
61.661359728135977
 21
15.88325237482473
 31
0.0
  0
LINE
  5
1E7E
  8
0
 10
62.46135972813596
 20
19.421372159473091
 30
0.0
 11
61.661359728135963
 21
18.959491944121389
 31
0.0
  0
LINE
  5
1E7F
  8
0
 10
62.461359728135939
 20
15.42137215947306
 30
0.0
 11
61.661359728135963
 21
15.88325237482473
 31
0.0
  0
LINE
  5
1E80
  8
0
  6
CONTINUOUS
 62
     0
 10
62.46135972813596
 20
19.421372159473091
 30
0.0
 11
62.46135972813596
 21
15.42137215947308
 31
0.0
  0
LINE
  5
1E81
  8
0
  6
CONTINUOUS
 62
     0
 10
62.46135972813596
 20
15.42137215947308
 30
0.0
 11
65.46135972813596
 21
15.421372159473091
 31
0.0
  0
LINE
  5
1E82
  8
0
  6
CONTINUOUS
 62
     0
 10
65.46135972813596
 20
19.421372159473091
 30
0.0
 11
62.46135972813596
 21
19.421372159473091
 31
0.0
  0
POLYLINE
  5
1E98
  8
0
 66
     1
 10
0.0
 20
0.0
 30
0.0
  0
VERTEX
  5
1E99
  8
0
 10
61.661359728135963
 20
58.979527588928477
 30
0.0
 42
0.3276813223934047
  0
VERTEX
  5
1E9A
  8
0
 10
61.610996690923642
 20
58.942551193375493
 30
0.0
 42
0.0437459544518764
  0
VERTEX
  5
1E9B
  8
0
 10
61.519938371898661
 20
58.529022734282179
 30
0.0
 42
0.0188761590834481
 70
     2
 50
262.59146041517357
  0
VERTEX
  5
1E9C
  8
0
 10
61.47847477258555
 20
58.07740981857296
 30
0.0
 42
0.0134527459397667
 50
262.59146041517357
  0
VERTEX
  5
1E9D
  8
0
 10
61.46135972813596
 20
57.441407804280153
 30
0.0
 42
0.0134527459397577
  0
VERTEX
  5
1E9E
  8
0
 10
61.478474772585542
 20
56.80540578998739
 30
0.0
 42
0.018876159083438
  0
VERTEX
  5
1E9F
  8
0
 10
61.519938371898661
 20
56.353792874278113
 30
0.0
 42
0.0437459544518766
 70
     2
 50
277.40853958482643
  0
VERTEX
  5
1EA0
  8
0
 10
61.610996690923642
 20
55.940264415184792
 30
0.0
 42
0.3276813223932475
 50
277.40853958482643
  0
VERTEX
  5
1EA1
  8
0
 10
61.661359728135963
 20
55.90328801963183
 30
0.0
 42
0.3276813223932475
  0
SEQEND
  5
1EA2
  8
0
  0
LINE
  5
1EA3
  8
0
  6
CONTINUOUS
 62
     0
 10
61.661359728135977
 20
58.979527588928477
 30
0.0
 11
61.661359728135977
 21
55.903288019631809
 31
0.0
  0
LINE
  5
1EA4
  8
0
 10
62.46135972813596
 20
59.441407804280182
 30
0.0
 11
61.661359728135963
 21
58.979527588928477
 31
0.0
  0
LINE
  5
1EA5
  8
0
 10
62.461359728135939
 20
55.441407804280153
 30
0.0
 11
61.661359728135963
 21
55.903288019631809
 31
0.0
  0
LINE
  5
1EA6
  8
0
  6
CONTINUOUS
 62
     0
 10
62.46135972813596
 20
59.441407804280182
 30
0.0
 11
62.46135972813596
 21
55.441407804280161
 31
0.0
  0
LINE
  5
1EA7
  8
0
  6
CONTINUOUS
 62
     0
 10
62.46135972813596
 20
55.441407804280161
 30
0.0
 11
65.46135972813596
 21
55.441407804280168
 31
0.0
  0
LINE
  5
1EA8
  8
0
  6
CONTINUOUS
 62
     0
 10
65.46135972813596
 20
59.441407804280182
 30
0.0
 11
62.46135972813596
 21
59.441407804280182
 31
0.0
  0
TEXT
  5
1F59
  8
0
 62
     3
 10
0.0
 20
0.0
 30
0.0
 40
5.0
  1
NDXNS8AW-SUS
  7
STANDARD1
  0
ENDSEC
  0
EOF
