  0
SECTION
  2
HEADER
  9
$ACADVER
  1
AC1009
  9
$INSBASE
 10
0.0
 20
0.0
 30
0.0
  9
$EXTMIN
 10
0.0
 20
-2.960436562073669
 30
0.0
  9
$EXTMAX
 10
347.0
 20
216.99999999999989
 30
0.0
  9
$LIMMIN
 10
0.0
 20
0.0
  9
$LIMMAX
 10
375.0
 20
270.0
  9
$ORTHOMODE
 70
     1
  9
$REGENMODE
 70
     1
  9
$FILLMODE
 70
     1
  9
$QTEXTMODE
 70
     0
  9
$MIRRTEXT
 70
     0
  9
$DRAGMODE
 70
     2
  9
$LTSCALE
 40
10.0
  9
$OSMODE
 70
  3071
  9
$ATTMODE
 70
     1
  9
$TEXTSIZE
 40
5.0
  9
$TRACEWID
 40
0.05
  9
$TEXTSTYLE
  7
STANDARD
  9
$CLAYER
  8
0
  9
$CELTYPE
  6
BYLAYER
  9
$CECOLOR
 62
   256
  9
$DIMSCALE
 40
1.0
  9
$DIMASZ
 40
3.0
  9
$DIMEXO
 40
2.0
  9
$DIMDLI
 40
0.38
  9
$DIMRND
 40
0.0
  9
$DIMDLE
 40
0.0
  9
$DIMEXE
 40
2.0
  9
$DIMTP
 40
0.0
  9
$DIMTM
 40
0.0
  9
$DIMTXT
 40
3.2000000000000002
  9
$DIMCEN
 40
0.09
  9
$DIMTSZ
 40
0.0
  9
$DIMTOL
 70
     0
  9
$DIMLIM
 70
     0
  9
$DIMTIH
 70
     0
  9
$DIMTOH
 70
     0
  9
$DIMSE1
 70
     0
  9
$DIMSE2
 70
     0
  9
$DIMTAD
 70
     1
  9
$DIMZIN
 70
     0
  9
$DIMBLK
  1

  9
$DIMASO
 70
     1
  9
$DIMSHO
 70
     0
  9
$DIMPOST
  1

  9
$DIMAPOST
  1

  9
$DIMALT
 70
     0
  9
$DIMALTD
 70
     2
  9
$DIMALTF
 40
25.399999999999999
  9
$DIMLFAC
 40
1.0
  9
$DIMTOFL
 70
     0
  9
$DIMTVP
 40
1.6000000000000001
  9
$DIMTIX
 70
     1
  9
$DIMSOXD
 70
     0
  9
$DIMSAH
 70
     0
  9
$DIMBLK1
  1

  9
$DIMBLK2
  1

  9
$DIMSTYLE
  2
STANDARD
  9
$DIMCLRD
 70
     0
  9
$DIMCLRE
 70
     0
  9
$DIMCLRT
 70
     0
  9
$DIMTFAC
 40
1.0
  9
$DIMGAP
 40
0.09
  9
$LUNITS
 70
     2
  9
$LUPREC
 70
     4
  9
$SKETCHINC
 40
0.1
  9
$FILLETRAD
 40
1.0
  9
$AUNITS
 70
     0
  9
$AUPREC
 70
     0
  9
$MENU
  1
E:\r13\win\SUPPORT\ACAD
  9
$ELEVATION
 40
0.0
  9
$PELEVATION
 40
0.0
  9
$THICKNESS
 40
0.0
  9
$LIMCHECK
 70
     0
  9
$BLIPMODE
 70
     0
  9
$CHAMFERA
 40
0.0
  9
$CHAMFERB
 40
0.0
  9
$SKPOLY
 70
     0
  9
$TDCREATE
 40
2449839.783020834
  9
$TDUPDATE
 40
2456597.5010066899
  9
$TDINDWG
 40
0.0227077778
  9
$TDUSRTIMER
 40
0.0227077778
  9
$USRTIMER
 70
     1
  9
$ANGBASE
 50
0.0
  9
$ANGDIR
 70
     0
  9
$PDMODE
 70
     0
  9
$PDSIZE
 40
0.0
  9
$PLINEWID
 40
0.0
  9
$COORDS
 70
     1
  9
$SPLFRAME
 70
     0
  9
$SPLINETYPE
 70
     6
  9
$SPLINESEGS
 70
     8
  9
$ATTDIA
 70
     0
  9
$ATTREQ
 70
     1
  9
$HANDLING
 70
     1
  9
$HANDSEED
  5
5AF
  9
$SURFTAB1
 70
     6
  9
$SURFTAB2
 70
     6
  9
$SURFTYPE
 70
     6
  9
$SURFU
 70
     6
  9
$SURFV
 70
     6
  9
$UCSNAME
  2

  9
$UCSORG
 10
0.0
 20
0.0
 30
0.0
  9
$UCSXDIR
 10
1.0
 20
0.0
 30
0.0
  9
$UCSYDIR
 10
0.0
 20
1.0
 30
0.0
  9
$PUCSNAME
  2

  9
$PUCSORG
 10
0.0
 20
0.0
 30
0.0
  9
$PUCSXDIR
 10
1.0
 20
0.0
 30
0.0
  9
$PUCSYDIR
 10
0.0
 20
1.0
 30
0.0
  9
$USERI1
 70
     0
  9
$USERI2
 70
     1
  9
$USERI3
 70
     1
  9
$USERI4
 70
     0
  9
$USERI5
 70
     0
  9
$USERR1
 40
0.0
  9
$USERR2
 40
0.0
  9
$USERR3
 40
0.0
  9
$USERR4
 40
0.0
  9
$USERR5
 40
0.0
  9
$WORLDVIEW
 70
     1
  9
$SHADEDGE
 70
     3
  9
$SHADEDIF
 70
    70
  9
$TILEMODE
 70
     1
  9
$MAXACTVP
 70
    16
  9
$PLIMCHECK
 70
     0
  9
$PEXTMIN
 10
1.0000000000000000E+020
 20
1.0000000000000000E+020
 30
1.0000000000000000E+020
  9
$PEXTMAX
 10
-1.0000000000000000E+020
 20
-1.0000000000000000E+020
 30
-1.0000000000000000E+020
  9
$PLIMMIN
 10
0.0
 20
0.0
  9
$PLIMMAX
 10
12.0
 20
9.0
  9
$UNITMODE
 70
     0
  9
$VISRETAIN
 70
     0
  9
$PLINEGEN
 70
     0
  9
$PSLTSCALE
 70
     0
  0
ENDSEC
  0
SECTION
  2
TABLES
  0
TABLE
  2
VPORT
 70
     1
  0
VPORT
  2
*ACTIVE
 70
     0
 10
0.0
 20
0.0
 11
1.0
 21
1.0
 12
187.49427839065231
 22
162.8616388594717
 13
0.0
 23
0.0
 14
10.0
 24
10.0
 15
10.0
 25
10.0
 16
0.0
 26
0.0
 36
1.0
 17
0.0
 27
0.0
 37
0.0
 40
334.81001162774987
 41
1.9089595375722539
 42
50.0
 43
0.0
 44
0.0
 50
0.0
 51
0.0
 71
     0
 72
   500
 73
     1
 74
     0
 75
     0
 76
     0
 77
     0
 78
     2
  0
ENDTAB
  0
TABLE
  2
LTYPE
 70
     3
  0
LTYPE
  2
CONTINUOUS
 70
     0
  3
Solid Line
 72
    65
 73
     0
 40
0.0
  0
LTYPE
  2
CENTER
 70
     0
  3
____ _ ____ _ ____ _ ____ _ ____ _ ____ _ ____
 72
    65
 73
     4
 40
2.0
 49
1.25
 49
-0.25
 49
0.25
 49
-0.25
  0
LTYPE
  2
PHANTOM2
 70
     0
  3
___ _ _ ___ _ _ ___ _ _ ___ _ _
 72
    65
 73
     6
 40
1.25
 49
0.625
 49
-0.125
 49
0.125
 49
-0.125
 49
0.125
 49
-0.125
  0
ENDTAB
  0
TABLE
  2
LAYER
 70
     4
  0
LAYER
  2
0
 70
     0
 62
     7
  6
CONTINUOUS
  0
LAYER
  2
1
 70
     0
 62
     1
  6
CENTER
  0
LAYER
  2
3
 70
     0
 62
     3
  6
CONTINUOUS
  0
LAYER
  2
DEFPOINTS
 70
     0
 62
     7
  6
CONTINUOUS
  0
ENDTAB
  0
TABLE
  2
STYLE
 70
     2
  0
STYLE
  2
STANDARD
 70
     0
 40
0.0
 41
1.0
 50
0.0
 71
     0
 42
5.0
  3
TXT
  4
BIGFONT
  0
STYLE
  2
STANDARD1
 70
     0
 40
0.0
 41
1.0
 50
0.0
 71
     0
 42
3.0
  3
txt
  4

  0
ENDTAB
  0
TABLE
  2
VIEW
 70
     1
  0
VIEW
  2
ALL
 70
     0
 40
270.0
 10
220.99159663865549
 20
135.0
 41
0.0
 11
0.0
 21
0.0
 31
1.0
 12
0.0
 22
0.0
 32
0.0
 42
0.0
 43
0.0
 44
0.0
 50
0.0
 71
     0
  0
ENDTAB
  0
TABLE
  2
UCS
 70
     0
  0
ENDTAB
  0
TABLE
  2
APPID
 70
     7
  0
APPID
  2
ACAD
 70
     0
  0
APPID
  2
GENIUS_GENOREF_13
 70
     0
  0
APPID
  2
GENIUS_GENODEF_13
 70
     0
  0
APPID
  2
GENIUS_GENOBJ-N-FIL_13
 70
     0
  0
APPID
  2
ACAD_EXEMPT_FROM_CAD_STANDARDS
 70
     0
  0
APPID
  2
ACAD_MLEADERVER
 70
     0
  0
APPID
  2
ACAD_NAV_VCDISPLAY
 70
     0
  0
ENDTAB
  0
TABLE
  2
DIMSTYLE
 70
     1
  0
DIMSTYLE
  2
STANDARD
 70
     0
  3

  4

  5

  6

  7

 40
1.0
 41
0.18
 42
0.0625
 43
0.38
 44
0.18
 45
0.0
 46
0.0
 47
0.0
 48
0.0
140
0.18
141
0.09
142
0.0
143
25.399999999999999
144
1.0
145
0.0
146
1.0
147
0.09
 71
     0
 72
     0
 73
     1
 74
     1
 75
     0
 76
     0
 77
     0
 78
     0
170
     0
171
     2
172
     0
173
     0
174
     0
175
     0
176
     0
177
     0
178
     0
  0
ENDTAB
  0
ENDSEC
  0
SECTION
  2
BLOCKS
  0
BLOCK
  8
0
  2
$MODEL_SPACE
 70
     0
 10
0.0
 20
0.0
 30
0.0
  3
$MODEL_SPACE
  1

  0
ENDBLK
  5
FD
  8
0
  0
BLOCK
 67
     1
  8
0
  2
$PAPER_SPACE
 70
     0
 10
0.0
 20
0.0
 30
0.0
  3
$PAPER_SPACE
  1

  0
ENDBLK
  5
FB
 67
     1
  8
0
  0
ENDSEC
  0
SECTION
  2
ENTITIES
  0
LINE
  5
34
  8
1
 10
125.0
 20
130.0
 30
0.0
 11
260.0
 21
130.0
 31
0.0
  0
LINE
  5
3D
  8
0
 10
153.0
 20
133.84999999999991
 30
0.0
 11
154.0
 21
133.84999999999991
 31
0.0
  0
ARC
  5
40
  8
0
 10
154.0
 20
134.84999999999991
 30
0.0
 40
1.0
 50
269.99999999999977
 51
0.0
  0
ARC
  5
41
  8
0
 10
153.0
 20
134.84999999999991
 30
0.0
 40
1.0
 50
180.0
 51
269.99999999999881
  0
LINE
  5
43
  8
3
 10
152.0
 20
125.8119999999999
 30
0.0
 11
130.68799999999999
 21
125.8119999999999
 31
0.0
  0
LINE
  5
44
  8
3
 10
152.0
 20
134.18799999999999
 30
0.0
 11
130.68799999999999
 21
134.18799999999999
 31
0.0
  0
LINE
  5
45
  8
0
 10
131.5
 20
135.0
 30
0.0
 11
131.5
 21
125.0
 31
0.0
  0
LINE
  5
48
  8
0
 10
130.0
 20
126.4999999999999
 30
0.0
 11
131.5
 21
125.0
 31
0.0
  0
LINE
  5
49
  8
0
 10
131.5
 20
134.99999999999989
 30
0.0
 11
130.0
 21
133.49999999999989
 31
0.0
  0
ARC
  5
4A
  8
0
 10
153.0
 20
125.15000000000001
 30
0.0
 40
1.0
 50
90.000000000001194
 51
179.99999999999989
  0
ARC
  5
4B
  8
0
 10
154.0
 20
125.15000000000001
 30
0.0
 40
1.0
 50
0.0
 51
90.000000000000256
  0
LINE
  5
4C
  8
0
 10
155.0
 20
135.99999999999989
 30
0.0
 11
155.0
 21
123.9999999999999
 31
0.0
  0
LINE
  5
4D
  8
0
 10
152.0
 20
134.99999999999989
 30
0.0
 11
152.0
 21
125.0
 31
0.0
  0
LINE
  5
4E
  8
0
 10
131.5
 20
125.0
 30
0.0
 11
152.0
 21
125.0
 31
0.0
  0
LINE
  5
4F
  8
0
 10
130.0
 20
133.49999999999989
 30
0.0
 11
130.0
 21
126.4999999999999
 31
0.0
  0
LINE
  5
50
  8
0
 10
152.0
 20
135.0
 30
0.0
 11
131.5
 21
134.99999999999989
 31
0.0
  0
LINE
  5
51
  8
0
 10
153.0
 20
126.15000000000001
 30
0.0
 11
154.0
 21
126.15000000000001
 31
0.0
  0
LINE
  5
52
  8
0
 10
155.0
 20
123.9999999999999
 30
0.0
 11
200.5
 21
123.9999999999998
 31
0.0
  0
LINE
  5
53
  8
0
 10
200.50000000000011
 20
135.99999999999989
 30
0.0
 11
155.0
 21
135.99999999999989
 31
0.0
  0
CIRCLE
  5
54
  8
0
 10
60.0
 20
130.0
 30
0.0
 40
6.0
  0
LINE
  5
55
  8
1
 10
82.0
 20
130.0
 30
0.0
 11
38.0
 21
130.0
 31
0.0
  0
LINE
  5
56
  8
1
 10
60.0
 20
152.0
 30
0.0
 11
60.0
 21
108.0
 31
0.0
  0
CIRCLE
  5
57
  8
0
 10
60.0
 20
130.0
 30
0.0
 40
5.0
  0
CIRCLE
  5
58
  8
3
 10
60.0
 20
130.0
 30
0.0
 40
4.1879999999999988
  0
LINE
  5
5A
  8
1
 10
325.0
 20
152.0
 30
0.0
 11
325.0
 21
108.0
 31
0.0
  0
LINE
  5
5B
  8
1
 10
347.0
 20
130.0
 30
0.0
 11
303.0
 21
130.0
 31
0.0
  0
LINE
  5
60
  8
0
 10
200.50000000000011
 20
65.999999999999972
 30
0.0
 11
155.0
 21
65.999999999999972
 31
0.0
  0
LINE
  5
61
  8
0
 10
155.0
 20
53.999999999999979
 30
0.0
 11
200.5
 21
53.999999999999829
 31
0.0
  0
LINE
  5
62
  8
0
 10
153.0
 20
56.149999999999999
 30
0.0
 11
154.0
 21
56.15000000000002
 31
0.0
  0
LINE
  5
63
  8
0
 10
152.0
 20
65.0
 30
0.0
 11
131.5
 21
65.0
 31
0.0
  0
LINE
  5
64
  8
0
 10
130.0
 20
63.499999999999993
 30
0.0
 11
130.0
 21
56.499999999999993
 31
0.0
  0
LINE
  5
65
  8
0
 10
131.5
 20
55.0
 30
0.0
 11
152.0
 21
55.0
 31
0.0
  0
LINE
  5
66
  8
0
 10
152.0
 20
65.0
 30
0.0
 11
152.0
 21
55.0
 31
0.0
  0
LINE
  5
67
  8
0
 10
155.0
 20
65.999999999999972
 30
0.0
 11
155.0
 21
53.999999999999979
 31
0.0
  0
ARC
  5
68
  8
0
 10
154.0
 20
55.150000000000027
 30
0.0
 40
1.0
 50
0.0
 51
90.000000000000256
  0
ARC
  5
69
  8
0
 10
153.0
 20
55.149999999999999
 30
0.0
 40
1.0
 50
90.000000000001194
 51
179.99999999999989
  0
LINE
  5
6A
  8
0
 10
131.5
 20
65.0
 30
0.0
 11
130.0
 21
63.499999999999993
 31
0.0
  0
LINE
  5
6B
  8
0
 10
130.0
 20
56.499999999999993
 30
0.0
 11
131.5
 21
55.0
 31
0.0
  0
LINE
  5
6E
  8
0
 10
131.5
 20
65.0
 30
0.0
 11
131.5
 21
55.0
 31
0.0
  0
LINE
  5
6F
  8
3
 10
152.0
 20
64.188000000000017
 30
0.0
 11
130.68799999999999
 21
64.188000000000017
 31
0.0
  0
LINE
  5
70
  8
3
 10
152.0
 20
55.811999999999948
 30
0.0
 11
130.68799999999999
 21
55.811999999999927
 31
0.0
  0
ARC
  5
72
  8
0
 10
153.0
 20
64.849999999999966
 30
0.0
 40
1.0
 50
180.0
 51
269.99999999999881
  0
ARC
  5
73
  8
0
 10
154.0
 20
64.849999999999937
 30
0.0
 40
1.0
 50
269.99999999999977
 51
0.0
  0
LINE
  5
76
  8
0
 10
153.0
 20
63.849999999999959
 30
0.0
 11
154.0
 21
63.84999999999993
 31
0.0
  0
LINE
  5
7D
  8
1
 10
125.0
 20
59.999999999999957
 30
0.0
 11
260.0
 21
59.999999999999979
 31
0.0
  0
LINE
  5
7E
  8
0
 10
200.50000000000011
 20
206.0
 30
0.0
 11
155.0
 21
206.0
 31
0.0
  0
LINE
  5
7F
  8
0
 10
155.0
 20
193.99999999999989
 30
0.0
 11
200.5
 21
193.9999999999998
 31
0.0
  0
LINE
  5
80
  8
0
 10
153.0
 20
196.15000000000001
 30
0.0
 11
154.0
 21
196.15000000000001
 31
0.0
  0
LINE
  5
81
  8
0
 10
152.0
 20
205.0
 30
0.0
 11
131.5
 21
205.0
 31
0.0
  0
LINE
  5
82
  8
0
 10
130.0
 20
203.5
 30
0.0
 11
130.0
 21
196.5
 31
0.0
  0
LINE
  5
83
  8
0
 10
131.5
 20
195.0
 30
0.0
 11
152.0
 21
195.0
 31
0.0
  0
LINE
  5
84
  8
0
 10
152.0
 20
205.0
 30
0.0
 11
152.0
 21
195.0
 31
0.0
  0
LINE
  5
85
  8
0
 10
155.0
 20
206.0
 30
0.0
 11
155.0
 21
193.99999999999989
 31
0.0
  0
ARC
  5
86
  8
0
 10
154.0
 20
195.15000000000001
 30
0.0
 40
1.0
 50
0.0
 51
90.000000000000256
  0
ARC
  5
87
  8
0
 10
153.0
 20
195.15000000000001
 30
0.0
 40
1.0
 50
90.000000000001194
 51
179.99999999999989
  0
LINE
  5
88
  8
0
 10
131.5
 20
205.0
 30
0.0
 11
130.0
 21
203.5
 31
0.0
  0
LINE
  5
89
  8
0
 10
130.0
 20
196.5
 30
0.0
 11
131.5
 21
195.0
 31
0.0
  0
LINE
  5
8C
  8
0
 10
131.5
 20
205.0
 30
0.0
 11
131.5
 21
195.0
 31
0.0
  0
LINE
  5
8D
  8
3
 10
152.0
 20
204.18799999999999
 30
0.0
 11
130.68799999999999
 21
204.18799999999999
 31
0.0
  0
LINE
  5
8E
  8
3
 10
152.0
 20
195.8119999999999
 30
0.0
 11
130.68799999999999
 21
195.8119999999999
 31
0.0
  0
ARC
  5
90
  8
0
 10
153.0
 20
204.84999999999991
 30
0.0
 40
1.0
 50
180.0
 51
269.99999999999881
  0
ARC
  5
91
  8
0
 10
154.0
 20
204.84999999999991
 30
0.0
 40
1.0
 50
269.99999999999977
 51
0.0
  0
LINE
  5
94
  8
0
 10
153.0
 20
203.84999999999991
 30
0.0
 11
154.0
 21
203.84999999999991
 31
0.0
  0
LINE
  5
9B
  8
1
 10
125.0
 20
200.0
 30
0.0
 11
260.0
 21
200.0
 31
0.0
  0
CIRCLE
  5
416
  8
0
 10
325.0
 20
130.0
 30
0.0
 40
17.0
  0
CIRCLE
  5
417
  8
0
 10
60.0
 20
130.0
 30
0.0
 40
17.0
  0
CIRCLE
  5
418
  8
0
 10
60.0
 20
130.0
 30
0.0
 40
10.5
  0
ARC
  5
419
  8
0
 10
238.0
 20
199.99999999999989
 30
0.0
 40
17.0
 50
269.99999999999682
 51
89.999999999996746
  0
ARC
  5
41B
  8
0
 10
236.10356496060291
 20
116.51789445806099
 30
0.0
 40
100.5
 50
88.918764444484026
 51
110.35125522420419
  0
ARC
  5
41C
  8
0
 10
201.5
 20
209.8069253889125
 30
0.0
 40
1.0
 50
110.35125522420419
 51
180.0
1001
GENIUS_GENOBJ-N-FIL_13
1002
{
1000
OWNER
1000
GEN
1002
}
1001
GENIUS_GENODEF_13
1002
{
1000
HIER
1070
     0
1002
}
1002
{
1000
MANEDIT
1070
     0
1002
}
1002
{
1000
NOSEL
1070
     0
1002
}
1002
{
1000
BEHIND
1070
     0
1002
}
1002
{
1000
OTHER
1070
     0
1002
}
1002
{
1000
REACTOR
1002
}
  0
ARC
  5
41F
  8
0
 10
236.10356496060291
 20
283.48210554193878
 30
0.0
 40
100.5
 50
249.64874477579571
 51
271.08123555551589
  0
LINE
  5
420
  8
0
 10
200.5
 20
190.19307461108741
 30
0.0
 11
200.50000000000011
 21
209.8069253889125
 31
0.0
  0
ARC
  5
421
  8
0
 10
201.5
 20
190.19307461108741
 30
0.0
 40
1.0
 50
180.0
 51
249.6487447757921
1001
GENIUS_GENOBJ-N-FIL_13
1002
{
1000
OWNER
1000
GEN
1002
}
1001
GENIUS_GENODEF_13
1002
{
1000
HIER
1070
     0
1002
}
1002
{
1000
MANEDIT
1070
     0
1002
}
1002
{
1000
NOSEL
1070
     0
1002
}
1002
{
1000
BEHIND
1070
     0
1002
}
1002
{
1000
OTHER
1070
     0
1002
}
1002
{
1000
REACTOR
1002
}
  0
ARC
  5
431
  8
0
 10
238.0
 20
129.99999999999989
 30
0.0
 40
17.0
 50
269.99999999999682
 51
89.999999999996746
  0
ARC
  5
432
  8
0
 10
236.10356496060291
 20
46.517894458061008
 30
0.0
 40
100.5
 50
88.918764444484026
 51
110.35125522420419
  0
ARC
  5
433
  8
0
 10
201.5
 20
139.80692538891239
 30
0.0
 40
1.0
 50
110.35125522420419
 51
180.0
1001
GENIUS_GENOBJ-N-FIL_13
1002
{
1000
OWNER
1000
GEN
1002
}
1001
GENIUS_GENODEF_13
1002
{
1000
HIER
1070
     0
1002
}
1002
{
1000
MANEDIT
1070
     0
1002
}
1002
{
1000
NOSEL
1070
     0
1002
}
1002
{
1000
BEHIND
1070
     0
1002
}
1002
{
1000
OTHER
1070
     0
1002
}
1002
{
1000
REACTOR
1002
}
  0
ARC
  5
434
  8
0
 10
236.10356496060291
 20
213.48210554193881
 30
0.0
 40
100.5
 50
249.64874477579571
 51
271.08123555551589
  0
LINE
  5
435
  8
0
 10
200.5
 20
120.1930746110874
 30
0.0
 11
200.50000000000011
 21
139.80692538891239
 31
0.0
  0
ARC
  5
436
  8
0
 10
201.5
 20
120.1930746110874
 30
0.0
 40
1.0
 50
180.0
 51
249.64874477579201
1001
GENIUS_GENOBJ-N-FIL_13
1002
{
1000
OWNER
1000
GEN
1002
}
1001
GENIUS_GENODEF_13
1002
{
1000
HIER
1070
     0
1002
}
1002
{
1000
MANEDIT
1070
     0
1002
}
1002
{
1000
NOSEL
1070
     0
1002
}
1002
{
1000
BEHIND
1070
     0
1002
}
1002
{
1000
OTHER
1070
     0
1002
}
1002
{
1000
REACTOR
1002
}
  0
ARC
  5
437
  8
0
 10
238.0
 20
59.999999999999908
 30
0.0
 40
17.0
 50
269.99999999999682
 51
89.999999999996746
  0
ARC
  5
438
  8
0
 10
236.10356496060291
 20
-23.482105541938989
 30
0.0
 40
100.5
 50
88.918764444484026
 51
110.35125522420419
  0
ARC
  5
439
  8
0
 10
201.5
 20
69.806925388912447
 30
0.0
 40
1.0
 50
110.35125522420419
 51
180.0
1001
GENIUS_GENOBJ-N-FIL_13
1002
{
1000
OWNER
1000
GEN
1002
}
1001
GENIUS_GENODEF_13
1002
{
1000
HIER
1070
     0
1002
}
1002
{
1000
MANEDIT
1070
     0
1002
}
1002
{
1000
NOSEL
1070
     0
1002
}
1002
{
1000
BEHIND
1070
     0
1002
}
1002
{
1000
OTHER
1070
     0
1002
}
1002
{
1000
REACTOR
1002
}
  0
ARC
  5
43A
  8
0
 10
236.10356496060291
 20
143.48210554193881
 30
0.0
 40
100.5
 50
249.64874477579571
 51
271.08123555551589
  0
LINE
  5
43B
  8
0
 10
200.5
 20
50.193074611087432
 30
0.0
 11
200.50000000000011
 21
69.806925388912447
 31
0.0
  0
ARC
  5
43C
  8
0
 10
201.5
 20
50.193074611087432
 30
0.0
 40
1.0
 50
180.0
 51
249.64874477579201
1001
GENIUS_GENOBJ-N-FIL_13
1002
{
1000
OWNER
1000
GEN
1002
}
1001
GENIUS_GENODEF_13
1002
{
1000
HIER
1070
     0
1002
}
1002
{
1000
MANEDIT
1070
     0
1002
}
1002
{
1000
NOSEL
1070
     0
1002
}
1002
{
1000
BEHIND
1070
     0
1002
}
1002
{
1000
OTHER
1070
     0
1002
}
1002
{
1000
REACTOR
1002
}
  0
TEXT
  5
54B
  8
0
 62
     3
 10
0.0
 20
0.0
 30
0.0
 40
10.0
  1
OGL10X100-SUS
  7
STANDARD1
  0
ENDSEC
  0
EOF
