  0
SECTION
  2
HEADER
  9
$ACADVER
  1
AC1009
  9
$INSBASE
 10
0.0
 20
0.0
 30
0.0
  9
$EXTMIN
 10
0.0
 20
-2.960436562073669
 30
0.0
  9
$EXTMAX
 10
333.0
 20
213.0
 30
0.0
  9
$LIMMIN
 10
0.0
 20
0.0
  9
$LIMMAX
 10
375.0
 20
270.0
  9
$ORTHOMODE
 70
     1
  9
$REGENMODE
 70
     1
  9
$FILLMODE
 70
     1
  9
$QTEXTMODE
 70
     0
  9
$MIRRTEXT
 70
     0
  9
$DRAGMODE
 70
     2
  9
$LTSCALE
 40
10.0
  9
$OSMODE
 70
  3071
  9
$ATTMODE
 70
     1
  9
$TEXTSIZE
 40
5.0
  9
$TRACEWID
 40
0.05
  9
$TEXTSTYLE
  7
STANDARD
  9
$CLAYER
  8
0
  9
$CELTYPE
  6
BYLAYER
  9
$CECOLOR
 62
   256
  9
$DIMSCALE
 40
1.0
  9
$DIMASZ
 40
3.0
  9
$DIMEXO
 40
2.0
  9
$DIMDLI
 40
0.38
  9
$DIMRND
 40
0.0
  9
$DIMDLE
 40
0.0
  9
$DIMEXE
 40
2.0
  9
$DIMTP
 40
0.0
  9
$DIMTM
 40
0.0
  9
$DIMTXT
 40
3.2000000000000002
  9
$DIMCEN
 40
0.09
  9
$DIMTSZ
 40
0.0
  9
$DIMTOL
 70
     0
  9
$DIMLIM
 70
     0
  9
$DIMTIH
 70
     0
  9
$DIMTOH
 70
     0
  9
$DIMSE1
 70
     0
  9
$DIMSE2
 70
     0
  9
$DIMTAD
 70
     1
  9
$DIMZIN
 70
     0
  9
$DIMBLK
  1

  9
$DIMASO
 70
     1
  9
$DIMSHO
 70
     0
  9
$DIMPOST
  1

  9
$DIMAPOST
  1

  9
$DIMALT
 70
     0
  9
$DIMALTD
 70
     2
  9
$DIMALTF
 40
25.399999999999999
  9
$DIMLFAC
 40
1.0
  9
$DIMTOFL
 70
     0
  9
$DIMTVP
 40
1.6000000000000001
  9
$DIMTIX
 70
     1
  9
$DIMSOXD
 70
     0
  9
$DIMSAH
 70
     0
  9
$DIMBLK1
  1

  9
$DIMBLK2
  1

  9
$DIMSTYLE
  2
STANDARD
  9
$DIMCLRD
 70
     0
  9
$DIMCLRE
 70
     0
  9
$DIMCLRT
 70
     0
  9
$DIMTFAC
 40
1.0
  9
$DIMGAP
 40
0.09
  9
$LUNITS
 70
     2
  9
$LUPREC
 70
     4
  9
$SKETCHINC
 40
0.1
  9
$FILLETRAD
 40
1.0
  9
$AUNITS
 70
     0
  9
$AUPREC
 70
     0
  9
$MENU
  1
E:\r13\win\SUPPORT\ACAD
  9
$ELEVATION
 40
0.0
  9
$PELEVATION
 40
0.0
  9
$THICKNESS
 40
0.0
  9
$LIMCHECK
 70
     0
  9
$BLIPMODE
 70
     0
  9
$CHAMFERA
 40
0.0
  9
$CHAMFERB
 40
0.0
  9
$SKPOLY
 70
     0
  9
$TDCREATE
 40
2449839.782974537
  9
$TDUPDATE
 40
2456597.5015902431
  9
$TDINDWG
 40
0.0001645486
  9
$TDUSRTIMER
 40
0.0001645486
  9
$USRTIMER
 70
     1
  9
$ANGBASE
 50
0.0
  9
$ANGDIR
 70
     0
  9
$PDMODE
 70
     0
  9
$PDSIZE
 40
0.0
  9
$PLINEWID
 40
0.0
  9
$COORDS
 70
     1
  9
$SPLFRAME
 70
     0
  9
$SPLINETYPE
 70
     6
  9
$SPLINESEGS
 70
     8
  9
$ATTDIA
 70
     0
  9
$ATTREQ
 70
     1
  9
$HANDLING
 70
     1
  9
$HANDSEED
  5
27B
  9
$SURFTAB1
 70
     6
  9
$SURFTAB2
 70
     6
  9
$SURFTYPE
 70
     6
  9
$SURFU
 70
     6
  9
$SURFV
 70
     6
  9
$UCSNAME
  2

  9
$UCSORG
 10
0.0
 20
0.0
 30
0.0
  9
$UCSXDIR
 10
1.0
 20
0.0
 30
0.0
  9
$UCSYDIR
 10
0.0
 20
1.0
 30
0.0
  9
$PUCSNAME
  2

  9
$PUCSORG
 10
0.0
 20
0.0
 30
0.0
  9
$PUCSXDIR
 10
1.0
 20
0.0
 30
0.0
  9
$PUCSYDIR
 10
0.0
 20
1.0
 30
0.0
  9
$USERI1
 70
     0
  9
$USERI2
 70
     1
  9
$USERI3
 70
     1
  9
$USERI4
 70
     0
  9
$USERI5
 70
     0
  9
$USERR1
 40
0.0
  9
$USERR2
 40
0.0
  9
$USERR3
 40
0.0
  9
$USERR4
 40
0.0
  9
$USERR5
 40
0.0
  9
$WORLDVIEW
 70
     1
  9
$SHADEDGE
 70
     3
  9
$SHADEDIF
 70
    70
  9
$TILEMODE
 70
     1
  9
$MAXACTVP
 70
    16
  9
$PLIMCHECK
 70
     0
  9
$PEXTMIN
 10
1.0000000000000000E+020
 20
1.0000000000000000E+020
 30
1.0000000000000000E+020
  9
$PEXTMAX
 10
-1.0000000000000000E+020
 20
-1.0000000000000000E+020
 30
-1.0000000000000000E+020
  9
$PLIMMIN
 10
0.0
 20
0.0
  9
$PLIMMAX
 10
12.0
 20
9.0
  9
$UNITMODE
 70
     0
  9
$VISRETAIN
 70
     0
  9
$PLINEGEN
 70
     0
  9
$PSLTSCALE
 70
     0
  0
ENDSEC
  0
SECTION
  2
TABLES
  0
TABLE
  2
VPORT
 70
     1
  0
VPORT
  2
*ACTIVE
 70
     0
 10
0.0
 20
0.0
 11
1.0
 21
1.0
 12
187.49427839065231
 22
162.8616388594717
 13
0.0
 23
0.0
 14
10.0
 24
10.0
 15
10.0
 25
10.0
 16
0.0
 26
0.0
 36
1.0
 17
0.0
 27
0.0
 37
0.0
 40
334.81001162774987
 41
1.9089595375722539
 42
50.0
 43
0.0
 44
0.0
 50
0.0
 51
0.0
 71
     0
 72
   500
 73
     1
 74
     0
 75
     0
 76
     0
 77
     0
 78
     2
  0
ENDTAB
  0
TABLE
  2
LTYPE
 70
     3
  0
LTYPE
  2
CONTINUOUS
 70
     0
  3
Solid Line
 72
    65
 73
     0
 40
0.0
  0
LTYPE
  2
CENTER
 70
     0
  3
____ _ ____ _ ____ _ ____ _ ____ _ ____ _ ____
 72
    65
 73
     4
 40
2.0
 49
1.25
 49
-0.25
 49
0.25
 49
-0.25
  0
LTYPE
  2
PHANTOM2
 70
     0
  3
___ _ _ ___ _ _ ___ _ _ ___ _ _
 72
    65
 73
     6
 40
1.25
 49
0.625
 49
-0.125
 49
0.125
 49
-0.125
 49
0.125
 49
-0.125
  0
ENDTAB
  0
TABLE
  2
LAYER
 70
     3
  0
LAYER
  2
0
 70
     0
 62
     7
  6
CONTINUOUS
  0
LAYER
  2
1
 70
     0
 62
     1
  6
CENTER
  0
LAYER
  2
3
 70
     0
 62
     3
  6
CONTINUOUS
  0
ENDTAB
  0
TABLE
  2
STYLE
 70
     2
  0
STYLE
  2
STANDARD
 70
     0
 40
0.0
 41
1.0
 50
0.0
 71
     0
 42
5.0
  3
TXT
  4
BIGFONT
  0
STYLE
  2
STANDARD1
 70
     0
 40
0.0
 41
1.0
 50
0.0
 71
     0
 42
3.0
  3
txt
  4

  0
ENDTAB
  0
TABLE
  2
VIEW
 70
     1
  0
VIEW
  2
ALL
 70
     0
 40
270.0
 10
220.99159663865549
 20
135.0
 41
0.0
 11
0.0
 21
0.0
 31
1.0
 12
0.0
 22
0.0
 32
0.0
 42
0.0
 43
0.0
 44
0.0
 50
0.0
 71
     0
  0
ENDTAB
  0
TABLE
  2
UCS
 70
     0
  0
ENDTAB
  0
TABLE
  2
APPID
 70
     3
  0
APPID
  2
ACAD
 70
     0
  0
APPID
  2
ACAD_MLEADERVER
 70
     0
  0
APPID
  2
ACAD_NAV_VCDISPLAY
 70
     0
  0
ENDTAB
  0
TABLE
  2
DIMSTYLE
 70
     1
  0
DIMSTYLE
  2
STANDARD
 70
     0
  3

  4

  5

  6

  7

 40
1.0
 41
0.18
 42
0.0625
 43
0.38
 44
0.18
 45
0.0
 46
0.0
 47
0.0
 48
0.0
140
0.18
141
0.09
142
0.0
143
25.399999999999999
144
1.0
145
0.0
146
1.0
147
0.09
 71
     0
 72
     0
 73
     1
 74
     1
 75
     0
 76
     0
 77
     0
 78
     0
170
     0
171
     2
172
     0
173
     0
174
     0
175
     0
176
     0
177
     0
178
     0
  0
ENDTAB
  0
ENDSEC
  0
SECTION
  2
BLOCKS
  0
BLOCK
  8
0
  2
$MODEL_SPACE
 70
     0
 10
0.0
 20
0.0
 30
0.0
  3
$MODEL_SPACE
  1

  0
ENDBLK
  5
FA
  8
0
  0
BLOCK
 67
     1
  8
0
  2
$PAPER_SPACE
 70
     0
 10
0.0
 20
0.0
 30
0.0
  3
$PAPER_SPACE
  1

  0
ENDBLK
  5
F8
 67
     1
  8
0
  0
ENDSEC
  0
SECTION
  2
ENTITIES
  0
LINE
  5
34
  8
1
 10
120.5015549526897
 20
140.0
 30
0.0
 11
250.5015549526897
 21
140.0
 31
0.0
  0
CIRCLE
  5
35
  8
0
 10
55.0
 20
140.0
 30
0.0
 40
13.0
  0
CIRCLE
  5
36
  8
0
 10
55.0
 20
140.0
 30
0.0
 40
8.5
  0
ARC
  5
37
  8
0
 10
230.0604294858814
 20
73.037253008320803
 30
0.0
 40
80.0
 50
88.251401241180616
 51
108.876542724252
  0
ARC
  5
38
  8
0
 10
204.50155495268979
 20
147.78846659443309
 30
0.0
 40
1.0
 50
108.8765427242511
 51
179.9999999999992
  0
ARC
  5
39
  8
0
 10
204.50155495268979
 20
132.2115334055668
 30
0.0
 40
1.0
 50
180.0000000000008
 51
251.1234572757489
  0
LINE
  5
3A
  8
0
 10
203.50155495268979
 20
147.78846659443309
 30
0.0
 11
203.50155495268979
 21
132.2115334055668
 31
0.0
  0
ARC
  5
3B
  8
0
 10
230.0604294858814
 20
206.96274699167921
 30
0.0
 40
80.0
 50
251.123457275748
 51
271.74859875881941
  0
ARC
  5
3C
  8
0
 10
232.50155495268979
 20
140.0
 30
0.0
 40
13.0
 50
269.99999999999937
 51
90.000000000000625
  0
LINE
  5
3D
  8
0
 10
127.0015549526898
 20
144.0
 30
0.0
 11
127.0015549526897
 21
136.0
 31
0.0
  0
LINE
  5
3E
  8
3
 10
143.0015549526897
 20
136.6765
 30
0.0
 11
126.3250549526898
 21
136.6765
 31
0.0
  0
LINE
  5
3F
  8
3
 10
143.0015549526897
 20
143.3235
 30
0.0
 11
126.3250549526898
 21
143.3235
 31
0.0
  0
LINE
  5
40
  8
0
 10
145.50155495268979
 20
143.40000000000001
 30
0.0
 11
145.50155495268979
 21
136.59999999999999
 31
0.0
  0
LINE
  5
41
  8
0
 10
143.0015549526897
 20
143.40000000000001
 30
0.0
 11
143.0015549526897
 21
136.59999999999999
 31
0.0
  0
ARC
  5
42
  8
0
 10
145.10155495268981
 20
136.59999999999999
 30
0.0
 40
0.4
 50
0.0000000000004071
 51
90.0
  0
ARC
  5
43
  8
0
 10
143.40155495268979
 20
136.59999999999999
 30
0.0
 40
0.4
 50
90.0
 51
179.99999999999989
  0
ARC
  5
44
  8
0
 10
145.10155495268981
 20
143.40000000000001
 30
0.0
 40
0.4
 50
270.0
 51
359.9999999999996
  0
ARC
  5
45
  8
0
 10
143.40155495268979
 20
143.40000000000001
 30
0.0
 40
0.4
 50
180.0
 51
269.99999999999989
  0
LINE
  5
46
  8
0
 10
145.50155495268979
 20
136.59999999999999
 30
0.0
 11
145.50155495268979
 21
135.0
 31
0.0
  0
LINE
  5
47
  8
0
 10
125.5015549526897
 20
137.5
 30
0.0
 11
127.0015549526897
 21
136.0
 31
0.0
  0
LINE
  5
48
  8
0
 10
127.0015549526898
 20
144.0
 30
0.0
 11
125.5015549526898
 21
142.5
 31
0.0
  0
LINE
  5
49
  8
0
 10
125.5015549526898
 20
142.5
 30
0.0
 11
125.5015549526897
 21
137.5
 31
0.0
  0
LINE
  5
4A
  8
0
 10
145.10155495268981
 20
137.0
 30
0.0
 11
143.40155495268979
 21
137.0
 31
0.0
  0
LINE
  5
4B
  8
0
 10
143.0015549526897
 20
136.59999999999999
 30
0.0
 11
143.0015549526897
 21
136.0
 31
0.0
  0
LINE
  5
4C
  8
0
 10
143.0015549526897
 20
136.0
 30
0.0
 11
127.0015549526897
 21
136.0
 31
0.0
  0
LINE
  5
4D
  8
0
 10
143.0015549526897
 20
144.0
 30
0.0
 11
127.0015549526898
 21
144.0
 31
0.0
  0
LINE
  5
4E
  8
0
 10
143.0015549526897
 20
143.40000000000001
 30
0.0
 11
143.0015549526897
 21
144.0
 31
0.0
  0
LINE
  5
4F
  8
0
 10
145.10155495268981
 20
143.0
 30
0.0
 11
143.40155495268979
 21
143.0
 31
0.0
  0
LINE
  5
50
  8
0
 10
145.50155495268979
 20
145.0
 30
0.0
 11
145.50155495268979
 21
143.40000000000001
 31
0.0
  0
LINE
  5
51
  8
0
 10
145.50155495268979
 20
135.0
 30
0.0
 11
203.5015549526897
 21
134.9999999999998
 31
0.0
  0
LINE
  5
52
  8
0
 10
203.50155495268979
 20
145.0
 30
0.0
 11
145.50155495268979
 21
145.0
 31
0.0
  0
CIRCLE
  5
53
  8
0
 10
55.0
 20
140.0
 30
0.0
 40
5.0
  0
LINE
  5
54
  8
1
 10
73.0
 20
140.0
 30
0.0
 11
37.0
 21
140.0
 31
0.0
  0
LINE
  5
55
  8
1
 10
55.0
 20
158.0
 30
0.0
 11
55.0
 21
122.0
 31
0.0
  0
CIRCLE
  5
56
  8
0
 10
55.0
 20
140.0
 30
0.0
 40
4.0
  0
CIRCLE
  5
57
  8
3
 10
55.0
 20
140.0
 30
0.0
 40
3.3235000000000001
  0
LINE
  5
59
  8
1
 10
315.0
 20
158.0
 30
0.0
 11
315.0
 21
122.0
 31
0.0
  0
CIRCLE
  5
5A
  8
0
 10
315.0
 20
140.0
 30
0.0
 40
13.0
  0
LINE
  5
5B
  8
1
 10
333.0
 20
140.0
 30
0.0
 11
297.0
 21
140.0
 31
0.0
  0
LINE
  5
5C
  8
0
 10
203.50155495268979
 20
85.000000000000014
 30
0.0
 11
145.50155495268979
 21
85.000000000000057
 31
0.0
  0
LINE
  5
5D
  8
0
 10
145.50155495268979
 20
75.000000000000057
 30
0.0
 11
203.5015549526897
 21
74.999999999999829
 31
0.0
  0
LINE
  5
5E
  8
0
 10
145.50155495268979
 20
85.000000000000057
 30
0.0
 11
145.50155495268979
 21
83.400000000000063
 31
0.0
  0
LINE
  5
5F
  8
0
 10
145.10155495268981
 20
83.000000000000057
 30
0.0
 11
143.40155495268979
 21
83.000000000000057
 31
0.0
  0
LINE
  5
60
  8
0
 10
143.0015549526897
 20
83.400000000000063
 30
0.0
 11
143.0015549526897
 21
84.000000000000057
 31
0.0
  0
LINE
  5
61
  8
0
 10
143.0015549526897
 20
84.000000000000057
 30
0.0
 11
127.0015549526898
 21
84.000000000000028
 31
0.0
  0
LINE
  5
62
  8
0
 10
143.0015549526897
 20
76.000000000000028
 30
0.0
 11
127.0015549526897
 21
76.000000000000028
 31
0.0
  0
LINE
  5
63
  8
0
 10
143.0015549526897
 20
76.600000000000023
 30
0.0
 11
143.0015549526897
 21
76.000000000000028
 31
0.0
  0
LINE
  5
64
  8
0
 10
145.10155495268981
 20
77.000000000000043
 30
0.0
 11
143.40155495268979
 21
77.000000000000014
 31
0.0
  0
LINE
  5
65
  8
0
 10
125.5015549526898
 20
82.500000000000057
 30
0.0
 11
125.5015549526897
 21
77.500000000000028
 31
0.0
  0
LINE
  5
66
  8
0
 10
127.0015549526898
 20
84.000000000000028
 30
0.0
 11
125.5015549526898
 21
82.500000000000057
 31
0.0
  0
LINE
  5
67
  8
0
 10
125.5015549526897
 20
77.500000000000028
 30
0.0
 11
127.0015549526897
 21
76.000000000000028
 31
0.0
  0
LINE
  5
68
  8
0
 10
145.50155495268979
 20
76.600000000000037
 30
0.0
 11
145.50155495268979
 21
75.000000000000057
 31
0.0
  0
ARC
  5
69
  8
0
 10
143.40155495268979
 20
83.400000000000063
 30
0.0
 40
0.4
 50
180.0
 51
269.99999999999989
  0
ARC
  5
6A
  8
0
 10
145.10155495268981
 20
83.400000000000063
 30
0.0
 40
0.4
 50
270.0
 51
359.9999999999996
  0
ARC
  5
6B
  8
0
 10
143.40155495268979
 20
76.600000000000023
 30
0.0
 40
0.4
 50
90.0
 51
179.99999999999989
  0
ARC
  5
6C
  8
0
 10
145.10155495268981
 20
76.600000000000037
 30
0.0
 40
0.4
 50
0.0000000000004071
 51
90.0
  0
LINE
  5
6D
  8
0
 10
143.0015549526897
 20
83.400000000000063
 30
0.0
 11
143.0015549526897
 21
76.600000000000023
 31
0.0
  0
LINE
  5
6E
  8
0
 10
145.50155495268979
 20
83.400000000000063
 30
0.0
 11
145.50155495268979
 21
76.600000000000037
 31
0.0
  0
LINE
  5
6F
  8
3
 10
143.0015549526897
 20
83.323500000000053
 30
0.0
 11
126.3250549526898
 21
83.323500000000053
 31
0.0
  0
LINE
  5
70
  8
3
 10
143.0015549526897
 20
76.676500000000033
 30
0.0
 11
126.3250549526898
 21
76.676500000000033
 31
0.0
  0
LINE
  5
71
  8
0
 10
127.0015549526898
 20
84.000000000000028
 30
0.0
 11
127.0015549526897
 21
76.000000000000043
 31
0.0
  0
ARC
  5
72
  8
0
 10
232.50155495268979
 20
80.0
 30
0.0
 40
13.0
 50
269.99999999999937
 51
90.000000000000625
  0
ARC
  5
73
  8
0
 10
230.0604294858814
 20
146.96274699167921
 30
0.0
 40
80.0
 50
251.123457275748
 51
271.74859875881941
  0
LINE
  5
74
  8
0
 10
203.50155495268979
 20
87.788466594433132
 30
0.0
 11
203.50155495268979
 21
72.211533405566854
 31
0.0
  0
ARC
  5
75
  8
0
 10
204.50155495268979
 20
72.211533405566868
 30
0.0
 40
1.0
 50
180.0000000000008
 51
251.1234572757489
  0
ARC
  5
76
  8
0
 10
204.50155495268979
 20
87.788466594433132
 30
0.0
 40
1.0
 50
108.8765427242511
 51
179.9999999999992
  0
ARC
  5
77
  8
0
 10
230.0604294858814
 20
13.0372530083208
 30
0.0
 40
80.0
 50
88.251401241180616
 51
108.876542724252
  0
LINE
  5
78
  8
1
 10
120.5015549526897
 20
80.000000000000057
 30
0.0
 11
250.5015549526897
 21
80.0
 31
0.0
  0
LINE
  5
79
  8
0
 10
203.50155495268979
 20
205.0
 30
0.0
 11
145.50155495268979
 21
205.00000000000011
 31
0.0
  0
LINE
  5
7A
  8
0
 10
145.50155495268979
 20
195.0
 30
0.0
 11
203.5015549526897
 21
194.9999999999998
 31
0.0
  0
LINE
  5
7B
  8
0
 10
145.50155495268979
 20
205.00000000000011
 30
0.0
 11
145.50155495268979
 21
203.40000000000009
 31
0.0
  0
LINE
  5
7C
  8
0
 10
145.10155495268981
 20
203.00000000000011
 30
0.0
 11
143.40155495268979
 21
203.00000000000011
 31
0.0
  0
LINE
  5
7D
  8
0
 10
143.0015549526897
 20
203.40000000000009
 30
0.0
 11
143.0015549526897
 21
204.0
 31
0.0
  0
LINE
  5
7E
  8
0
 10
143.0015549526897
 20
204.0
 30
0.0
 11
127.0015549526898
 21
204.0
 31
0.0
  0
LINE
  5
7F
  8
0
 10
143.0015549526897
 20
196.0
 30
0.0
 11
127.0015549526897
 21
196.0
 31
0.0
  0
LINE
  5
80
  8
0
 10
143.0015549526897
 20
196.59999999999999
 30
0.0
 11
143.0015549526897
 21
196.0
 31
0.0
  0
LINE
  5
81
  8
0
 10
145.10155495268981
 20
197.0
 30
0.0
 11
143.40155495268979
 21
197.0
 31
0.0
  0
LINE
  5
82
  8
0
 10
125.5015549526898
 20
202.50000000000011
 30
0.0
 11
125.5015549526897
 21
197.5
 31
0.0
  0
LINE
  5
83
  8
0
 10
127.0015549526898
 20
204.0
 30
0.0
 11
125.5015549526898
 21
202.50000000000011
 31
0.0
  0
LINE
  5
84
  8
0
 10
125.5015549526897
 20
197.5
 30
0.0
 11
127.0015549526897
 21
196.0
 31
0.0
  0
LINE
  5
85
  8
0
 10
145.50155495268979
 20
196.59999999999999
 30
0.0
 11
145.50155495268979
 21
195.0
 31
0.0
  0
ARC
  5
86
  8
0
 10
143.40155495268979
 20
203.40000000000009
 30
0.0
 40
0.4
 50
180.0
 51
269.99999999999989
  0
ARC
  5
87
  8
0
 10
145.10155495268981
 20
203.40000000000009
 30
0.0
 40
0.4
 50
270.0
 51
359.9999999999996
  0
ARC
  5
88
  8
0
 10
143.40155495268979
 20
196.59999999999999
 30
0.0
 40
0.4
 50
90.0
 51
179.99999999999989
  0
ARC
  5
89
  8
0
 10
145.10155495268981
 20
196.59999999999999
 30
0.0
 40
0.4
 50
0.0000000000004071
 51
90.0
  0
LINE
  5
8A
  8
0
 10
143.0015549526897
 20
203.40000000000009
 30
0.0
 11
143.0015549526897
 21
196.59999999999999
 31
0.0
  0
LINE
  5
8B
  8
0
 10
145.50155495268979
 20
203.40000000000009
 30
0.0
 11
145.50155495268979
 21
196.59999999999999
 31
0.0
  0
LINE
  5
8C
  8
3
 10
143.0015549526897
 20
203.3235
 30
0.0
 11
126.3250549526898
 21
203.3235
 31
0.0
  0
LINE
  5
8D
  8
3
 10
143.0015549526897
 20
196.6765
 30
0.0
 11
126.3250549526898
 21
196.6765
 31
0.0
  0
LINE
  5
8E
  8
0
 10
127.0015549526898
 20
204.0
 30
0.0
 11
127.0015549526897
 21
196.0
 31
0.0
  0
ARC
  5
8F
  8
0
 10
232.50155495268979
 20
200.0
 30
0.0
 40
13.0
 50
269.99999999999937
 51
90.000000000000625
  0
ARC
  5
90
  8
0
 10
230.0604294858814
 20
266.96274699167918
 30
0.0
 40
80.0
 50
251.123457275748
 51
271.74859875881941
  0
LINE
  5
91
  8
0
 10
203.50155495268979
 20
207.78846659443309
 30
0.0
 11
203.50155495268979
 21
192.2115334055668
 31
0.0
  0
ARC
  5
92
  8
0
 10
204.50155495268979
 20
192.2115334055668
 30
0.0
 40
1.0
 50
180.0000000000008
 51
251.1234572757489
  0
ARC
  5
93
  8
0
 10
204.50155495268979
 20
207.78846659443309
 30
0.0
 40
1.0
 50
108.8765427242511
 51
179.9999999999992
  0
ARC
  5
94
  8
0
 10
230.0604294858814
 20
133.03725300832079
 30
0.0
 40
80.0
 50
88.251401241180616
 51
108.876542724252
  0
LINE
  5
95
  8
1
 10
120.5015549526897
 20
200.0
 30
0.0
 11
250.5015549526897
 21
200.0
 31
0.0
  0
TEXT
  5
1EC
  8
0
 62
     3
 10
0.0
 20
0.0
 30
0.0
 40
10.0
  1
OGL8X100-SUS
  7
STANDARD1
  0
ENDSEC
  0
EOF
